ISO-10303-21;
HEADER;
FILE_DESCRIPTION (( 'STEP AP203' ),
    '1' );
FILE_NAME ('9ee0.STEP',
    '2022-07-08T14:27:19',
    ( '' ),
    ( '' ),
    'SwSTEP 2.0',
    'SolidWorks 2019',
    '' );
FILE_SCHEMA (( 'CONFIG_CONTROL_DESIGN' ));
ENDSEC;

DATA;
#1 = ORIENTED_EDGE ( 'NONE', *, *, #297, .T. ) ;
#2 = DIRECTION ( 'NONE',  ( -1.000000000000000000, 0.000000000000000000, 0.000000000000000000 ) ) ;
#3 = EDGE_LOOP ( 'NONE', ( #154, #159 ) ) ;
#4 = AXIS2_PLACEMENT_3D ( 'NONE', #248, #319, #293 ) ;
#5 = VERTEX_POINT ( 'NONE', #171 ) ;
#6 = VERTEX_POINT ( 'NONE', #366 ) ;
#7 = ADVANCED_FACE ( 'NONE', ( #41, #162 ), #11, .T. ) ;
#8 = EDGE_CURVE ( 'NONE', #294, #219, #104, .T. ) ;
#9 = EDGE_CURVE ( 'NONE', #102, #153, #251, .T. ) ;
#10 = AXIS2_PLACEMENT_3D ( 'NONE', #239, #376, #335 ) ;
#11 = PLANE ( 'NONE',  #314 ) ;
#12 = CIRCLE ( 'NONE', #332, 6.000000000000000888 ) ;
#13 = DIRECTION ( 'NONE',  ( -0.000000000000000000, -0.000000000000000000, -1.000000000000000000 ) ) ;
#14 =( LENGTH_UNIT ( ) NAMED_UNIT ( * ) SI_UNIT ( .MILLI., .METRE. ) );
#15 = APPROVAL_PERSON_ORGANIZATION ( #375, #211, #173 ) ;
#16 = DATE_AND_TIME ( #48, #240 ) ;
#17 = DIRECTION ( 'NONE',  ( -0.000000000000000000, -0.000000000000000000, -1.000000000000000000 ) ) ;
#18 = DATE_AND_TIME ( #54, #88 ) ;
#19 = PRODUCT_RELATED_PRODUCT_CATEGORY ( 'detail', '', ( #175 ) ) ;
#20 = DIRECTION ( 'NONE',  ( 0.000000000000000000, 0.000000000000000000, 1.000000000000000000 ) ) ;
#21 = CARTESIAN_POINT ( 'NONE',  ( 0.000000000000000000, 0.000000000000000000, 7.000000000000000000 ) ) ;
#22 = CIRCLE ( 'NONE', #216, 6.700000000000001066 ) ;
#23 = DIRECTION ( 'NONE',  ( 0.000000000000000000, 0.000000000000000000, -1.000000000000000000 ) ) ;
#24 = FACE_OUTER_BOUND ( 'NONE', #3, .T. ) ;
#25 = AXIS2_PLACEMENT_3D ( 'NONE', #313, #137, #82 ) ;
#26 = PLANE ( 'NONE',  #246 ) ;
#27 = AXIS2_PLACEMENT_3D ( 'NONE', #149, #267, #91 ) ;
#28 = VERTEX_POINT ( 'NONE', #86 ) ;
#29 = CARTESIAN_POINT ( 'NONE',  ( 0.000000000000000000, 0.000000000000000000, 7.000000000000000000 ) ) ;
#30 = CARTESIAN_POINT ( 'NONE',  ( -4.500000000000000000, 0.000000000000000000, 232.0000000000000000 ) ) ;
#31 = ORIENTED_EDGE ( 'NONE', *, *, #39, .F. ) ;
#32 = EDGE_CURVE ( 'NONE', #120, #153, #179, .T. ) ;
#33 = DIRECTION ( 'NONE',  ( -0.000000000000000000, -0.000000000000000000, -1.000000000000000000 ) ) ;
#34 = ORIENTED_EDGE ( 'NONE', *, *, #277, .T. ) ;
#35 = FACE_OUTER_BOUND ( 'NONE', #157, .T. ) ;
#36 = VECTOR ( 'NONE', #152, 1000.000000000000000 ) ;
#37 = EDGE_LOOP ( 'NONE', ( #285, #40, #94, #97 ) ) ;
#38 = ADVANCED_FACE ( 'NONE', ( #161 ), #131, .F. ) ;
#39 = EDGE_CURVE ( 'NONE', #120, #5, #257, .T. ) ;
#40 = ORIENTED_EDGE ( 'NONE', *, *, #98, .T. ) ;
#41 = FACE_BOUND ( 'NONE', #188, .T. ) ;
#42 = ORIENTED_EDGE ( 'NONE', *, *, #282, .T. ) ;
#43 = CIRCLE ( 'NONE', #316, 6.000000000000000888 ) ;
#44 = DIRECTION ( 'NONE',  ( 0.000000000000000000, 0.000000000000000000, 1.000000000000000000 ) ) ;
#45 = CC_DESIGN_PERSON_AND_ORGANIZATION_ASSIGNMENT ( #249, #327, ( #175 ) ) ;
#46 = CARTESIAN_POINT ( 'NONE',  ( 0.000000000000000000, 0.000000000000000000, 0.000000000000000000 ) ) ;
#47 = CARTESIAN_POINT ( 'NONE',  ( 0.000000000000000000, 0.000000000000000000, 0.000000000000000000 ) ) ;
#48 = CALENDAR_DATE ( 2022, 8, 7 ) ;
#49 = CARTESIAN_POINT ( 'NONE',  ( 0.000000000000000000, 0.000000000000000000, 0.000000000000000000 ) ) ;
#50 = AXIS2_PLACEMENT_3D ( 'NONE', #181, #343, #122 ) ;
#51 = APPROVAL_STATUS ( 'not_yet_approved' ) ;
#52 = CARTESIAN_POINT ( 'NONE',  ( -4.500000000000000000, 0.000000000000000000, 0.000000000000000000 ) ) ;
#53 = ADVANCED_FACE ( 'NONE', ( #305, #164 ), #281, .F. ) ;
#54 = CALENDAR_DATE ( 2022, 8, 7 ) ;
#55 = DIRECTION ( 'NONE',  ( 0.000000000000000000, 0.000000000000000000, 1.000000000000000000 ) ) ;
#56 = DATE_AND_TIME ( #234, #288 ) ;
#57 = DIRECTION ( 'NONE',  ( -1.000000000000000000, 0.000000000000000000, 0.000000000000000000 ) ) ;
#58 = EDGE_CURVE ( 'NONE', #153, #102, #182, .T. ) ;
#59 = CARTESIAN_POINT ( 'NONE',  ( 4.500000000000000000, 5.510910596163087583E-16, 0.000000000000000000 ) ) ;
#60 = APPROVAL_PERSON_ORGANIZATION ( #362, #93, #158 ) ;
#61 = DIRECTION ( 'NONE',  ( 1.000000000000000000, 0.000000000000000000, 0.000000000000000000 ) ) ;
#62 = DIRECTION ( 'NONE',  ( -1.000000000000000000, 1.224646799147353454E-16, 0.000000000000000000 ) ) ;
#63 = EDGE_LOOP ( 'NONE', ( #300, #350 ) ) ;
#64 = CC_DESIGN_APPROVAL ( #74, ( #326 ) ) ;
#65 = ORIENTED_EDGE ( 'NONE', *, *, #118, .F. ) ;
#66 = CARTESIAN_POINT ( 'NONE',  ( 0.000000000000000000, 0.000000000000000000, 0.000000000000000000 ) ) ;
#67 = ORIENTED_EDGE ( 'NONE', *, *, #278, .T. ) ;
#68 = CYLINDRICAL_SURFACE ( 'NONE', #27, 6.000000000000000888 ) ;
#69 = ORIENTED_EDGE ( 'NONE', *, *, #117, .F. ) ;
#70 = CIRCLE ( 'NONE', #321, 10.00000000000000000 ) ;
#71 = ORIENTED_EDGE ( 'NONE', *, *, #8, .F. ) ;
#72 = PRODUCT_DEFINITION_SHAPE ( 'NONE', 'NONE',  #187 ) ;
#73 = DIRECTION ( 'NONE',  ( 0.000000000000000000, 0.000000000000000000, 1.000000000000000000 ) ) ;
#74 = APPROVAL ( #78, 'NEURÈENÝ' ) ;
#75 =( GEOMETRIC_REPRESENTATION_CONTEXT ( 3 ) GLOBAL_UNCERTAINTY_ASSIGNED_CONTEXT ( ( #213 ) ) GLOBAL_UNIT_ASSIGNED_CONTEXT ( ( #14, #128, #130 ) ) REPRESENTATION_CONTEXT ( 'NONE', 'WORKASPACE' ) );
#76 = CARTESIAN_POINT ( 'NONE',  ( 0.000000000000000000, 0.000000000000000000, 232.0000000000000000 ) ) ;
#77 = ORIENTED_EDGE ( 'NONE', *, *, #277, .F. ) ;
#78 = APPROVAL_STATUS ( 'not_yet_approved' ) ;
#79 = CARTESIAN_POINT ( 'NONE',  ( -4.500000000000000000, 0.000000000000000000, 232.0000000000000000 ) ) ;
#80 = ADVANCED_FACE ( 'NONE', ( #84 ), #260, .T. ) ;
#81 = AXIS2_PLACEMENT_3D ( 'NONE', #46, #135, #195 ) ;
#82 = DIRECTION ( 'NONE',  ( -1.000000000000000000, 0.000000000000000000, 0.000000000000000000 ) ) ;
#83 = COORDINATED_UNIVERSAL_TIME_OFFSET ( 1, 0, .AHEAD. ) ;
#84 = FACE_OUTER_BOUND ( 'NONE', #302, .T. ) ;
#85 = CYLINDRICAL_SURFACE ( 'NONE', #193, 10.00000000000000000 ) ;
#86 = CARTESIAN_POINT ( 'NONE',  ( -6.700000000000001066, 8.205133554287267548E-16, 7.000000000000006217 ) ) ;
#87 = AXIS2_PLACEMENT_3D ( 'NONE', #196, #364, #330 ) ;
#88 = LOCAL_TIME ( 16, 27, 19.00000000000000000, #311 ) ;
#89 = DIRECTION ( 'NONE',  ( 0.000000000000000000, 0.000000000000000000, 1.000000000000000000 ) ) ;
#90 = AXIS2_PLACEMENT_3D ( 'NONE', #269, #33, #379 ) ;
#91 = DIRECTION ( 'NONE',  ( -1.000000000000000000, 0.000000000000000000, 0.000000000000000000 ) ) ;
#92 = FACE_OUTER_BOUND ( 'NONE', #242, .T. ) ;
#93 = APPROVAL ( #324, 'NEURÈENÝ' ) ;
#94 = ORIENTED_EDGE ( 'NONE', *, *, #170, .T. ) ;
#95 = CC_DESIGN_APPROVAL ( #93, ( #187 ) ) ;
#96 = DIRECTION ( 'NONE',  ( 0.000000000000000000, 0.000000000000000000, 1.000000000000000000 ) ) ;
#97 = ORIENTED_EDGE ( 'NONE', *, *, #358, .F. ) ;
#98 = EDGE_CURVE ( 'NONE', #323, #280, #309, .T. ) ;
#99 = CARTESIAN_POINT ( 'NONE',  ( 6.000000000000000888, 7.347880794884120722E-16, 232.0000000000000000 ) ) ;
#100 = ORIENTED_EDGE ( 'NONE', *, *, #230, .T. ) ;
#101 = LINE ( 'NONE', #226, #228 ) ;
#102 = VERTEX_POINT ( 'NONE', #59 ) ;
#103 = CLOSED_SHELL ( 'NONE', ( #38, #338, #329, #147, #80, #238, #53, #244, #7, #218, #261 ) ) ;
#104 = LINE ( 'NONE', #357, #361 ) ;
#105 = LOCAL_TIME ( 16, 27, 19.00000000000000000, #236 ) ;
#106 = ORIENTED_EDGE ( 'NONE', *, *, #39, .T. ) ;
#107 = CARTESIAN_POINT ( 'NONE',  ( 10.00000000000000000, 1.224646799147353256E-15, 7.000000000000000000 ) ) ;
#108 = DATE_AND_TIME ( #203, #148 ) ;
#109 = CARTESIAN_POINT ( 'NONE',  ( -10.00000000000000000, 0.000000000000000000, 0.000000000000000000 ) ) ;
#110 = AXIS2_PLACEMENT_3D ( 'NONE', #377, #220, #2 ) ;
#111 = PERSON_AND_ORGANIZATION_ROLE ( 'creator' ) ;
#112 = CARTESIAN_POINT ( 'NONE',  ( -6.000000000000000888, 0.000000000000000000, 7.700000000000012612 ) ) ;
#113 = PERSON_AND_ORGANIZATION_ROLE ( 'classification_officer' ) ;
#114 = DIRECTION ( 'NONE',  ( 0.000000000000000000, 0.000000000000000000, -1.000000000000000000 ) ) ;
#115 = CARTESIAN_POINT ( 'NONE',  ( 0.000000000000000000, 0.000000000000000000, 7.700000000000012612 ) ) ;
#116 = AXIS2_PLACEMENT_3D ( 'NONE', #243, #183, #62 ) ;
#117 = EDGE_CURVE ( 'NONE', #292, #323, #252, .T. ) ;
#118 = EDGE_CURVE ( 'NONE', #219, #6, #232, .T. ) ;
#119 = FACE_OUTER_BOUND ( 'NONE', #346, .T. ) ;
#120 = VERTEX_POINT ( 'NONE', #79 ) ;
#121 = DIRECTION ( 'NONE',  ( 1.000000000000000000, 0.000000000000000000, 0.000000000000000000 ) ) ;
#122 = DIRECTION ( 'NONE',  ( 1.000000000000000000, 0.000000000000000000, 0.000000000000000000 ) ) ;
#123 = EDGE_CURVE ( 'NONE', #221, #28, #22, .T. ) ;
#124 = CIRCLE ( 'NONE', #50, 4.500000000000000000 ) ;
#125 = ORIENTED_EDGE ( 'NONE', *, *, #134, .F. ) ;
#126 = CYLINDRICAL_SURFACE ( 'NONE', #90, 6.000000000000000888 ) ;
#127 = ORIENTED_EDGE ( 'NONE', *, *, #8, .T. ) ;
#128 =( NAMED_UNIT ( * ) PLANE_ANGLE_UNIT ( ) SI_UNIT ( $, .RADIAN. ) );
#129 = EDGE_LOOP ( 'NONE', ( #133, #125, #127, #348 ) ) ;
#130 =( NAMED_UNIT ( * ) SI_UNIT ( $, .STERADIAN. ) SOLID_ANGLE_UNIT ( ) );
#131 = CYLINDRICAL_SURFACE ( 'NONE', #87, 4.500000000000000000 ) ;
#132 = CIRCLE ( 'NONE', #172, 0.7000000000000000666 ) ;
#133 = ORIENTED_EDGE ( 'NONE', *, *, #297, .F. ) ;
#134 = EDGE_CURVE ( 'NONE', #294, #274, #12, .T. ) ;
#135 = DIRECTION ( 'NONE',  ( 0.000000000000000000, 0.000000000000000000, 1.000000000000000000 ) ) ;
#136 = DATE_TIME_ROLE ( 'classification_date' ) ;
#137 = DIRECTION ( 'NONE',  ( -0.000000000000000000, -0.000000000000000000, -1.000000000000000000 ) ) ;
#138 = APPROVAL_DATE_TIME ( #18, #74 ) ;
#139 = AXIS2_PLACEMENT_3D ( 'NONE', #47, #44, #167 ) ;
#140 = AXIS2_PLACEMENT_3D ( 'NONE', #66, #241, #344 ) ;
#141 = PERSON_AND_ORGANIZATION ( #359, #190 ) ;
#142 = CC_DESIGN_DATE_AND_TIME_ASSIGNMENT ( #56, #308, ( #187 ) ) ;
#143 = APPROVAL_DATE_TIME ( #208, #211 ) ;
#144 = CARTESIAN_POINT ( 'NONE',  ( 0.000000000000000000, 0.000000000000000000, 7.000000000000000000 ) ) ;
#145 = DIRECTION ( 'NONE',  ( 1.000000000000000000, 0.000000000000000000, -0.000000000000000000 ) ) ;
#146 = EDGE_CURVE ( 'NONE', #5, #102, #201, .T. ) ;
#147 = ADVANCED_FACE ( 'NONE', ( #263 ), #85, .T. ) ;
#148 = LOCAL_TIME ( 16, 27, 19.00000000000000000, #352 ) ;
#149 = CARTESIAN_POINT ( 'NONE',  ( 0.000000000000000000, 0.000000000000000000, 232.0000000000000000 ) ) ;
#150 = ORIENTED_EDGE ( 'NONE', *, *, #9, .F. ) ;
#151 = DIRECTION ( 'NONE',  ( -0.000000000000000000, -0.000000000000000000, -1.000000000000000000 ) ) ;
#152 = DIRECTION ( 'NONE',  ( 0.000000000000000000, 0.000000000000000000, -1.000000000000000000 ) ) ;
#153 = VERTEX_POINT ( 'NONE', #52 ) ;
#154 = ORIENTED_EDGE ( 'NONE', *, *, #117, .T. ) ;
#155 = EDGE_CURVE ( 'NONE', #6, #221, #132, .T. ) ;
#156 = APPLICATION_CONTEXT ( 'configuration controlled 3d designs of mechanical parts and assemblies' ) ;
#157 = EDGE_LOOP ( 'NONE', ( #331, #67, #184, #320 ) ) ;
#158 = APPROVAL_ROLE ( '' ) ;
#159 = ORIENTED_EDGE ( 'NONE', *, *, #333, .T. ) ;
#160 = DIRECTION ( 'NONE',  ( -0.000000000000000000, -0.000000000000000000, -1.000000000000000000 ) ) ;
#161 = FACE_OUTER_BOUND ( 'NONE', #191, .T. ) ;
#162 = FACE_OUTER_BOUND ( 'NONE', #63, .T. ) ;
#163 = DIRECTION ( 'NONE',  ( 0.000000000000000000, 0.000000000000000000, 1.000000000000000000 ) ) ;
#164 = FACE_OUTER_BOUND ( 'NONE', #380, .T. ) ;
#165 = CIRCLE ( 'NONE', #116, 0.7000000000000000666 ) ;
#166 = CARTESIAN_POINT ( 'NONE',  ( 0.000000000000000000, 0.000000000000000000, 232.0000000000000000 ) ) ;
#167 = DIRECTION ( 'NONE',  ( 1.000000000000000000, 0.000000000000000000, -0.000000000000000000 ) ) ;
#168 = DIRECTION ( 'NONE',  ( 0.000000000000000000, 0.000000000000000000, 1.000000000000000000 ) ) ;
#169 = VERTEX_POINT ( 'NONE', #109 ) ;
#170 = EDGE_CURVE ( 'NONE', #280, #169, #70, .T. ) ;
#171 = CARTESIAN_POINT ( 'NONE',  ( 4.500000000000000000, 5.510910596163087583E-16, 232.0000000000000000 ) ) ;
#172 = AXIS2_PLACEMENT_3D ( 'NONE', #371, #177, #114 ) ;
#173 = APPROVAL_ROLE ( '' ) ;
#174 = DIRECTION ( 'NONE',  ( 1.000000000000000000, 0.000000000000000000, 0.000000000000000000 ) ) ;
#175 = PRODUCT ( '9ee0', '9ee0', '', ( #255 ) ) ;
#176 = PERSON_AND_ORGANIZATION ( #359, #190 ) ;
#177 = DIRECTION ( 'NONE',  ( 0.000000000000000000, -1.000000000000000000, 0.000000000000000000 ) ) ;
#178 = DIRECTION ( 'NONE',  ( 1.000000000000000000, 0.000000000000000000, 0.000000000000000000 ) ) ;
#179 = LINE ( 'NONE', #30, #36 ) ;
#180 = DESIGN_CONTEXT ( 'detailed design', #192, 'design' ) ;
#181 = CARTESIAN_POINT ( 'NONE',  ( 0.000000000000000000, 0.000000000000000000, 232.0000000000000000 ) ) ;
#182 = CIRCLE ( 'NONE', #227, 4.500000000000000000 ) ;
#183 = DIRECTION ( 'NONE',  ( 1.224646799147353207E-16, 1.000000000000000000, -0.000000000000000000 ) ) ;
#184 = ORIENTED_EDGE ( 'NONE', *, *, #32, .T. ) ;
#185 = CARTESIAN_POINT ( 'NONE',  ( -6.000000000000000888, 0.000000000000000000, 232.0000000000000000 ) ) ;
#186 = EDGE_LOOP ( 'NONE', ( #306, #223 ) ) ;
#187 = PRODUCT_DEFINITION ( 'NEZNÁMÝ', '', #326, #180 ) ;
#188 = EDGE_LOOP ( 'NONE', ( #31, #247 ) ) ;
#189 = APPLICATION_PROTOCOL_DEFINITION ( 'international standard', 'config_control_design', 1994, #156 ) ;
#190 = ORGANIZATION ( 'NEURÈENÝ', 'NEURÈENÝ', '' ) ;
#191 = EDGE_LOOP ( 'NONE', ( #106, #296, #279, #197 ) ) ;
#192 = APPLICATION_CONTEXT ( 'configuration controlled 3d designs of mechanical parts and assemblies' ) ;
#193 = AXIS2_PLACEMENT_3D ( 'NONE', #21, #341, #57 ) ;
#194 = CC_DESIGN_DATE_AND_TIME_ASSIGNMENT ( #16, #136, ( #202 ) ) ;
#195 = DIRECTION ( 'NONE',  ( 1.000000000000000000, 0.000000000000000000, 0.000000000000000000 ) ) ;
#196 = CARTESIAN_POINT ( 'NONE',  ( 0.000000000000000000, 0.000000000000000000, 232.0000000000000000 ) ) ;
#197 = ORIENTED_EDGE ( 'NONE', *, *, #32, .F. ) ;
#198 = APPROVAL_ROLE ( '' ) ;
#199 = DIRECTION ( 'NONE',  ( 1.000000000000000000, 0.000000000000000000, 0.000000000000000000 ) ) ;
#200 = PERSON_AND_ORGANIZATION ( #359, #190 ) ;
#201 = LINE ( 'NONE', #289, #372 ) ;
#202 = SECURITY_CLASSIFICATION ( '', '', #264 ) ;
#203 = CALENDAR_DATE ( 2022, 8, 7 ) ;
#204 = DIRECTION ( 'NONE',  ( 1.000000000000000000, 0.000000000000000000, 0.000000000000000000 ) ) ;
#205 = CC_DESIGN_PERSON_AND_ORGANIZATION_ASSIGNMENT ( #141, #337, ( #326 ) ) ;
#206 = CALENDAR_DATE ( 2022, 8, 7 ) ;
#207 = MANIFOLD_SOLID_BREP ( 'Odebrat vysunutím3', #103 ) ;
#208 = DATE_AND_TIME ( #206, #105 ) ;
#209 = DIRECTION ( 'NONE',  ( 1.000000000000000000, 0.000000000000000000, 0.000000000000000000 ) ) ;
#210 = AXIS2_PLACEMENT_3D ( 'NONE', #229, #266, #340 ) ;
#211 = APPROVAL ( #51, 'NEURÈENÝ' ) ;
#212 = CARTESIAN_POINT ( 'NONE',  ( 0.000000000000000000, 0.000000000000000000, 7.700000000000012612 ) ) ;
#213 = UNCERTAINTY_MEASURE_WITH_UNIT (LENGTH_MEASURE( 1.000000000000000082E-05 ), #14, 'distance_accuracy_value', 'NONE');
#214 = ORIENTED_EDGE ( 'NONE', *, *, #155, .F. ) ;
#215 = AXIS2_PLACEMENT_3D ( 'NONE', #212, #317, #204 ) ;
#216 = AXIS2_PLACEMENT_3D ( 'NONE', #144, #233, #178 ) ;
#217 = CYLINDRICAL_SURFACE ( 'NONE', #110, 4.500000000000000000 ) ;
#218 = ADVANCED_FACE ( 'NONE', ( #287 ), #286, .F. ) ;
#219 = VERTEX_POINT ( 'NONE', #112 ) ;
#220 = DIRECTION ( 'NONE',  ( 0.000000000000000000, 0.000000000000000000, -1.000000000000000000 ) ) ;
#221 = VERTEX_POINT ( 'NONE', #374 ) ;
#222 = CARTESIAN_POINT ( 'NONE',  ( 0.000000000000000000, 0.000000000000000000, 7.700000000000012612 ) ) ;
#223 = ORIENTED_EDGE ( 'NONE', *, *, #356, .T. ) ;
#224 = CC_DESIGN_PERSON_AND_ORGANIZATION_ASSIGNMENT ( #307, #111, ( #187 ) ) ;
#225 = AXIS2_PLACEMENT_3D ( 'NONE', #235, #89, #209 ) ;
#226 = CARTESIAN_POINT ( 'NONE',  ( -10.00000000000000000, 0.000000000000000000, 7.000000000000000000 ) ) ;
#227 = AXIS2_PLACEMENT_3D ( 'NONE', #49, #283, #256 ) ;
#228 = VECTOR ( 'NONE', #160, 1000.000000000000000 ) ;
#229 = CARTESIAN_POINT ( 'NONE',  ( 0.000000000000000000, 0.000000000000000000, 0.000000000000000000 ) ) ;
#230 = EDGE_CURVE ( 'NONE', #6, #219, #43, .T. ) ;
#231 = PERSON_AND_ORGANIZATION_ROLE ( 'creator' ) ;
#232 = CIRCLE ( 'NONE', #215, 6.000000000000000888 ) ;
#233 = DIRECTION ( 'NONE',  ( -0.000000000000000000, -0.000000000000000000, -1.000000000000000000 ) ) ;
#234 = CALENDAR_DATE ( 2022, 8, 7 ) ;
#235 = CARTESIAN_POINT ( 'NONE',  ( 0.000000000000000000, 0.000000000000000000, 7.700000000000012612 ) ) ;
#236 = COORDINATED_UNIVERSAL_TIME_OFFSET ( 1, 0, .AHEAD. ) ;
#237 = DIRECTION ( 'NONE',  ( 1.000000000000000000, 0.000000000000000000, 0.000000000000000000 ) ) ;
#238 = ADVANCED_FACE ( 'NONE', ( #273, #24 ), #26, .T. ) ;
#239 = CARTESIAN_POINT ( 'NONE',  ( 0.000000000000000000, 0.000000000000000000, 7.000000000000000000 ) ) ;
#240 = LOCAL_TIME ( 16, 27, 19.00000000000000000, #83 ) ;
#241 = DIRECTION ( 'NONE',  ( 0.000000000000000000, 0.000000000000000000, 1.000000000000000000 ) ) ;
#242 = EDGE_LOOP ( 'NONE', ( #353, #1, #100, #71 ) ) ;
#243 = CARTESIAN_POINT ( 'NONE',  ( -6.700000000000001066, 8.205133554287267548E-16, 7.700000000000012612 ) ) ;
#244 = ADVANCED_FACE ( 'NONE', ( #347 ), #68, .T. ) ;
#245 = ORIENTED_EDGE ( 'NONE', *, *, #282, .F. ) ;
#246 = AXIS2_PLACEMENT_3D ( 'NONE', #349, #96, #145 ) ;
#247 = ORIENTED_EDGE ( 'NONE', *, *, #278, .F. ) ;
#248 = CARTESIAN_POINT ( 'NONE',  ( 0.000000000000000000, 0.000000000000000000, 7.000000000000000000 ) ) ;
#249 = PERSON_AND_ORGANIZATION ( #359, #190 ) ;
#250 = ORIENTED_EDGE ( 'NONE', *, *, #123, .F. ) ;
#251 = CIRCLE ( 'NONE', #210, 4.500000000000000000 ) ;
#252 = CIRCLE ( 'NONE', #10, 10.00000000000000000 ) ;
#253 = AXIS2_PLACEMENT_3D ( 'NONE', #254, #163, #303 ) ;
#254 = CARTESIAN_POINT ( 'NONE',  ( 0.000000000000000000, 0.000000000000000000, 232.0000000000000000 ) ) ;
#255 = MECHANICAL_CONTEXT ( 'NONE', #156, 'mechanical' ) ;
#256 = DIRECTION ( 'NONE',  ( 1.000000000000000000, 0.000000000000000000, 0.000000000000000000 ) ) ;
#257 = CIRCLE ( 'NONE', #299, 4.500000000000000000 ) ;
#258 = APPROVAL_PERSON_ORGANIZATION ( #176, #74, #198 ) ;
#259 = VECTOR ( 'NONE', #151, 1000.000000000000000 ) ;
#260 = CYLINDRICAL_SURFACE ( 'NONE', #25, 10.00000000000000000 ) ;
#261 = ADVANCED_FACE ( 'NONE', ( #35 ), #217, .F. ) ;
#262 = CARTESIAN_POINT ( 'NONE',  ( 0.000000000000000000, 0.000000000000000000, 232.0000000000000000 ) ) ;
#263 = FACE_OUTER_BOUND ( 'NONE', #37, .T. ) ;
#264 = SECURITY_CLASSIFICATION_LEVEL ( 'unclassified' ) ;
#265 = CC_DESIGN_PERSON_AND_ORGANIZATION_ASSIGNMENT ( #200, #231, ( #326 ) ) ;
#266 = DIRECTION ( 'NONE',  ( -0.000000000000000000, -0.000000000000000000, -1.000000000000000000 ) ) ;
#267 = DIRECTION ( 'NONE',  ( -0.000000000000000000, -0.000000000000000000, -1.000000000000000000 ) ) ;
#268 = CIRCLE ( 'NONE', #310, 6.700000000000001066 ) ;
#269 = CARTESIAN_POINT ( 'NONE',  ( 0.000000000000000000, 0.000000000000000000, 232.0000000000000000 ) ) ;
#270 = ORIENTED_EDGE ( 'NONE', *, *, #155, .T. ) ;
#271 = DIRECTION ( 'NONE',  ( -0.000000000000000000, -0.000000000000000000, -1.000000000000000000 ) ) ;
#272 = ORIENTED_EDGE ( 'NONE', *, *, #170, .F. ) ;
#273 = FACE_BOUND ( 'NONE', #186, .T. ) ;
#274 = VERTEX_POINT ( 'NONE', #298 ) ;
#275 = AXIS2_PLACEMENT_3D ( 'NONE', #222, #381, #61 ) ;
#276 = CARTESIAN_POINT ( 'NONE',  ( 10.00000000000000000, 1.224646799147353256E-15, 0.000000000000000000 ) ) ;
#277 = EDGE_CURVE ( 'NONE', #219, #28, #165, .T. ) ;
#278 = EDGE_CURVE ( 'NONE', #5, #120, #124, .T. ) ;
#279 = ORIENTED_EDGE ( 'NONE', *, *, #9, .T. ) ;
#280 = VERTEX_POINT ( 'NONE', #276 ) ;
#281 = PLANE ( 'NONE',  #139 ) ;
#282 = EDGE_CURVE ( 'NONE', #169, #280, #342, .T. ) ;
#283 = DIRECTION ( 'NONE',  ( -0.000000000000000000, -0.000000000000000000, -1.000000000000000000 ) ) ;
#284 = DIRECTION ( 'NONE',  ( 1.000000000000000000, 0.000000000000000000, -0.000000000000000000 ) ) ;
#285 = ORIENTED_EDGE ( 'NONE', *, *, #333, .F. ) ;
#286 = TOROIDAL_SURFACE ( 'NONE', #225, 6.700000000000001066, 0.6999999999999999556 ) ;
#287 = FACE_OUTER_BOUND ( 'NONE', #304, .T. ) ;
#288 = LOCAL_TIME ( 16, 27, 19.00000000000000000, #334 ) ;
#289 = CARTESIAN_POINT ( 'NONE',  ( 4.500000000000000000, 5.510910596163087583E-16, 232.0000000000000000 ) ) ;
#290 = CARTESIAN_POINT ( 'NONE',  ( -10.00000000000000000, 0.000000000000000000, 7.000000000000000000 ) ) ;
#291 = LINE ( 'NONE', #99, #259 ) ;
#292 = VERTEX_POINT ( 'NONE', #290 ) ;
#293 = DIRECTION ( 'NONE',  ( 1.000000000000000000, 0.000000000000000000, 0.000000000000000000 ) ) ;
#294 = VERTEX_POINT ( 'NONE', #185 ) ;
#295 = CARTESIAN_POINT ( 'NONE',  ( 10.00000000000000000, 1.224646799147353256E-15, 7.000000000000000000 ) ) ;
#296 = ORIENTED_EDGE ( 'NONE', *, *, #146, .T. ) ;
#297 = EDGE_CURVE ( 'NONE', #274, #6, #291, .T. ) ;
#298 = CARTESIAN_POINT ( 'NONE',  ( 6.000000000000000888, 7.347880794884120722E-16, 232.0000000000000000 ) ) ;
#299 = AXIS2_PLACEMENT_3D ( 'NONE', #76, #73, #199 ) ;
#300 = ORIENTED_EDGE ( 'NONE', *, *, #134, .T. ) ;
#301 = CIRCLE ( 'NONE', #4, 10.00000000000000000 ) ;
#302 = EDGE_LOOP ( 'NONE', ( #365, #69, #325, #42 ) ) ;
#303 = DIRECTION ( 'NONE',  ( 1.000000000000000000, 0.000000000000000000, 0.000000000000000000 ) ) ;
#304 = EDGE_LOOP ( 'NONE', ( #77, #318, #270, #351 ) ) ;
#305 = FACE_BOUND ( 'NONE', #328, .T. ) ;
#306 = ORIENTED_EDGE ( 'NONE', *, *, #123, .T. ) ;
#307 = PERSON_AND_ORGANIZATION ( #359, #190 ) ;
#308 = DATE_TIME_ROLE ( 'creation_date' ) ;
#309 = LINE ( 'NONE', #107, #368 ) ;
#310 = AXIS2_PLACEMENT_3D ( 'NONE', #29, #271, #121 ) ;
#311 = COORDINATED_UNIVERSAL_TIME_OFFSET ( 1, 0, .AHEAD. ) ;
#312 = CARTESIAN_POINT ( 'NONE',  ( 0.000000000000000000, 0.000000000000000000, 0.000000000000000000 ) ) ;
#313 = CARTESIAN_POINT ( 'NONE',  ( 0.000000000000000000, 0.000000000000000000, 7.000000000000000000 ) ) ;
#314 = AXIS2_PLACEMENT_3D ( 'NONE', #166, #168, #284 ) ;
#315 = DIRECTION ( 'NONE',  ( 1.000000000000000000, 0.000000000000000000, 0.000000000000000000 ) ) ;
#316 = AXIS2_PLACEMENT_3D ( 'NONE', #115, #339, #315 ) ;
#317 = DIRECTION ( 'NONE',  ( 0.000000000000000000, 0.000000000000000000, 1.000000000000000000 ) ) ;
#318 = ORIENTED_EDGE ( 'NONE', *, *, #230, .F. ) ;
#319 = DIRECTION ( 'NONE',  ( 0.000000000000000000, 0.000000000000000000, 1.000000000000000000 ) ) ;
#320 = ORIENTED_EDGE ( 'NONE', *, *, #58, .T. ) ;
#321 = AXIS2_PLACEMENT_3D ( 'NONE', #312, #55, #174 ) ;
#322 = ORIENTED_EDGE ( 'NONE', *, *, #58, .F. ) ;
#323 = VERTEX_POINT ( 'NONE', #295 ) ;
#324 = APPROVAL_STATUS ( 'not_yet_approved' ) ;
#325 = ORIENTED_EDGE ( 'NONE', *, *, #358, .T. ) ;
#326 = PRODUCT_DEFINITION_FORMATION_WITH_SPECIFIED_SOURCE ( 'LIBOVOLNÝ', '', #175, .NOT_KNOWN. ) ;
#327 = PERSON_AND_ORGANIZATION_ROLE ( 'design_owner' ) ;
#328 = EDGE_LOOP ( 'NONE', ( #322, #150 ) ) ;
#329 = ADVANCED_FACE ( 'NONE', ( #92 ), #126, .T. ) ;
#330 = DIRECTION ( 'NONE',  ( -1.000000000000000000, 0.000000000000000000, 0.000000000000000000 ) ) ;
#331 = ORIENTED_EDGE ( 'NONE', *, *, #146, .F. ) ;
#332 = AXIS2_PLACEMENT_3D ( 'NONE', #262, #20, #237 ) ;
#333 = EDGE_CURVE ( 'NONE', #323, #292, #301, .T. ) ;
#334 = COORDINATED_UNIVERSAL_TIME_OFFSET ( 1, 0, .AHEAD. ) ;
#335 = DIRECTION ( 'NONE',  ( 1.000000000000000000, 0.000000000000000000, 0.000000000000000000 ) ) ;
#336 = TOROIDAL_SURFACE ( 'NONE', #275, 6.700000000000001066, 0.6999999999999999556 ) ;
#337 = PERSON_AND_ORGANIZATION_ROLE ( 'design_supplier' ) ;
#338 = ADVANCED_FACE ( 'NONE', ( #119 ), #336, .F. ) ;
#339 = DIRECTION ( 'NONE',  ( 0.000000000000000000, 0.000000000000000000, 1.000000000000000000 ) ) ;
#340 = DIRECTION ( 'NONE',  ( 1.000000000000000000, 0.000000000000000000, 0.000000000000000000 ) ) ;
#341 = DIRECTION ( 'NONE',  ( -0.000000000000000000, -0.000000000000000000, -1.000000000000000000 ) ) ;
#342 = CIRCLE ( 'NONE', #140, 10.00000000000000000 ) ;
#343 = DIRECTION ( 'NONE',  ( 0.000000000000000000, 0.000000000000000000, 1.000000000000000000 ) ) ;
#344 = DIRECTION ( 'NONE',  ( 1.000000000000000000, 0.000000000000000000, 0.000000000000000000 ) ) ;
#345 = ADVANCED_BREP_SHAPE_REPRESENTATION ( '9ee0', ( #207, #81 ), #75 ) ;
#346 = EDGE_LOOP ( 'NONE', ( #65, #34, #250, #214 ) ) ;
#347 = FACE_OUTER_BOUND ( 'NONE', #129, .T. ) ;
#348 = ORIENTED_EDGE ( 'NONE', *, *, #118, .T. ) ;
#349 = CARTESIAN_POINT ( 'NONE',  ( 0.000000000000000000, 0.000000000000000000, 7.000000000000000000 ) ) ;
#350 = ORIENTED_EDGE ( 'NONE', *, *, #370, .T. ) ;
#351 = ORIENTED_EDGE ( 'NONE', *, *, #356, .F. ) ;
#352 = COORDINATED_UNIVERSAL_TIME_OFFSET ( 1, 0, .AHEAD. ) ;
#353 = ORIENTED_EDGE ( 'NONE', *, *, #370, .F. ) ;
#354 = CC_DESIGN_APPROVAL ( #211, ( #202 ) ) ;
#355 = APPLICATION_PROTOCOL_DEFINITION ( 'international standard', 'config_control_design', 1994, #192 ) ;
#356 = EDGE_CURVE ( 'NONE', #28, #221, #268, .T. ) ;
#357 = CARTESIAN_POINT ( 'NONE',  ( -6.000000000000000888, 0.000000000000000000, 232.0000000000000000 ) ) ;
#358 = EDGE_CURVE ( 'NONE', #292, #169, #101, .T. ) ;
#359 = PERSON ( 'NEURÈENÝ', 'NEURÈENÝ', 'NEURÈENÝ', ('NEURÈENÝ'), ('NEURÈENÝ'), ('NEURÈENÝ') ) ;
#360 = CC_DESIGN_PERSON_AND_ORGANIZATION_ASSIGNMENT ( #373, #113, ( #202 ) ) ;
#361 = VECTOR ( 'NONE', #13, 1000.000000000000000 ) ;
#362 = PERSON_AND_ORGANIZATION ( #359, #190 ) ;
#363 = CC_DESIGN_SECURITY_CLASSIFICATION ( #202, ( #326 ) ) ;
#364 = DIRECTION ( 'NONE',  ( 0.000000000000000000, 0.000000000000000000, -1.000000000000000000 ) ) ;
#365 = ORIENTED_EDGE ( 'NONE', *, *, #98, .F. ) ;
#366 = CARTESIAN_POINT ( 'NONE',  ( 6.000000000000000888, 7.347880794884120722E-16, 7.700000000000012612 ) ) ;
#367 = SHAPE_DEFINITION_REPRESENTATION ( #72, #345 ) ;
#368 = VECTOR ( 'NONE', #17, 1000.000000000000000 ) ;
#369 = APPROVAL_DATE_TIME ( #108, #93 ) ;
#370 = EDGE_CURVE ( 'NONE', #274, #294, #378, .T. ) ;
#371 = CARTESIAN_POINT ( 'NONE',  ( 6.700000000000001066, 0.000000000000000000, 7.700000000000012612 ) ) ;
#372 = VECTOR ( 'NONE', #23, 1000.000000000000000 ) ;
#373 = PERSON_AND_ORGANIZATION ( #359, #190 ) ;
#374 = CARTESIAN_POINT ( 'NONE',  ( 6.700000000000001066, 0.000000000000000000, 7.000000000000006217 ) ) ;
#375 = PERSON_AND_ORGANIZATION ( #359, #190 ) ;
#376 = DIRECTION ( 'NONE',  ( 0.000000000000000000, 0.000000000000000000, 1.000000000000000000 ) ) ;
#377 = CARTESIAN_POINT ( 'NONE',  ( 0.000000000000000000, 0.000000000000000000, 232.0000000000000000 ) ) ;
#378 = CIRCLE ( 'NONE', #253, 6.000000000000000888 ) ;
#379 = DIRECTION ( 'NONE',  ( -1.000000000000000000, 0.000000000000000000, 0.000000000000000000 ) ) ;
#380 = EDGE_LOOP ( 'NONE', ( #245, #272 ) ) ;
#381 = DIRECTION ( 'NONE',  ( 0.000000000000000000, 0.000000000000000000, 1.000000000000000000 ) ) ;
ENDSEC;
END-ISO-10303-21;
