ISO-10303-21;
HEADER;
FILE_DESCRIPTION (( 'STEP AP203' ),
    '1' );
FILE_NAME ('a9d4.STEP',
    '2022-07-08T15:06:31',
    ( '' ),
    ( '' ),
    'SwSTEP 2.0',
    'SolidWorks 2019',
    '' );
FILE_SCHEMA (( 'CONFIG_CONTROL_DESIGN' ));
ENDSEC;

DATA;
#1 = ORIENTED_EDGE ( 'NONE', *, *, #24, .F. ) ;
#2 = COORDINATED_UNIVERSAL_TIME_OFFSET ( 1, 0, .AHEAD. ) ;
#3 = PERSON_AND_ORGANIZATION ( #79, #6 ) ;
#4 = TOROIDAL_SURFACE ( 'NONE', #213, 5.500000000000000000, 0.5000000000000000000 ) ;
#5 = PERSON_AND_ORGANIZATION_ROLE ( 'design_owner' ) ;
#6 = ORGANIZATION ( 'NEURÈENÝ', 'NEURÈENÝ', '' ) ;
#7 = FACE_OUTER_BOUND ( 'NONE', #142, .T. ) ;
#8 = DESIGN_CONTEXT ( 'detailed design', #215, 'design' ) ;
#9 = CALENDAR_DATE ( 2022, 8, 7 ) ;
#10 = VERTEX_POINT ( 'NONE', #265 ) ;
#11 = CARTESIAN_POINT ( 'NONE',  ( -5.500000000000000000, 6.735557395310442023E-16, 5.000000000000002665 ) ) ;
#12 = PERSON_AND_ORGANIZATION ( #79, #6 ) ;
#13 = CIRCLE ( 'NONE', #21, 8.000000000000000000 ) ;
#14 = ADVANCED_FACE ( 'NONE', ( #7 ), #123, .T. ) ;
#15 = CIRCLE ( 'NONE', #274, 5.000000000000000000 ) ;
#16 = CARTESIAN_POINT ( 'NONE',  ( 0.000000000000000000, 0.000000000000000000, 0.000000000000000000 ) ) ;
#17 = DATE_AND_TIME ( #327, #309 ) ;
#18 = CARTESIAN_POINT ( 'NONE',  ( -2.750000000000000000, 0.000000000000000000, 80.00000000000000000 ) ) ;
#19 = CC_DESIGN_DATE_AND_TIME_ASSIGNMENT ( #175, #64, ( #176 ) ) ;
#20 = CARTESIAN_POINT ( 'NONE',  ( -5.000000000000000000, 0.000000000000000000, 5.500000000000005329 ) ) ;
#21 = AXIS2_PLACEMENT_3D ( 'NONE', #129, #133, #362 ) ;
#22 = VERTEX_POINT ( 'NONE', #326 ) ;
#23 = DIRECTION ( 'NONE',  ( -1.000000000000000000, 0.000000000000000000, 0.000000000000000000 ) ) ;
#24 = EDGE_CURVE ( 'NONE', #346, #166, #241, .T. ) ;
#25 = CARTESIAN_POINT ( 'NONE',  ( 0.000000000000000000, 0.000000000000000000, 0.000000000000000000 ) ) ;
#26 = CYLINDRICAL_SURFACE ( 'NONE', #149, 2.750000000000000000 ) ;
#27 = ORIENTED_EDGE ( 'NONE', *, *, #37, .T. ) ;
#28 = DIRECTION ( 'NONE',  ( 0.000000000000000000, 0.000000000000000000, 1.000000000000000000 ) ) ;
#29 = EDGE_LOOP ( 'NONE', ( #114, #178 ) ) ;
#30 = DIRECTION ( 'NONE',  ( 0.000000000000000000, 0.000000000000000000, 1.000000000000000000 ) ) ;
#31 = ORIENTED_EDGE ( 'NONE', *, *, #155, .T. ) ;
#32 = ADVANCED_FACE ( 'NONE', ( #186 ), #217, .T. ) ;
#33 = APPLICATION_PROTOCOL_DEFINITION ( 'international standard', 'config_control_design', 1994, #182 ) ;
#34 = SECURITY_CLASSIFICATION ( '', '', #62 ) ;
#35 = PERSON_AND_ORGANIZATION ( #79, #6 ) ;
#36 = CALENDAR_DATE ( 2022, 8, 7 ) ;
#37 = EDGE_CURVE ( 'NONE', #56, #198, #61, .T. ) ;
#38 = CIRCLE ( 'NONE', #335, 5.000000000000000000 ) ;
#39 = LOCAL_TIME ( 17, 6, 31.00000000000000000, #351 ) ;
#40 = PERSON_AND_ORGANIZATION ( #79, #6 ) ;
#41 = ORIENTED_EDGE ( 'NONE', *, *, #268, .F. ) ;
#42 = DIRECTION ( 'NONE',  ( 0.000000000000000000, -1.000000000000000000, 0.000000000000000000 ) ) ;
#43 = EDGE_CURVE ( 'NONE', #56, #343, #210, .T. ) ;
#44 = DIRECTION ( 'NONE',  ( 1.000000000000000000, 0.000000000000000000, 0.000000000000000000 ) ) ;
#45 = CIRCLE ( 'NONE', #172, 0.5000000000000004441 ) ;
#46 = AXIS2_PLACEMENT_3D ( 'NONE', #139, #145, #311 ) ;
#47 = DIRECTION ( 'NONE',  ( -0.000000000000000000, -0.000000000000000000, -1.000000000000000000 ) ) ;
#48 = DIRECTION ( 'NONE',  ( 1.000000000000000000, 0.000000000000000000, 0.000000000000000000 ) ) ;
#49 = ADVANCED_FACE ( 'NONE', ( #239, #160 ), #102, .T. ) ;
#50 = DIRECTION ( 'NONE',  ( -0.000000000000000000, -0.000000000000000000, -1.000000000000000000 ) ) ;
#51 = AXIS2_PLACEMENT_3D ( 'NONE', #135, #104, #183 ) ;
#52 = VECTOR ( 'NONE', #80, 1000.000000000000000 ) ;
#53 = DIRECTION ( 'NONE',  ( 1.000000000000000000, 0.000000000000000000, 0.000000000000000000 ) ) ;
#54 = CARTESIAN_POINT ( 'NONE',  ( 0.000000000000000000, 0.000000000000000000, 80.00000000000000000 ) ) ;
#55 = CYLINDRICAL_SURFACE ( 'NONE', #273, 5.000000000000000000 ) ;
#56 = VERTEX_POINT ( 'NONE', #337 ) ;
#57 = PLANE ( 'NONE',  #298 ) ;
#58 = EDGE_CURVE ( 'NONE', #198, #56, #152, .T. ) ;
#59 = ORIENTED_EDGE ( 'NONE', *, *, #155, .F. ) ;
#60 = APPROVAL_ROLE ( '' ) ;
#61 = CIRCLE ( 'NONE', #271, 8.000000000000000000 ) ;
#62 = SECURITY_CLASSIFICATION_LEVEL ( 'unclassified' ) ;
#63 = APPROVAL ( #260, 'NEURÈENÝ' ) ;
#64 = DATE_TIME_ROLE ( 'creation_date' ) ;
#65 = VERTEX_POINT ( 'NONE', #70 ) ;
#66 = CIRCLE ( 'NONE', #281, 8.000000000000000000 ) ;
#67 = ORIENTED_EDGE ( 'NONE', *, *, #320, .T. ) ;
#68 = AXIS2_PLACEMENT_3D ( 'NONE', #138, #342, #284 ) ;
#69 = DIRECTION ( 'NONE',  ( 0.000000000000000000, 0.000000000000000000, 1.000000000000000000 ) ) ;
#70 = CARTESIAN_POINT ( 'NONE',  ( 2.750000000000000000, 3.367778697655221012E-16, 80.00000000000000000 ) ) ;
#71 = DIRECTION ( 'NONE',  ( -1.000000000000000000, 0.000000000000000000, 0.000000000000000000 ) ) ;
#72 = AXIS2_PLACEMENT_3D ( 'NONE', #187, #100, #44 ) ;
#73 = CARTESIAN_POINT ( 'NONE',  ( 8.000000000000000000, 9.797174393178825657E-16, 5.000000000000000000 ) ) ;
#74 = DIRECTION ( 'NONE',  ( 0.000000000000000000, 0.000000000000000000, 1.000000000000000000 ) ) ;
#75 = DIRECTION ( 'NONE',  ( 0.000000000000000000, 0.000000000000000000, -1.000000000000000000 ) ) ;
#76 = CARTESIAN_POINT ( 'NONE',  ( 0.000000000000000000, 0.000000000000000000, 5.000000000000000000 ) ) ;
#77 = CIRCLE ( 'NONE', #128, 2.750000000000000000 ) ;
#78 = DIRECTION ( 'NONE',  ( 0.000000000000000000, 0.000000000000000000, -1.000000000000000000 ) ) ;
#79 = PERSON ( 'NEURÈENÝ', 'NEURÈENÝ', 'NEURÈENÝ', ('NEURÈENÝ'), ('NEURÈENÝ'), ('NEURÈENÝ') ) ;
#80 = DIRECTION ( 'NONE',  ( 0.000000000000000000, 0.000000000000000000, -1.000000000000000000 ) ) ;
#81 = VERTEX_POINT ( 'NONE', #98 ) ;
#82 = EDGE_CURVE ( 'NONE', #110, #85, #132, .T. ) ;
#83 = AXIS2_PLACEMENT_3D ( 'NONE', #375, #290, #249 ) ;
#84 = PRODUCT_DEFINITION_FORMATION_WITH_SPECIFIED_SOURCE ( 'LIBOVOLNÝ', '', #244, .NOT_KNOWN. ) ;
#85 = VERTEX_POINT ( 'NONE', #333 ) ;
#86 = PERSON_AND_ORGANIZATION_ROLE ( 'design_supplier' ) ;
#87 = CALENDAR_DATE ( 2022, 8, 7 ) ;
#88 = CC_DESIGN_SECURITY_CLASSIFICATION ( #34, ( #84 ) ) ;
#89 = ORIENTED_EDGE ( 'NONE', *, *, #216, .F. ) ;
#90 = DATE_AND_TIME ( #9, #251 ) ;
#91 = DIRECTION ( 'NONE',  ( -0.000000000000000000, -0.000000000000000000, -1.000000000000000000 ) ) ;
#92 = CIRCLE ( 'NONE', #146, 2.750000000000000000 ) ;
#93 = EDGE_CURVE ( 'NONE', #343, #144, #66, .T. ) ;
#94 = ORIENTED_EDGE ( 'NONE', *, *, #24, .T. ) ;
#95 = AXIS2_PLACEMENT_3D ( 'NONE', #167, #143, #314 ) ;
#96 = CARTESIAN_POINT ( 'NONE',  ( 0.000000000000000000, 0.000000000000000000, 5.000000000000000000 ) ) ;
#97 = DATE_AND_TIME ( #161, #264 ) ;
#98 = CARTESIAN_POINT ( 'NONE',  ( -2.750000000000000000, 0.000000000000000000, 0.000000000000000000 ) ) ;
#99 = VECTOR ( 'NONE', #372, 1000.000000000000000 ) ;
#100 = DIRECTION ( 'NONE',  ( 0.000000000000000000, 0.000000000000000000, 1.000000000000000000 ) ) ;
#101 = APPROVAL_PERSON_ORGANIZATION ( #12, #352, #363 ) ;
#102 = PLANE ( 'NONE',  #374 ) ;
#103 = ORIENTED_EDGE ( 'NONE', *, *, #325, .F. ) ;
#104 = DIRECTION ( 'NONE',  ( -0.000000000000000000, -0.000000000000000000, -1.000000000000000000 ) ) ;
#105 = ORIENTED_EDGE ( 'NONE', *, *, #82, .F. ) ;
#106 = DIRECTION ( 'NONE',  ( 0.000000000000000000, 0.000000000000000000, 1.000000000000000000 ) ) ;
#107 = EDGE_CURVE ( 'NONE', #223, #10, #367, .T. ) ;
#108 = CYLINDRICAL_SURFACE ( 'NONE', #46, 8.000000000000000000 ) ;
#109 = LINE ( 'NONE', #224, #52 ) ;
#110 = VERTEX_POINT ( 'NONE', #11 ) ;
#111 = EDGE_CURVE ( 'NONE', #22, #81, #92, .T. ) ;
#112 = FACE_OUTER_BOUND ( 'NONE', #296, .T. ) ;
#113 = VECTOR ( 'NONE', #47, 1000.000000000000000 ) ;
#114 = ORIENTED_EDGE ( 'NONE', *, *, #262, .T. ) ;
#115 = CARTESIAN_POINT ( 'NONE',  ( 0.000000000000000000, 0.000000000000000000, 80.00000000000000000 ) ) ;
#116 = APPROVAL_PERSON_ORGANIZATION ( #35, #200, #319 ) ;
#117 =( NAMED_UNIT ( * ) PLANE_ANGLE_UNIT ( ) SI_UNIT ( $, .RADIAN. ) );
#118 = DIRECTION ( 'NONE',  ( 0.000000000000000000, 0.000000000000000000, -1.000000000000000000 ) ) ;
#119 = ORIENTED_EDGE ( 'NONE', *, *, #107, .T. ) ;
#120 =( GEOMETRIC_REPRESENTATION_CONTEXT ( 3 ) GLOBAL_UNCERTAINTY_ASSIGNED_CONTEXT ( ( #121 ) ) GLOBAL_UNIT_ASSIGNED_CONTEXT ( ( #261, #117, #203 ) ) REPRESENTATION_CONTEXT ( 'NONE', 'WORKASPACE' ) );
#121 = UNCERTAINTY_MEASURE_WITH_UNIT (LENGTH_MEASURE( 1.000000000000000082E-05 ), #261, 'distance_accuracy_value', 'NONE');
#122 = DIRECTION ( 'NONE',  ( 1.000000000000000000, 0.000000000000000000, 0.000000000000000000 ) ) ;
#123 = CYLINDRICAL_SURFACE ( 'NONE', #126, 8.000000000000000000 ) ;
#124 = CC_DESIGN_PERSON_AND_ORGANIZATION_ASSIGNMENT ( #151, #354, ( #84 ) ) ;
#125 = ORIENTED_EDGE ( 'NONE', *, *, #177, .F. ) ;
#126 = AXIS2_PLACEMENT_3D ( 'NONE', #358, #91, #205 ) ;
#127 = CARTESIAN_POINT ( 'NONE',  ( 8.000000000000000000, 9.797174393178825657E-16, 5.000000000000000000 ) ) ;
#128 = AXIS2_PLACEMENT_3D ( 'NONE', #341, #287, #225 ) ;
#129 = CARTESIAN_POINT ( 'NONE',  ( 0.000000000000000000, 0.000000000000000000, 0.000000000000000000 ) ) ;
#130 = ADVANCED_FACE ( 'NONE', ( #365 ), #359, .F. ) ;
#131 = CARTESIAN_POINT ( 'NONE',  ( -5.000000000000000000, 0.000000000000000000, 80.00000000000000000 ) ) ;
#132 = CIRCLE ( 'NONE', #179, 5.500000000000000000 ) ;
#133 = DIRECTION ( 'NONE',  ( 0.000000000000000000, 0.000000000000000000, 1.000000000000000000 ) ) ;
#134 = LOCAL_TIME ( 17, 6, 31.00000000000000000, #2 ) ;
#135 = CARTESIAN_POINT ( 'NONE',  ( 0.000000000000000000, 0.000000000000000000, 0.000000000000000000 ) ) ;
#136 = EDGE_LOOP ( 'NONE', ( #378, #119, #267, #1 ) ) ;
#137 = CC_DESIGN_PERSON_AND_ORGANIZATION_ASSIGNMENT ( #263, #86, ( #84 ) ) ;
#138 = CARTESIAN_POINT ( 'NONE',  ( 0.000000000000000000, 0.000000000000000000, 80.00000000000000000 ) ) ;
#139 = CARTESIAN_POINT ( 'NONE',  ( 0.000000000000000000, 0.000000000000000000, 5.000000000000000000 ) ) ;
#140 = ORIENTED_EDGE ( 'NONE', *, *, #107, .F. ) ;
#141 = FACE_BOUND ( 'NONE', #170, .T. ) ;
#142 = EDGE_LOOP ( 'NONE', ( #59, #194, #153, #323 ) ) ;
#143 = DIRECTION ( 'NONE',  ( 1.224646799147353207E-16, 1.000000000000000000, -0.000000000000000000 ) ) ;
#144 = VERTEX_POINT ( 'NONE', #212 ) ;
#145 = DIRECTION ( 'NONE',  ( -0.000000000000000000, -0.000000000000000000, -1.000000000000000000 ) ) ;
#146 = AXIS2_PLACEMENT_3D ( 'NONE', #16, #302, #307 ) ;
#147 = ORIENTED_EDGE ( 'NONE', *, *, #242, .F. ) ;
#148 = APPROVAL_STATUS ( 'not_yet_approved' ) ;
#149 = AXIS2_PLACEMENT_3D ( 'NONE', #248, #78, #23 ) ;
#150 = CARTESIAN_POINT ( 'NONE',  ( -8.000000000000000000, 0.000000000000000000, 0.000000000000000000 ) ) ;
#151 = PERSON_AND_ORGANIZATION ( #79, #6 ) ;
#152 = CIRCLE ( 'NONE', #347, 8.000000000000000000 ) ;
#153 = ORIENTED_EDGE ( 'NONE', *, *, #43, .T. ) ;
#154 = CIRCLE ( 'NONE', #368, 5.000000000000000000 ) ;
#155 = EDGE_CURVE ( 'NONE', #198, #144, #334, .T. ) ;
#156 = AXIS2_PLACEMENT_3D ( 'NONE', #157, #118, #293 ) ;
#157 = CARTESIAN_POINT ( 'NONE',  ( 0.000000000000000000, 0.000000000000000000, 80.00000000000000000 ) ) ;
#158 = ORIENTED_EDGE ( 'NONE', *, *, #165, .F. ) ;
#159 = DIRECTION ( 'NONE',  ( 0.000000000000000000, 0.000000000000000000, -1.000000000000000000 ) ) ;
#160 = FACE_OUTER_BOUND ( 'NONE', #283, .T. ) ;
#161 = CALENDAR_DATE ( 2022, 8, 7 ) ;
#162 = CARTESIAN_POINT ( 'NONE',  ( 5.000000000000000000, 6.123233995736766282E-16, 80.00000000000000000 ) ) ;
#163 = DIRECTION ( 'NONE',  ( 0.000000000000000000, 0.000000000000000000, 1.000000000000000000 ) ) ;
#164 = CARTESIAN_POINT ( 'NONE',  ( 0.000000000000000000, 0.000000000000000000, 5.500000000000005329 ) ) ;
#165 = EDGE_CURVE ( 'NONE', #166, #10, #38, .T. ) ;
#166 = VERTEX_POINT ( 'NONE', #20 ) ;
#167 = CARTESIAN_POINT ( 'NONE',  ( -5.500000000000000000, 6.735557395310442023E-16, 5.500000000000005329 ) ) ;
#168 = CARTESIAN_POINT ( 'NONE',  ( 0.000000000000000000, 0.000000000000000000, 5.500000000000005329 ) ) ;
#169 = DIRECTION ( 'NONE',  ( 1.000000000000000000, 0.000000000000000000, 0.000000000000000000 ) ) ;
#170 = EDGE_LOOP ( 'NONE', ( #219, #380 ) ) ;
#171 = DIRECTION ( 'NONE',  ( -0.000000000000000000, -0.000000000000000000, -1.000000000000000000 ) ) ;
#172 = AXIS2_PLACEMENT_3D ( 'NONE', #237, #42, #159 ) ;
#173 = VERTEX_POINT ( 'NONE', #18 ) ;
#174 = EDGE_LOOP ( 'NONE', ( #89, #41, #312, #105 ) ) ;
#175 = DATE_AND_TIME ( #87, #39 ) ;
#176 = PRODUCT_DEFINITION ( 'NEZNÁMÝ', '', #84, #8 ) ;
#177 = EDGE_CURVE ( 'NONE', #144, #343, #13, .T. ) ;
#178 = ORIENTED_EDGE ( 'NONE', *, *, #82, .T. ) ;
#179 = AXIS2_PLACEMENT_3D ( 'NONE', #218, #243, #272 ) ;
#180 = ORIENTED_EDGE ( 'NONE', *, *, #256, .T. ) ;
#181 = CIRCLE ( 'NONE', #51, 2.750000000000000000 ) ;
#182 = APPLICATION_CONTEXT ( 'configuration controlled 3d designs of mechanical parts and assemblies' ) ;
#183 = DIRECTION ( 'NONE',  ( 1.000000000000000000, 0.000000000000000000, 0.000000000000000000 ) ) ;
#184 = DIRECTION ( 'NONE',  ( 1.000000000000000000, 0.000000000000000000, 0.000000000000000000 ) ) ;
#185 = EDGE_CURVE ( 'NONE', #81, #22, #181, .T. ) ;
#186 = FACE_OUTER_BOUND ( 'NONE', #136, .T. ) ;
#187 = CARTESIAN_POINT ( 'NONE',  ( 0.000000000000000000, 0.000000000000000000, 5.500000000000005329 ) ) ;
#188 = CARTESIAN_POINT ( 'NONE',  ( 0.000000000000000000, 0.000000000000000000, 80.00000000000000000 ) ) ;
#189 = CC_DESIGN_PERSON_AND_ORGANIZATION_ASSIGNMENT ( #40, #5, ( #244 ) ) ;
#190 = DIRECTION ( 'NONE',  ( 1.000000000000000000, 0.000000000000000000, 0.000000000000000000 ) ) ;
#191 = ORIENTED_EDGE ( 'NONE', *, *, #177, .T. ) ;
#192 = EDGE_CURVE ( 'NONE', #10, #85, #45, .T. ) ;
#193 = PLANE ( 'NONE',  #83 ) ;
#194 = ORIENTED_EDGE ( 'NONE', *, *, #37, .F. ) ;
#195 = CARTESIAN_POINT ( 'NONE',  ( 0.000000000000000000, 0.000000000000000000, 80.00000000000000000 ) ) ;
#196 = ORIENTED_EDGE ( 'NONE', *, *, #340, .F. ) ;
#197 = AXIS2_PLACEMENT_3D ( 'NONE', #115, #339, #230 ) ;
#198 = VERTEX_POINT ( 'NONE', #127 ) ;
#199 = FACE_OUTER_BOUND ( 'NONE', #318, .T. ) ;
#200 = APPROVAL ( #148, 'NEURÈENÝ' ) ;
#201 = MECHANICAL_CONTEXT ( 'NONE', #182, 'mechanical' ) ;
#202 = AXIS2_PLACEMENT_3D ( 'NONE', #76, #310, #53 ) ;
#203 =( NAMED_UNIT ( * ) SI_UNIT ( $, .STERADIAN. ) SOLID_ANGLE_UNIT ( ) );
#204 = ORIENTED_EDGE ( 'NONE', *, *, #332, .T. ) ;
#205 = DIRECTION ( 'NONE',  ( -1.000000000000000000, 0.000000000000000000, 0.000000000000000000 ) ) ;
#206 = COORDINATED_UNIVERSAL_TIME_OFFSET ( 1, 0, .AHEAD. ) ;
#207 = ORIENTED_EDGE ( 'NONE', *, *, #262, .F. ) ;
#208 = VECTOR ( 'NONE', #50, 1000.000000000000000 ) ;
#209 = DIRECTION ( 'NONE',  ( 0.000000000000000000, 0.000000000000000000, 1.000000000000000000 ) ) ;
#210 = LINE ( 'NONE', #330, #99 ) ;
#211 = VECTOR ( 'NONE', #280, 1000.000000000000000 ) ;
#212 = CARTESIAN_POINT ( 'NONE',  ( 8.000000000000000000, 9.797174393178825657E-16, 0.000000000000000000 ) ) ;
#213 = AXIS2_PLACEMENT_3D ( 'NONE', #379, #106, #190 ) ;
#214 = CC_DESIGN_APPROVAL ( #63, ( #176 ) ) ;
#215 = APPLICATION_CONTEXT ( 'configuration controlled 3d designs of mechanical parts and assemblies' ) ;
#216 = EDGE_CURVE ( 'NONE', #166, #110, #316, .T. ) ;
#217 = CYLINDRICAL_SURFACE ( 'NONE', #295, 5.000000000000000000 ) ;
#218 = CARTESIAN_POINT ( 'NONE',  ( 0.000000000000000000, 0.000000000000000000, 5.000000000000000000 ) ) ;
#219 = ORIENTED_EDGE ( 'NONE', *, *, #185, .F. ) ;
#220 = FACE_OUTER_BOUND ( 'NONE', #277, .T. ) ;
#221 = CC_DESIGN_APPROVAL ( #352, ( #34 ) ) ;
#222 = FACE_OUTER_BOUND ( 'NONE', #255, .T. ) ;
#223 = VERTEX_POINT ( 'NONE', #345 ) ;
#224 = CARTESIAN_POINT ( 'NONE',  ( 2.750000000000000000, 3.367778697655221012E-16, 80.00000000000000000 ) ) ;
#225 = DIRECTION ( 'NONE',  ( 1.000000000000000000, 0.000000000000000000, 0.000000000000000000 ) ) ;
#226 = EDGE_LOOP ( 'NONE', ( #158, #235, #207, #338 ) ) ;
#227 = ADVANCED_FACE ( 'NONE', ( #112 ), #55, .T. ) ;
#228 = PERSON_AND_ORGANIZATION_ROLE ( 'creator' ) ;
#229 = DATE_AND_TIME ( #36, #134 ) ;
#230 = DIRECTION ( 'NONE',  ( 1.000000000000000000, 0.000000000000000000, 0.000000000000000000 ) ) ;
#231 = PERSON_AND_ORGANIZATION_ROLE ( 'classification_officer' ) ;
#232 = ORIENTED_EDGE ( 'NONE', *, *, #242, .T. ) ;
#233 = APPLICATION_PROTOCOL_DEFINITION ( 'international standard', 'config_control_design', 1994, #215 ) ;
#234 = ORIENTED_EDGE ( 'NONE', *, *, #340, .T. ) ;
#235 = ORIENTED_EDGE ( 'NONE', *, *, #216, .T. ) ;
#236 = ADVANCED_FACE ( 'NONE', ( #373 ), #4, .F. ) ;
#237 = CARTESIAN_POINT ( 'NONE',  ( 5.500000000000000000, 0.000000000000000000, 5.500000000000005329 ) ) ;
#238 = CIRCLE ( 'NONE', #68, 2.750000000000000000 ) ;
#239 = FACE_BOUND ( 'NONE', #29, .T. ) ;
#240 = APPROVAL_DATE_TIME ( #17, #352 ) ;
#241 = LINE ( 'NONE', #131, #211 ) ;
#242 = EDGE_CURVE ( 'NONE', #65, #173, #238, .T. ) ;
#243 = DIRECTION ( 'NONE',  ( -0.000000000000000000, -0.000000000000000000, -1.000000000000000000 ) ) ;
#244 = PRODUCT ( 'a9d4', 'a9d4', '', ( #201 ) ) ;
#245 = APPROVAL_PERSON_ORGANIZATION ( #350, #63, #60 ) ;
#246 = DIRECTION ( 'NONE',  ( 0.000000000000000000, 0.000000000000000000, 1.000000000000000000 ) ) ;
#247 = ORIENTED_EDGE ( 'NONE', *, *, #43, .F. ) ;
#248 = CARTESIAN_POINT ( 'NONE',  ( 0.000000000000000000, 0.000000000000000000, 80.00000000000000000 ) ) ;
#249 = DIRECTION ( 'NONE',  ( 1.000000000000000000, 0.000000000000000000, -0.000000000000000000 ) ) ;
#250 = ADVANCED_FACE ( 'NONE', ( #220 ), #26, .F. ) ;
#251 = LOCAL_TIME ( 17, 6, 31.00000000000000000, #266 ) ;
#252 = FACE_OUTER_BOUND ( 'NONE', #253, .T. ) ;
#253 = EDGE_LOOP ( 'NONE', ( #234, #67 ) ) ;
#254 = DIRECTION ( 'NONE',  ( 1.000000000000000000, 0.000000000000000000, 0.000000000000000000 ) ) ;
#255 = EDGE_LOOP ( 'NONE', ( #291, #31, #191, #247 ) ) ;
#256 = EDGE_CURVE ( 'NONE', #173, #65, #77, .T. ) ;
#257 = CLOSED_SHELL ( 'NONE', ( #250, #236, #32, #313, #14, #49, #288, #227, #276, #130, #357 ) ) ;
#258 = LINE ( 'NONE', #381, #336 ) ;
#259 = ORIENTED_EDGE ( 'NONE', *, *, #256, .F. ) ;
#260 = APPROVAL_STATUS ( 'not_yet_approved' ) ;
#261 =( LENGTH_UNIT ( ) NAMED_UNIT ( * ) SI_UNIT ( .MILLI., .METRE. ) );
#262 = EDGE_CURVE ( 'NONE', #85, #110, #328, .T. ) ;
#263 = PERSON_AND_ORGANIZATION ( #79, #6 ) ;
#264 = LOCAL_TIME ( 17, 6, 31.00000000000000000, #269 ) ;
#265 = CARTESIAN_POINT ( 'NONE',  ( 5.000000000000000000, 6.123233995736766282E-16, 5.500000000000005329 ) ) ;
#266 = COORDINATED_UNIVERSAL_TIME_OFFSET ( 1, 0, .AHEAD. ) ;
#267 = ORIENTED_EDGE ( 'NONE', *, *, #268, .T. ) ;
#268 = EDGE_CURVE ( 'NONE', #10, #166, #154, .T. ) ;
#269 = COORDINATED_UNIVERSAL_TIME_OFFSET ( 1, 0, .AHEAD. ) ;
#270 = DIRECTION ( 'NONE',  ( 1.000000000000000000, 0.000000000000000000, -0.000000000000000000 ) ) ;
#271 = AXIS2_PLACEMENT_3D ( 'NONE', #275, #163, #306 ) ;
#272 = DIRECTION ( 'NONE',  ( 1.000000000000000000, 0.000000000000000000, 0.000000000000000000 ) ) ;
#273 = AXIS2_PLACEMENT_3D ( 'NONE', #195, #171, #308 ) ;
#274 = AXIS2_PLACEMENT_3D ( 'NONE', #54, #28, #169 ) ;
#275 = CARTESIAN_POINT ( 'NONE',  ( 0.000000000000000000, 0.000000000000000000, 5.000000000000000000 ) ) ;
#276 = ADVANCED_FACE ( 'NONE', ( #348, #252 ), #193, .T. ) ;
#277 = EDGE_LOOP ( 'NONE', ( #180, #315, #289, #286 ) ) ;
#278 = DATE_TIME_ROLE ( 'classification_date' ) ;
#279 = ADVANCED_BREP_SHAPE_REPRESENTATION ( 'a9d4', ( #331, #355 ), #120 ) ;
#280 = DIRECTION ( 'NONE',  ( -0.000000000000000000, -0.000000000000000000, -1.000000000000000000 ) ) ;
#281 = AXIS2_PLACEMENT_3D ( 'NONE', #304, #69, #184 ) ;
#282 = DIRECTION ( 'NONE',  ( 1.000000000000000000, 0.000000000000000000, 0.000000000000000000 ) ) ;
#283 = EDGE_LOOP ( 'NONE', ( #27, #356 ) ) ;
#284 = DIRECTION ( 'NONE',  ( 1.000000000000000000, 0.000000000000000000, 0.000000000000000000 ) ) ;
#285 = DIRECTION ( 'NONE',  ( 0.000000000000000000, 0.000000000000000000, 1.000000000000000000 ) ) ;
#286 = ORIENTED_EDGE ( 'NONE', *, *, #332, .F. ) ;
#287 = DIRECTION ( 'NONE',  ( 0.000000000000000000, 0.000000000000000000, 1.000000000000000000 ) ) ;
#288 = ADVANCED_FACE ( 'NONE', ( #141, #317 ), #57, .F. ) ;
#289 = ORIENTED_EDGE ( 'NONE', *, *, #111, .T. ) ;
#290 = DIRECTION ( 'NONE',  ( 0.000000000000000000, 0.000000000000000000, 1.000000000000000000 ) ) ;
#291 = ORIENTED_EDGE ( 'NONE', *, *, #58, .F. ) ;
#292 = APPROVAL_DATE_TIME ( #229, #200 ) ;
#293 = DIRECTION ( 'NONE',  ( -1.000000000000000000, 0.000000000000000000, 0.000000000000000000 ) ) ;
#294 = DIRECTION ( 'NONE',  ( 0.000000000000000000, 0.000000000000000000, 1.000000000000000000 ) ) ;
#295 = AXIS2_PLACEMENT_3D ( 'NONE', #188, #300, #71 ) ;
#296 = EDGE_LOOP ( 'NONE', ( #140, #196, #94, #360 ) ) ;
#297 = PERSON_AND_ORGANIZATION ( #79, #6 ) ;
#298 = AXIS2_PLACEMENT_3D ( 'NONE', #25, #30, #377 ) ;
#299 = EDGE_LOOP ( 'NONE', ( #259, #147 ) ) ;
#300 = DIRECTION ( 'NONE',  ( -0.000000000000000000, -0.000000000000000000, -1.000000000000000000 ) ) ;
#301 = SHAPE_DEFINITION_REPRESENTATION ( #366, #279 ) ;
#302 = DIRECTION ( 'NONE',  ( -0.000000000000000000, -0.000000000000000000, -1.000000000000000000 ) ) ;
#303 = CC_DESIGN_DATE_AND_TIME_ASSIGNMENT ( #97, #278, ( #34 ) ) ;
#304 = CARTESIAN_POINT ( 'NONE',  ( 0.000000000000000000, 0.000000000000000000, 0.000000000000000000 ) ) ;
#305 = CIRCLE ( 'NONE', #197, 5.000000000000000000 ) ;
#306 = DIRECTION ( 'NONE',  ( 1.000000000000000000, 0.000000000000000000, 0.000000000000000000 ) ) ;
#307 = DIRECTION ( 'NONE',  ( 1.000000000000000000, 0.000000000000000000, 0.000000000000000000 ) ) ;
#308 = DIRECTION ( 'NONE',  ( -1.000000000000000000, 0.000000000000000000, 0.000000000000000000 ) ) ;
#309 = LOCAL_TIME ( 17, 6, 31.00000000000000000, #206 ) ;
#310 = DIRECTION ( 'NONE',  ( -0.000000000000000000, -0.000000000000000000, -1.000000000000000000 ) ) ;
#311 = DIRECTION ( 'NONE',  ( -1.000000000000000000, 0.000000000000000000, 0.000000000000000000 ) ) ;
#312 = ORIENTED_EDGE ( 'NONE', *, *, #192, .T. ) ;
#313 = ADVANCED_FACE ( 'NONE', ( #222 ), #108, .T. ) ;
#314 = DIRECTION ( 'NONE',  ( -1.000000000000000000, 1.224646799147351482E-16, 0.000000000000000000 ) ) ;
#315 = ORIENTED_EDGE ( 'NONE', *, *, #325, .T. ) ;
#316 = CIRCLE ( 'NONE', #95, 0.5000000000000004441 ) ;
#317 = FACE_OUTER_BOUND ( 'NONE', #370, .T. ) ;
#318 = EDGE_LOOP ( 'NONE', ( #103, #232, #204, #349 ) ) ;
#319 = APPROVAL_ROLE ( '' ) ;
#320 = EDGE_CURVE ( 'NONE', #223, #346, #15, .T. ) ;
#321 = CARTESIAN_POINT ( 'NONE',  ( 0.000000000000000000, 0.000000000000000000, 0.000000000000000000 ) ) ;
#322 = CARTESIAN_POINT ( 'NONE',  ( -5.000000000000000000, 0.000000000000000000, 80.00000000000000000 ) ) ;
#323 = ORIENTED_EDGE ( 'NONE', *, *, #93, .T. ) ;
#324 = APPROVAL_DATE_TIME ( #90, #63 ) ;
#325 = EDGE_CURVE ( 'NONE', #65, #22, #109, .T. ) ;
#326 = CARTESIAN_POINT ( 'NONE',  ( 2.750000000000000000, 3.367778697655221012E-16, 0.000000000000000000 ) ) ;
#327 = CALENDAR_DATE ( 2022, 8, 7 ) ;
#328 = CIRCLE ( 'NONE', #202, 5.500000000000000000 ) ;
#329 = ORIENTED_EDGE ( 'NONE', *, *, #93, .F. ) ;
#330 = CARTESIAN_POINT ( 'NONE',  ( -8.000000000000000000, 0.000000000000000000, 5.000000000000000000 ) ) ;
#331 = MANIFOLD_SOLID_BREP ( 'Odebrat vysunutím3', #257 ) ;
#332 = EDGE_CURVE ( 'NONE', #173, #81, #258, .T. ) ;
#333 = CARTESIAN_POINT ( 'NONE',  ( 5.500000000000000000, 0.000000000000000000, 5.000000000000002665 ) ) ;
#334 = LINE ( 'NONE', #73, #208 ) ;
#335 = AXIS2_PLACEMENT_3D ( 'NONE', #164, #246, #48 ) ;
#336 = VECTOR ( 'NONE', #75, 1000.000000000000000 ) ;
#337 = CARTESIAN_POINT ( 'NONE',  ( -8.000000000000000000, 0.000000000000000000, 5.000000000000000000 ) ) ;
#338 = ORIENTED_EDGE ( 'NONE', *, *, #192, .F. ) ;
#339 = DIRECTION ( 'NONE',  ( 0.000000000000000000, 0.000000000000000000, 1.000000000000000000 ) ) ;
#340 = EDGE_CURVE ( 'NONE', #346, #223, #305, .T. ) ;
#341 = CARTESIAN_POINT ( 'NONE',  ( 0.000000000000000000, 0.000000000000000000, 80.00000000000000000 ) ) ;
#342 = DIRECTION ( 'NONE',  ( 0.000000000000000000, 0.000000000000000000, 1.000000000000000000 ) ) ;
#343 = VERTEX_POINT ( 'NONE', #150 ) ;
#344 = CC_DESIGN_PERSON_AND_ORGANIZATION_ASSIGNMENT ( #297, #228, ( #176 ) ) ;
#345 = CARTESIAN_POINT ( 'NONE',  ( 5.000000000000000000, 6.123233995736766282E-16, 80.00000000000000000 ) ) ;
#346 = VERTEX_POINT ( 'NONE', #322 ) ;
#347 = AXIS2_PLACEMENT_3D ( 'NONE', #364, #74, #282 ) ;
#348 = FACE_BOUND ( 'NONE', #299, .T. ) ;
#349 = ORIENTED_EDGE ( 'NONE', *, *, #185, .T. ) ;
#350 = PERSON_AND_ORGANIZATION ( #79, #6 ) ;
#351 = COORDINATED_UNIVERSAL_TIME_OFFSET ( 1, 0, .AHEAD. ) ;
#352 = APPROVAL ( #361, 'NEURÈENÝ' ) ;
#353 = CYLINDRICAL_SURFACE ( 'NONE', #156, 2.750000000000000000 ) ;
#354 = PERSON_AND_ORGANIZATION_ROLE ( 'creator' ) ;
#355 = AXIS2_PLACEMENT_3D ( 'NONE', #321, #294, #122 ) ;
#356 = ORIENTED_EDGE ( 'NONE', *, *, #58, .T. ) ;
#357 = ADVANCED_FACE ( 'NONE', ( #199 ), #353, .F. ) ;
#358 = CARTESIAN_POINT ( 'NONE',  ( 0.000000000000000000, 0.000000000000000000, 5.000000000000000000 ) ) ;
#359 = TOROIDAL_SURFACE ( 'NONE', #72, 5.500000000000000000, 0.5000000000000000000 ) ;
#360 = ORIENTED_EDGE ( 'NONE', *, *, #165, .T. ) ;
#361 = APPROVAL_STATUS ( 'not_yet_approved' ) ;
#362 = DIRECTION ( 'NONE',  ( 1.000000000000000000, 0.000000000000000000, 0.000000000000000000 ) ) ;
#363 = APPROVAL_ROLE ( '' ) ;
#364 = CARTESIAN_POINT ( 'NONE',  ( 0.000000000000000000, 0.000000000000000000, 5.000000000000000000 ) ) ;
#365 = FACE_OUTER_BOUND ( 'NONE', #174, .T. ) ;
#366 = PRODUCT_DEFINITION_SHAPE ( 'NONE', 'NONE',  #176 ) ;
#367 = LINE ( 'NONE', #162, #113 ) ;
#368 = AXIS2_PLACEMENT_3D ( 'NONE', #168, #285, #254 ) ;
#369 = CC_DESIGN_APPROVAL ( #200, ( #84 ) ) ;
#370 = EDGE_LOOP ( 'NONE', ( #329, #125 ) ) ;
#371 = PRODUCT_RELATED_PRODUCT_CATEGORY ( 'detail', '', ( #244 ) ) ;
#372 = DIRECTION ( 'NONE',  ( -0.000000000000000000, -0.000000000000000000, -1.000000000000000000 ) ) ;
#373 = FACE_OUTER_BOUND ( 'NONE', #226, .T. ) ;
#374 = AXIS2_PLACEMENT_3D ( 'NONE', #96, #209, #270 ) ;
#375 = CARTESIAN_POINT ( 'NONE',  ( 0.000000000000000000, 0.000000000000000000, 80.00000000000000000 ) ) ;
#376 = CC_DESIGN_PERSON_AND_ORGANIZATION_ASSIGNMENT ( #3, #231, ( #34 ) ) ;
#377 = DIRECTION ( 'NONE',  ( 1.000000000000000000, 0.000000000000000000, -0.000000000000000000 ) ) ;
#378 = ORIENTED_EDGE ( 'NONE', *, *, #320, .F. ) ;
#379 = CARTESIAN_POINT ( 'NONE',  ( 0.000000000000000000, 0.000000000000000000, 5.500000000000005329 ) ) ;
#380 = ORIENTED_EDGE ( 'NONE', *, *, #111, .F. ) ;
#381 = CARTESIAN_POINT ( 'NONE',  ( -2.750000000000000000, 0.000000000000000000, 80.00000000000000000 ) ) ;
ENDSEC;
END-ISO-10303-21;
