ISO-10303-21;
HEADER;
FILE_DESCRIPTION (( 'STEP AP203' ),
    '1' );
FILE_NAME ('e3c5.STEP',
    '2022-07-08T14:40:22',
    ( '' ),
    ( '' ),
    'SwSTEP 2.0',
    'SolidWorks 2019',
    '' );
FILE_SCHEMA (( 'CONFIG_CONTROL_DESIGN' ));
ENDSEC;

DATA;
#1 = CARTESIAN_POINT ( 'NONE',  ( 0.000000000000000000, 0.000000000000000000, 0.000000000000000000 ) ) ;
#2 = AXIS2_PLACEMENT_3D ( 'NONE', #70, #79, #184 ) ;
#3 = ADVANCED_FACE ( 'NONE', ( #301 ), #351, .F. ) ;
#4 = APPROVAL_ROLE ( '' ) ;
#5 = APPROVAL_ROLE ( '' ) ;
#6 = DATE_AND_TIME ( #271, #200 ) ;
#7 = EDGE_LOOP ( 'NONE', ( #372, #360 ) ) ;
#8 = APPROVAL_STATUS ( 'not_yet_approved' ) ;
#9 = VERTEX_POINT ( 'NONE', #117 ) ;
#10 = PERSON_AND_ORGANIZATION ( #345, #26 ) ;
#11 = DIRECTION ( 'NONE',  ( 0.000000000000000000, 0.000000000000000000, -1.000000000000000000 ) ) ;
#12 = ORIENTED_EDGE ( 'NONE', *, *, #289, .T. ) ;
#13 = ADVANCED_FACE ( 'NONE', ( #39 ), #381, .F. ) ;
#14 = AXIS2_PLACEMENT_3D ( 'NONE', #103, #308, #191 ) ;
#15 = CARTESIAN_POINT ( 'NONE',  ( -3.250000000000000444, 0.000000000000000000, 807.0000000000000000 ) ) ;
#16 = CYLINDRICAL_SURFACE ( 'NONE', #2, 10.00000000000000000 ) ;
#17 = EDGE_CURVE ( 'NONE', #9, #34, #159, .T. ) ;
#18 = PLANE ( 'NONE',  #37 ) ;
#19 = ORIENTED_EDGE ( 'NONE', *, *, #310, .F. ) ;
#20 = CARTESIAN_POINT ( 'NONE',  ( 10.00000000000000000, 1.224646799147353256E-15, 7.000000000000000000 ) ) ;
#21 = ORIENTED_EDGE ( 'NONE', *, *, #306, .F. ) ;
#22 = CARTESIAN_POINT ( 'NONE',  ( -3.250000000000000444, 0.000000000000000000, 807.0000000000000000 ) ) ;
#23 = ORIENTED_EDGE ( 'NONE', *, *, #154, .T. ) ;
#24 = ADVANCED_FACE ( 'NONE', ( #181 ), #267, .F. ) ;
#25 = EDGE_LOOP ( 'NONE', ( #374, #344, #312, #21 ) ) ;
#26 = ORGANIZATION ( 'NEURÈENÝ', 'NEURÈENÝ', '' ) ;
#27 = ORIENTED_EDGE ( 'NONE', *, *, #349, .T. ) ;
#28 = DIRECTION ( 'NONE',  ( 1.000000000000000000, 0.000000000000000000, 0.000000000000000000 ) ) ;
#29 = DIRECTION ( 'NONE',  ( -0.000000000000000000, -0.000000000000000000, -1.000000000000000000 ) ) ;
#30 = DATE_AND_TIME ( #292, #328 ) ;
#31 = AXIS2_PLACEMENT_3D ( 'NONE', #260, #62, #229 ) ;
#32 = CIRCLE ( 'NONE', #74, 10.00000000000000000 ) ;
#33 = DATE_AND_TIME ( #66, #236 ) ;
#34 = VERTEX_POINT ( 'NONE', #90 ) ;
#35 = EDGE_CURVE ( 'NONE', #249, #199, #95, .T. ) ;
#36 = DIRECTION ( 'NONE',  ( 0.000000000000000000, -1.000000000000000000, 0.000000000000000000 ) ) ;
#37 = AXIS2_PLACEMENT_3D ( 'NONE', #337, #365, #283 ) ;
#38 = PERSON_AND_ORGANIZATION_ROLE ( 'design_supplier' ) ;
#39 = FACE_OUTER_BOUND ( 'NONE', #284, .T. ) ;
#40 = CIRCLE ( 'NONE', #295, 0.5000000000000004441 ) ;
#41 = CARTESIAN_POINT ( 'NONE',  ( 0.000000000000000000, 0.000000000000000000, 7.499999999999951150 ) ) ;
#42 = LOCAL_TIME ( 16, 40, 22.00000000000000000, #206 ) ;
#43 = CARTESIAN_POINT ( 'NONE',  ( 0.000000000000000000, 0.000000000000000000, 7.000000000000000000 ) ) ;
#44 = EDGE_CURVE ( 'NONE', #240, #165, #299, .T. ) ;
#45 = DIRECTION ( 'NONE',  ( 0.000000000000000000, 0.000000000000000000, -1.000000000000000000 ) ) ;
#46 = EDGE_LOOP ( 'NONE', ( #49, #106, #12, #347 ) ) ;
#47 = FACE_OUTER_BOUND ( 'NONE', #214, .T. ) ;
#48 = AXIS2_PLACEMENT_3D ( 'NONE', #324, #65, #67 ) ;
#49 = ORIENTED_EDGE ( 'NONE', *, *, #35, .F. ) ;
#50 = CIRCLE ( 'NONE', #138, 10.00000000000000000 ) ;
#51 = DIRECTION ( 'NONE',  ( 1.000000000000000000, 0.000000000000000000, 0.000000000000000000 ) ) ;
#52 = ORIENTED_EDGE ( 'NONE', *, *, #182, .T. ) ;
#53 =( NAMED_UNIT ( * ) SI_UNIT ( $, .STERADIAN. ) SOLID_ANGLE_UNIT ( ) );
#54 = EDGE_CURVE ( 'NONE', #327, #113, #147, .T. ) ;
#55 = VERTEX_POINT ( 'NONE', #316 ) ;
#56 = EDGE_LOOP ( 'NONE', ( #188, #87, #146, #162 ) ) ;
#57 = PERSON_AND_ORGANIZATION ( #345, #26 ) ;
#58 = CC_DESIGN_SECURITY_CLASSIFICATION ( #144, ( #213 ) ) ;
#59 = CYLINDRICAL_SURFACE ( 'NONE', #31, 6.000000000000000888 ) ;
#60 = COORDINATED_UNIVERSAL_TIME_OFFSET ( 1, 0, .AHEAD. ) ;
#61 = DATE_AND_TIME ( #326, #42 ) ;
#62 = DIRECTION ( 'NONE',  ( -0.000000000000000000, -0.000000000000000000, -1.000000000000000000 ) ) ;
#63 = APPROVAL ( #124, 'NEURÈENÝ' ) ;
#64 = PERSON_AND_ORGANIZATION ( #345, #26 ) ;
#65 = DIRECTION ( 'NONE',  ( -0.000000000000000000, -0.000000000000000000, -1.000000000000000000 ) ) ;
#66 = CALENDAR_DATE ( 2022, 8, 7 ) ;
#67 = DIRECTION ( 'NONE',  ( 1.000000000000000000, 0.000000000000000000, 0.000000000000000000 ) ) ;
#68 = EDGE_CURVE ( 'NONE', #199, #9, #352, .T. ) ;
#69 = CARTESIAN_POINT ( 'NONE',  ( 0.000000000000000000, 0.000000000000000000, 7.000000000000000000 ) ) ;
#70 = CARTESIAN_POINT ( 'NONE',  ( 0.000000000000000000, 0.000000000000000000, 7.000000000000000000 ) ) ;
#71 = MANIFOLD_SOLID_BREP ( 'Odebrat vysunutím3', #98 ) ;
#72 = DESIGN_CONTEXT ( 'detailed design', #175, 'design' ) ;
#73 = DIRECTION ( 'NONE',  ( 0.000000000000000000, 0.000000000000000000, 1.000000000000000000 ) ) ;
#74 = AXIS2_PLACEMENT_3D ( 'NONE', #83, #136, #194 ) ;
#75 = ADVANCED_BREP_SHAPE_REPRESENTATION ( 'e3c5', ( #71, #243 ), #281 ) ;
#76 = FACE_OUTER_BOUND ( 'NONE', #109, .T. ) ;
#77 = ORIENTED_EDGE ( 'NONE', *, *, #306, .T. ) ;
#78 = CYLINDRICAL_SURFACE ( 'NONE', #14, 10.00000000000000000 ) ;
#79 = DIRECTION ( 'NONE',  ( -0.000000000000000000, -0.000000000000000000, -1.000000000000000000 ) ) ;
#80 = CC_DESIGN_APPROVAL ( #237, ( #144 ) ) ;
#81 = CC_DESIGN_PERSON_AND_ORGANIZATION_ASSIGNMENT ( #233, #38, ( #213 ) ) ;
#82 =( LENGTH_UNIT ( ) NAMED_UNIT ( * ) SI_UNIT ( .MILLI., .METRE. ) );
#83 = CARTESIAN_POINT ( 'NONE',  ( 0.000000000000000000, 0.000000000000000000, 7.000000000000000000 ) ) ;
#84 = VERTEX_POINT ( 'NONE', #125 ) ;
#85 = DIRECTION ( 'NONE',  ( 1.000000000000000000, 0.000000000000000000, 0.000000000000000000 ) ) ;
#86 = EDGE_CURVE ( 'NONE', #110, #223, #275, .T. ) ;
#87 = ORIENTED_EDGE ( 'NONE', *, *, #108, .T. ) ;
#88 = AXIS2_PLACEMENT_3D ( 'NONE', #196, #256, #28 ) ;
#89 = PERSON_AND_ORGANIZATION ( #345, #26 ) ;
#90 = CARTESIAN_POINT ( 'NONE',  ( -6.500000000000000888, 7.960204194457796463E-16, 6.999999999999975131 ) ) ;
#91 = APPROVAL_DATE_TIME ( #30, #359 ) ;
#92 = COORDINATED_UNIVERSAL_TIME_OFFSET ( 1, 0, .AHEAD. ) ;
#93 = ADVANCED_FACE ( 'NONE', ( #274 ), #59, .T. ) ;
#94 = AXIS2_PLACEMENT_3D ( 'NONE', #43, #105, #246 ) ;
#95 = LINE ( 'NONE', #241, #362 ) ;
#96 = CARTESIAN_POINT ( 'NONE',  ( 0.000000000000000000, 0.000000000000000000, 807.0000000000000000 ) ) ;
#97 = CC_DESIGN_PERSON_AND_ORGANIZATION_ASSIGNMENT ( #176, #323, ( #213 ) ) ;
#98 = CLOSED_SHELL ( 'NONE', ( #128, #3, #197, #120, #226, #208, #148, #93, #253, #24, #13 ) ) ;
#99 = ORIENTED_EDGE ( 'NONE', *, *, #377, .T. ) ;
#100 = DIRECTION ( 'NONE',  ( 1.000000000000000000, 0.000000000000000000, 0.000000000000000000 ) ) ;
#101 = DIRECTION ( 'NONE',  ( 0.000000000000000000, 0.000000000000000000, 1.000000000000000000 ) ) ;
#102 = PRODUCT_RELATED_PRODUCT_CATEGORY ( 'detail', '', ( #356 ) ) ;
#103 = CARTESIAN_POINT ( 'NONE',  ( 0.000000000000000000, 0.000000000000000000, 7.000000000000000000 ) ) ;
#104 = AXIS2_PLACEMENT_3D ( 'NONE', #215, #155, #222 ) ;
#105 = DIRECTION ( 'NONE',  ( 0.000000000000000000, 0.000000000000000000, 1.000000000000000000 ) ) ;
#106 = ORIENTED_EDGE ( 'NONE', *, *, #154, .F. ) ;
#107 = CARTESIAN_POINT ( 'NONE',  ( 6.000000000000000888, 7.347880794884120722E-16, 7.499999999999951150 ) ) ;
#108 = EDGE_CURVE ( 'NONE', #157, #34, #40, .T. ) ;
#109 = EDGE_LOOP ( 'NONE', ( #23, #221 ) ) ;
#110 = VERTEX_POINT ( 'NONE', #15 ) ;
#111 = CIRCLE ( 'NONE', #185, 6.000000000000000888 ) ;
#112 = DIRECTION ( 'NONE',  ( 0.000000000000000000, 0.000000000000000000, 1.000000000000000000 ) ) ;
#113 = VERTEX_POINT ( 'NONE', #126 ) ;
#114 = EDGE_CURVE ( 'NONE', #84, #240, #334, .T. ) ;
#115 = DIRECTION ( 'NONE',  ( 0.000000000000000000, 0.000000000000000000, -1.000000000000000000 ) ) ;
#116 = APPLICATION_PROTOCOL_DEFINITION ( 'international standard', 'config_control_design', 1994, #175 ) ;
#117 = CARTESIAN_POINT ( 'NONE',  ( 6.500000000000000888, 0.000000000000000000, 6.999999999999975131 ) ) ;
#118 = AXIS2_PLACEMENT_3D ( 'NONE', #41, #186, #280 ) ;
#119 = COORDINATED_UNIVERSAL_TIME_OFFSET ( 1, 0, .AHEAD. ) ;
#120 = ADVANCED_FACE ( 'NONE', ( #47 ), #16, .T. ) ;
#121 = DATE_TIME_ROLE ( 'creation_date' ) ;
#122 = ORIENTED_EDGE ( 'NONE', *, *, #158, .F. ) ;
#123 = AXIS2_PLACEMENT_3D ( 'NONE', #247, #368, #232 ) ;
#124 = APPROVAL_STATUS ( 'not_yet_approved' ) ;
#125 = CARTESIAN_POINT ( 'NONE',  ( -10.00000000000000000, 0.000000000000000000, 7.000000000000000000 ) ) ;
#126 = CARTESIAN_POINT ( 'NONE',  ( -3.250000000000000444, 0.000000000000000000, 0.000000000000000000 ) ) ;
#127 = CARTESIAN_POINT ( 'NONE',  ( -6.000000000000000888, 0.000000000000000000, 7.499999999999951150 ) ) ;
#128 = ADVANCED_FACE ( 'NONE', ( #244 ), #189, .F. ) ;
#129 = DIRECTION ( 'NONE',  ( -1.000000000000000000, 0.000000000000000000, 0.000000000000000000 ) ) ;
#130 = LINE ( 'NONE', #303, #321 ) ;
#131 = AXIS2_PLACEMENT_3D ( 'NONE', #252, #112, #254 ) ;
#132 = ORIENTED_EDGE ( 'NONE', *, *, #44, .T. ) ;
#133 = DIRECTION ( 'NONE',  ( -0.000000000000000000, -0.000000000000000000, -1.000000000000000000 ) ) ;
#134 = ORIENTED_EDGE ( 'NONE', *, *, #264, .T. ) ;
#135 = EDGE_LOOP ( 'NONE', ( #282, #313 ) ) ;
#136 = DIRECTION ( 'NONE',  ( 0.000000000000000000, 0.000000000000000000, 1.000000000000000000 ) ) ;
#137 = ORIENTED_EDGE ( 'NONE', *, *, #377, .F. ) ;
#138 = AXIS2_PLACEMENT_3D ( 'NONE', #261, #166, #355 ) ;
#139 = CARTESIAN_POINT ( 'NONE',  ( 3.250000000000000444, 3.980102097228898231E-16, 807.0000000000000000 ) ) ;
#140 = ORIENTED_EDGE ( 'NONE', *, *, #54, .F. ) ;
#141 = EDGE_CURVE ( 'NONE', #157, #199, #173, .T. ) ;
#142 = DIRECTION ( 'NONE',  ( 1.000000000000000000, 0.000000000000000000, 0.000000000000000000 ) ) ;
#143 = CARTESIAN_POINT ( 'NONE',  ( 3.250000000000000444, 3.980102097228898231E-16, 0.000000000000000000 ) ) ;
#144 = SECURITY_CLASSIFICATION ( '', '', #357 ) ;
#145 = PERSON_AND_ORGANIZATION ( #345, #26 ) ;
#146 = ORIENTED_EDGE ( 'NONE', *, *, #17, .F. ) ;
#147 = CIRCLE ( 'NONE', #48, 3.250000000000000444 ) ;
#148 = ADVANCED_FACE ( 'NONE', ( #163, #339 ), #18, .F. ) ;
#149 = ORIENTED_EDGE ( 'NONE', *, *, #258, .F. ) ;
#150 = DIRECTION ( 'NONE',  ( 1.000000000000000000, 0.000000000000000000, 0.000000000000000000 ) ) ;
#151 = CARTESIAN_POINT ( 'NONE',  ( 0.000000000000000000, 0.000000000000000000, 7.499999999999951150 ) ) ;
#152 = CARTESIAN_POINT ( 'NONE',  ( 0.000000000000000000, 0.000000000000000000, 807.0000000000000000 ) ) ;
#153 = CIRCLE ( 'NONE', #131, 10.00000000000000000 ) ;
#154 = EDGE_CURVE ( 'NONE', #55, #249, #111, .T. ) ;
#155 = DIRECTION ( 'NONE',  ( 0.000000000000000000, 0.000000000000000000, 1.000000000000000000 ) ) ;
#156 = CYLINDRICAL_SURFACE ( 'NONE', #248, 6.000000000000000888 ) ;
#157 = VERTEX_POINT ( 'NONE', #127 ) ;
#158 = EDGE_CURVE ( 'NONE', #84, #340, #130, .T. ) ;
#159 = CIRCLE ( 'NONE', #217, 6.500000000000000888 ) ;
#160 = CARTESIAN_POINT ( 'NONE',  ( 10.00000000000000000, 1.224646799147353256E-15, 0.000000000000000000 ) ) ;
#161 = APPROVAL_PERSON_ORGANIZATION ( #89, #359, #317 ) ;
#162 = ORIENTED_EDGE ( 'NONE', *, *, #68, .F. ) ;
#163 = FACE_BOUND ( 'NONE', #167, .T. ) ;
#164 = ORIENTED_EDGE ( 'NONE', *, *, #289, .F. ) ;
#165 = VERTEX_POINT ( 'NONE', #160 ) ;
#166 = DIRECTION ( 'NONE',  ( 0.000000000000000000, 0.000000000000000000, 1.000000000000000000 ) ) ;
#167 = EDGE_LOOP ( 'NONE', ( #137, #140 ) ) ;
#168 = DIRECTION ( 'NONE',  ( 0.000000000000000000, 0.000000000000000000, -1.000000000000000000 ) ) ;
#169 = DIRECTION ( 'NONE',  ( 1.000000000000000000, 0.000000000000000000, 0.000000000000000000 ) ) ;
#170 = LINE ( 'NONE', #139, #353 ) ;
#171 = EDGE_CURVE ( 'NONE', #199, #157, #255, .T. ) ;
#172 = DIRECTION ( 'NONE',  ( 1.000000000000000000, 0.000000000000000000, 0.000000000000000000 ) ) ;
#173 = CIRCLE ( 'NONE', #263, 6.000000000000000888 ) ;
#174 = DATE_TIME_ROLE ( 'classification_date' ) ;
#175 = APPLICATION_CONTEXT ( 'configuration controlled 3d designs of mechanical parts and assemblies' ) ;
#176 = PERSON_AND_ORGANIZATION ( #345, #26 ) ;
#177 = DIRECTION ( 'NONE',  ( 1.224646799147353207E-16, 1.000000000000000000, -0.000000000000000000 ) ) ;
#178 = DIRECTION ( 'NONE',  ( 0.000000000000000000, 0.000000000000000000, 1.000000000000000000 ) ) ;
#179 = CIRCLE ( 'NONE', #192, 6.000000000000000888 ) ;
#180 = EDGE_LOOP ( 'NONE', ( #227, #52 ) ) ;
#181 = FACE_OUTER_BOUND ( 'NONE', #251, .T. ) ;
#182 = EDGE_CURVE ( 'NONE', #34, #9, #296, .T. ) ;
#183 = CARTESIAN_POINT ( 'NONE',  ( 0.000000000000000000, 0.000000000000000000, 807.0000000000000000 ) ) ;
#184 = DIRECTION ( 'NONE',  ( -1.000000000000000000, 0.000000000000000000, 0.000000000000000000 ) ) ;
#185 = AXIS2_PLACEMENT_3D ( 'NONE', #183, #73, #100 ) ;
#186 = DIRECTION ( 'NONE',  ( 0.000000000000000000, 0.000000000000000000, 1.000000000000000000 ) ) ;
#187 = CC_DESIGN_DATE_AND_TIME_ASSIGNMENT ( #33, #121, ( #369 ) ) ;
#188 = ORIENTED_EDGE ( 'NONE', *, *, #141, .F. ) ;
#189 = CYLINDRICAL_SURFACE ( 'NONE', #304, 3.250000000000000444 ) ;
#190 = ORIENTED_EDGE ( 'NONE', *, *, #114, .F. ) ;
#191 = DIRECTION ( 'NONE',  ( -1.000000000000000000, 0.000000000000000000, 0.000000000000000000 ) ) ;
#192 = AXIS2_PLACEMENT_3D ( 'NONE', #319, #342, #290 ) ;
#193 = ORIENTED_EDGE ( 'NONE', *, *, #325, .F. ) ;
#194 = DIRECTION ( 'NONE',  ( 1.000000000000000000, 0.000000000000000000, 0.000000000000000000 ) ) ;
#195 = ORIENTED_EDGE ( 'NONE', *, *, #331, .T. ) ;
#196 = CARTESIAN_POINT ( 'NONE',  ( 0.000000000000000000, 0.000000000000000000, 807.0000000000000000 ) ) ;
#197 = ADVANCED_FACE ( 'NONE', ( #245 ), #156, .T. ) ;
#198 = ORIENTED_EDGE ( 'NONE', *, *, #35, .T. ) ;
#199 = VERTEX_POINT ( 'NONE', #107 ) ;
#200 = LOCAL_TIME ( 16, 40, 22.00000000000000000, #293 ) ;
#201 = APPROVAL_STATUS ( 'not_yet_approved' ) ;
#202 = DIRECTION ( 'NONE',  ( -0.000000000000000000, -0.000000000000000000, -1.000000000000000000 ) ) ;
#203 = CARTESIAN_POINT ( 'NONE',  ( -6.000000000000000888, 0.000000000000000000, 807.0000000000000000 ) ) ;
#204 = PERSON_AND_ORGANIZATION_ROLE ( 'classification_officer' ) ;
#205 = AXIS2_PLACEMENT_3D ( 'NONE', #228, #373, #172 ) ;
#206 = COORDINATED_UNIVERSAL_TIME_OFFSET ( 1, 0, .AHEAD. ) ;
#207 = CARTESIAN_POINT ( 'NONE',  ( 10.00000000000000000, 1.224646799147353256E-15, 7.000000000000000000 ) ) ;
#208 = ADVANCED_FACE ( 'NONE', ( #278, #216 ), #332, .T. ) ;
#209 = PERSON_AND_ORGANIZATION ( #345, #26 ) ;
#210 = DIRECTION ( 'NONE',  ( -0.000000000000000000, -0.000000000000000000, -1.000000000000000000 ) ) ;
#211 = AXIS2_PLACEMENT_3D ( 'NONE', #238, #178, #150 ) ;
#212 = DATE_AND_TIME ( #269, #315 ) ;
#213 = PRODUCT_DEFINITION_FORMATION_WITH_SPECIFIED_SOURCE ( 'LIBOVOLNÝ', '', #356, .NOT_KNOWN. ) ;
#214 = EDGE_LOOP ( 'NONE', ( #149, #132, #27, #122 ) ) ;
#215 = CARTESIAN_POINT ( 'NONE',  ( 0.000000000000000000, 0.000000000000000000, 7.000000000000000000 ) ) ;
#216 = FACE_OUTER_BOUND ( 'NONE', #135, .T. ) ;
#217 = AXIS2_PLACEMENT_3D ( 'NONE', #69, #210, #329 ) ;
#218 = FACE_BOUND ( 'NONE', #7, .T. ) ;
#219 = APPROVAL_PERSON_ORGANIZATION ( #209, #63, #4 ) ;
#220 = FACE_OUTER_BOUND ( 'NONE', #257, .T. ) ;
#221 = ORIENTED_EDGE ( 'NONE', *, *, #325, .T. ) ;
#222 = DIRECTION ( 'NONE',  ( 1.000000000000000000, 0.000000000000000000, 0.000000000000000000 ) ) ;
#223 = VERTEX_POINT ( 'NONE', #367 ) ;
#224 = LINE ( 'NONE', #203, #276 ) ;
#225 = ORIENTED_EDGE ( 'NONE', *, *, #158, .T. ) ;
#226 = ADVANCED_FACE ( 'NONE', ( #220 ), #78, .T. ) ;
#227 = ORIENTED_EDGE ( 'NONE', *, *, #17, .T. ) ;
#228 = CARTESIAN_POINT ( 'NONE',  ( 0.000000000000000000, 0.000000000000000000, 0.000000000000000000 ) ) ;
#229 = DIRECTION ( 'NONE',  ( -1.000000000000000000, 0.000000000000000000, 0.000000000000000000 ) ) ;
#230 =( NAMED_UNIT ( * ) PLANE_ANGLE_UNIT ( ) SI_UNIT ( $, .RADIAN. ) );
#231 = ORIENTED_EDGE ( 'NONE', *, *, #182, .F. ) ;
#232 = DIRECTION ( 'NONE',  ( 1.000000000000000000, 0.000000000000000000, -0.000000000000000000 ) ) ;
#233 = PERSON_AND_ORGANIZATION ( #345, #26 ) ;
#234 = PRODUCT_DEFINITION_SHAPE ( 'NONE', 'NONE',  #369 ) ;
#235 = AXIS2_PLACEMENT_3D ( 'NONE', #151, #361, #169 ) ;
#236 = LOCAL_TIME ( 16, 40, 22.00000000000000000, #92 ) ;
#237 = APPROVAL ( #8, 'NEURÈENÝ' ) ;
#238 = CARTESIAN_POINT ( 'NONE',  ( 0.000000000000000000, 0.000000000000000000, 7.499999999999951150 ) ) ;
#239 = UNCERTAINTY_MEASURE_WITH_UNIT (LENGTH_MEASURE( 1.000000000000000082E-05 ), #82, 'distance_accuracy_value', 'NONE');
#240 = VERTEX_POINT ( 'NONE', #20 ) ;
#241 = CARTESIAN_POINT ( 'NONE',  ( 6.000000000000000888, 7.347880794884120722E-16, 807.0000000000000000 ) ) ;
#242 = CC_DESIGN_PERSON_AND_ORGANIZATION_ASSIGNMENT ( #145, #204, ( #144 ) ) ;
#243 = AXIS2_PLACEMENT_3D ( 'NONE', #1, #348, #85 ) ;
#244 = FACE_OUTER_BOUND ( 'NONE', #25, .T. ) ;
#245 = FACE_OUTER_BOUND ( 'NONE', #309, .T. ) ;
#246 = DIRECTION ( 'NONE',  ( 1.000000000000000000, 0.000000000000000000, -0.000000000000000000 ) ) ;
#247 = CARTESIAN_POINT ( 'NONE',  ( 0.000000000000000000, 0.000000000000000000, 807.0000000000000000 ) ) ;
#248 = AXIS2_PLACEMENT_3D ( 'NONE', #279, #305, #366 ) ;
#249 = VERTEX_POINT ( 'NONE', #311 ) ;
#250 = DIRECTION ( 'NONE',  ( -1.000000000000000000, 1.224646799147351482E-16, 0.000000000000000000 ) ) ;
#251 = EDGE_LOOP ( 'NONE', ( #354, #302, #288, #231 ) ) ;
#252 = CARTESIAN_POINT ( 'NONE',  ( 0.000000000000000000, 0.000000000000000000, 0.000000000000000000 ) ) ;
#253 = ADVANCED_FACE ( 'NONE', ( #218, #76 ), #307, .T. ) ;
#254 = DIRECTION ( 'NONE',  ( 1.000000000000000000, 0.000000000000000000, 0.000000000000000000 ) ) ;
#255 = CIRCLE ( 'NONE', #118, 6.000000000000000888 ) ;
#256 = DIRECTION ( 'NONE',  ( 0.000000000000000000, 0.000000000000000000, 1.000000000000000000 ) ) ;
#257 = EDGE_LOOP ( 'NONE', ( #370, #190, #225, #134 ) ) ;
#258 = EDGE_CURVE ( 'NONE', #240, #84, #32, .T. ) ;
#259 = MECHANICAL_CONTEXT ( 'NONE', #341, 'mechanical' ) ;
#260 = CARTESIAN_POINT ( 'NONE',  ( 0.000000000000000000, 0.000000000000000000, 807.0000000000000000 ) ) ;
#261 = CARTESIAN_POINT ( 'NONE',  ( 0.000000000000000000, 0.000000000000000000, 0.000000000000000000 ) ) ;
#262 = AXIS2_PLACEMENT_3D ( 'NONE', #298, #318, #142 ) ;
#263 = AXIS2_PLACEMENT_3D ( 'NONE', #336, #101, #51 ) ;
#264 = EDGE_CURVE ( 'NONE', #340, #165, #153, .T. ) ;
#265 = APPROVAL_DATE_TIME ( #6, #237 ) ;
#266 = ORIENTED_EDGE ( 'NONE', *, *, #171, .T. ) ;
#267 = TOROIDAL_SURFACE ( 'NONE', #211, 6.500000000000000888, 0.5000000000000000000 ) ;
#268 = CIRCLE ( 'NONE', #205, 3.250000000000000444 ) ;
#269 = CALENDAR_DATE ( 2022, 8, 7 ) ;
#270 = ORIENTED_EDGE ( 'NONE', *, *, #349, .F. ) ;
#271 = CALENDAR_DATE ( 2022, 8, 7 ) ;
#272 = CC_DESIGN_PERSON_AND_ORGANIZATION_ASSIGNMENT ( #57, #380, ( #356 ) ) ;
#273 = CARTESIAN_POINT ( 'NONE',  ( 6.500000000000000888, 0.000000000000000000, 7.499999999999951150 ) ) ;
#274 = FACE_OUTER_BOUND ( 'NONE', #46, .T. ) ;
#275 = CIRCLE ( 'NONE', #262, 3.250000000000000444 ) ;
#276 = VECTOR ( 'NONE', #375, 1000.000000000000000 ) ;
#277 = DIRECTION ( 'NONE',  ( 1.000000000000000000, 0.000000000000000000, 0.000000000000000000 ) ) ;
#278 = FACE_BOUND ( 'NONE', #180, .T. ) ;
#279 = CARTESIAN_POINT ( 'NONE',  ( 0.000000000000000000, 0.000000000000000000, 807.0000000000000000 ) ) ;
#280 = DIRECTION ( 'NONE',  ( 1.000000000000000000, 0.000000000000000000, 0.000000000000000000 ) ) ;
#281 =( GEOMETRIC_REPRESENTATION_CONTEXT ( 3 ) GLOBAL_UNCERTAINTY_ASSIGNED_CONTEXT ( ( #239 ) ) GLOBAL_UNIT_ASSIGNED_CONTEXT ( ( #82, #230, #53 ) ) REPRESENTATION_CONTEXT ( 'NONE', 'WORKASPACE' ) );
#282 = ORIENTED_EDGE ( 'NONE', *, *, #114, .T. ) ;
#283 = DIRECTION ( 'NONE',  ( 1.000000000000000000, 0.000000000000000000, -0.000000000000000000 ) ) ;
#284 = EDGE_LOOP ( 'NONE', ( #19, #195, #77, #99 ) ) ;
#285 = LINE ( 'NONE', #22, #335 ) ;
#286 = EDGE_LOOP ( 'NONE', ( #379, #270 ) ) ;
#287 = CC_DESIGN_APPROVAL ( #359, ( #369 ) ) ;
#288 = ORIENTED_EDGE ( 'NONE', *, *, #68, .T. ) ;
#289 = EDGE_CURVE ( 'NONE', #55, #157, #224, .T. ) ;
#290 = DIRECTION ( 'NONE',  ( 1.000000000000000000, 0.000000000000000000, 0.000000000000000000 ) ) ;
#291 = DIRECTION ( 'NONE',  ( -1.000000000000000000, 0.000000000000000000, 0.000000000000000000 ) ) ;
#292 = CALENDAR_DATE ( 2022, 8, 7 ) ;
#293 = COORDINATED_UNIVERSAL_TIME_OFFSET ( 1, 0, .AHEAD. ) ;
#294 = AXIS2_PLACEMENT_3D ( 'NONE', #273, #36, #11 ) ;
#295 = AXIS2_PLACEMENT_3D ( 'NONE', #350, #177, #250 ) ;
#296 = CIRCLE ( 'NONE', #343, 6.500000000000000888 ) ;
#297 = APPROVAL_DATE_TIME ( #212, #63 ) ;
#298 = CARTESIAN_POINT ( 'NONE',  ( 0.000000000000000000, 0.000000000000000000, 807.0000000000000000 ) ) ;
#299 = LINE ( 'NONE', #207, #314 ) ;
#300 = CC_DESIGN_PERSON_AND_ORGANIZATION_ASSIGNMENT ( #10, #320, ( #369 ) ) ;
#301 = FACE_OUTER_BOUND ( 'NONE', #56, .T. ) ;
#302 = ORIENTED_EDGE ( 'NONE', *, *, #171, .F. ) ;
#303 = CARTESIAN_POINT ( 'NONE',  ( -10.00000000000000000, 0.000000000000000000, 7.000000000000000000 ) ) ;
#304 = AXIS2_PLACEMENT_3D ( 'NONE', #152, #45, #129 ) ;
#305 = DIRECTION ( 'NONE',  ( -0.000000000000000000, -0.000000000000000000, -1.000000000000000000 ) ) ;
#306 = EDGE_CURVE ( 'NONE', #110, #113, #285, .T. ) ;
#307 = PLANE ( 'NONE',  #123 ) ;
#308 = DIRECTION ( 'NONE',  ( -0.000000000000000000, -0.000000000000000000, -1.000000000000000000 ) ) ;
#309 = EDGE_LOOP ( 'NONE', ( #193, #198, #266, #164 ) ) ;
#310 = EDGE_CURVE ( 'NONE', #223, #327, #170, .T. ) ;
#311 = CARTESIAN_POINT ( 'NONE',  ( 6.000000000000000888, 7.347880794884120722E-16, 807.0000000000000000 ) ) ;
#312 = ORIENTED_EDGE ( 'NONE', *, *, #54, .T. ) ;
#313 = ORIENTED_EDGE ( 'NONE', *, *, #258, .T. ) ;
#314 = VECTOR ( 'NONE', #29, 1000.000000000000000 ) ;
#315 = LOCAL_TIME ( 16, 40, 22.00000000000000000, #119 ) ;
#316 = CARTESIAN_POINT ( 'NONE',  ( -6.000000000000000888, 0.000000000000000000, 807.0000000000000000 ) ) ;
#317 = APPROVAL_ROLE ( '' ) ;
#318 = DIRECTION ( 'NONE',  ( 0.000000000000000000, 0.000000000000000000, 1.000000000000000000 ) ) ;
#319 = CARTESIAN_POINT ( 'NONE',  ( 0.000000000000000000, 0.000000000000000000, 807.0000000000000000 ) ) ;
#320 = PERSON_AND_ORGANIZATION_ROLE ( 'creator' ) ;
#321 = VECTOR ( 'NONE', #330, 1000.000000000000000 ) ;
#322 = SHAPE_DEFINITION_REPRESENTATION ( #234, #75 ) ;
#323 = PERSON_AND_ORGANIZATION_ROLE ( 'creator' ) ;
#324 = CARTESIAN_POINT ( 'NONE',  ( 0.000000000000000000, 0.000000000000000000, 0.000000000000000000 ) ) ;
#325 = EDGE_CURVE ( 'NONE', #249, #55, #179, .T. ) ;
#326 = CALENDAR_DATE ( 2022, 8, 7 ) ;
#327 = VERTEX_POINT ( 'NONE', #143 ) ;
#328 = LOCAL_TIME ( 16, 40, 22.00000000000000000, #60 ) ;
#329 = DIRECTION ( 'NONE',  ( 1.000000000000000000, 0.000000000000000000, 0.000000000000000000 ) ) ;
#330 = DIRECTION ( 'NONE',  ( -0.000000000000000000, -0.000000000000000000, -1.000000000000000000 ) ) ;
#331 = EDGE_CURVE ( 'NONE', #223, #110, #358, .T. ) ;
#332 = PLANE ( 'NONE',  #94 ) ;
#333 = AXIS2_PLACEMENT_3D ( 'NONE', #96, #363, #291 ) ;
#334 = CIRCLE ( 'NONE', #104, 10.00000000000000000 ) ;
#335 = VECTOR ( 'NONE', #115, 1000.000000000000000 ) ;
#336 = CARTESIAN_POINT ( 'NONE',  ( 0.000000000000000000, 0.000000000000000000, 7.499999999999951150 ) ) ;
#337 = CARTESIAN_POINT ( 'NONE',  ( 0.000000000000000000, 0.000000000000000000, 0.000000000000000000 ) ) ;
#338 = CC_DESIGN_DATE_AND_TIME_ASSIGNMENT ( #61, #174, ( #144 ) ) ;
#339 = FACE_OUTER_BOUND ( 'NONE', #286, .T. ) ;
#340 = VERTEX_POINT ( 'NONE', #378 ) ;
#341 = APPLICATION_CONTEXT ( 'configuration controlled 3d designs of mechanical parts and assemblies' ) ;
#342 = DIRECTION ( 'NONE',  ( 0.000000000000000000, 0.000000000000000000, 1.000000000000000000 ) ) ;
#343 = AXIS2_PLACEMENT_3D ( 'NONE', #371, #133, #277 ) ;
#344 = ORIENTED_EDGE ( 'NONE', *, *, #310, .T. ) ;
#345 = PERSON ( 'NEURÈENÝ', 'NEURÈENÝ', 'NEURÈENÝ', ('NEURÈENÝ'), ('NEURÈENÝ'), ('NEURÈENÝ') ) ;
#346 = APPLICATION_PROTOCOL_DEFINITION ( 'international standard', 'config_control_design', 1994, #341 ) ;
#347 = ORIENTED_EDGE ( 'NONE', *, *, #141, .T. ) ;
#348 = DIRECTION ( 'NONE',  ( 0.000000000000000000, 0.000000000000000000, 1.000000000000000000 ) ) ;
#349 = EDGE_CURVE ( 'NONE', #165, #340, #50, .T. ) ;
#350 = CARTESIAN_POINT ( 'NONE',  ( -6.500000000000000888, 7.960204194457796463E-16, 7.499999999999951150 ) ) ;
#351 = TOROIDAL_SURFACE ( 'NONE', #235, 6.500000000000000888, 0.5000000000000000000 ) ;
#352 = CIRCLE ( 'NONE', #294, 0.5000000000000004441 ) ;
#353 = VECTOR ( 'NONE', #168, 1000.000000000000000 ) ;
#354 = ORIENTED_EDGE ( 'NONE', *, *, #108, .F. ) ;
#355 = DIRECTION ( 'NONE',  ( 1.000000000000000000, 0.000000000000000000, 0.000000000000000000 ) ) ;
#356 = PRODUCT ( 'e3c5', 'e3c5', '', ( #259 ) ) ;
#357 = SECURITY_CLASSIFICATION_LEVEL ( 'unclassified' ) ;
#358 = CIRCLE ( 'NONE', #88, 3.250000000000000444 ) ;
#359 = APPROVAL ( #201, 'NEURÈENÝ' ) ;
#360 = ORIENTED_EDGE ( 'NONE', *, *, #331, .F. ) ;
#361 = DIRECTION ( 'NONE',  ( 0.000000000000000000, 0.000000000000000000, 1.000000000000000000 ) ) ;
#362 = VECTOR ( 'NONE', #202, 1000.000000000000000 ) ;
#363 = DIRECTION ( 'NONE',  ( 0.000000000000000000, 0.000000000000000000, -1.000000000000000000 ) ) ;
#364 = APPROVAL_PERSON_ORGANIZATION ( #64, #237, #5 ) ;
#365 = DIRECTION ( 'NONE',  ( 0.000000000000000000, 0.000000000000000000, 1.000000000000000000 ) ) ;
#366 = DIRECTION ( 'NONE',  ( -1.000000000000000000, 0.000000000000000000, 0.000000000000000000 ) ) ;
#367 = CARTESIAN_POINT ( 'NONE',  ( 3.250000000000000444, 3.980102097228898231E-16, 807.0000000000000000 ) ) ;
#368 = DIRECTION ( 'NONE',  ( 0.000000000000000000, 0.000000000000000000, 1.000000000000000000 ) ) ;
#369 = PRODUCT_DEFINITION ( 'NEZNÁMÝ', '', #213, #72 ) ;
#370 = ORIENTED_EDGE ( 'NONE', *, *, #44, .F. ) ;
#371 = CARTESIAN_POINT ( 'NONE',  ( 0.000000000000000000, 0.000000000000000000, 7.000000000000000000 ) ) ;
#372 = ORIENTED_EDGE ( 'NONE', *, *, #86, .F. ) ;
#373 = DIRECTION ( 'NONE',  ( -0.000000000000000000, -0.000000000000000000, -1.000000000000000000 ) ) ;
#374 = ORIENTED_EDGE ( 'NONE', *, *, #86, .T. ) ;
#375 = DIRECTION ( 'NONE',  ( -0.000000000000000000, -0.000000000000000000, -1.000000000000000000 ) ) ;
#376 = CC_DESIGN_APPROVAL ( #63, ( #213 ) ) ;
#377 = EDGE_CURVE ( 'NONE', #113, #327, #268, .T. ) ;
#378 = CARTESIAN_POINT ( 'NONE',  ( -10.00000000000000000, 0.000000000000000000, 0.000000000000000000 ) ) ;
#379 = ORIENTED_EDGE ( 'NONE', *, *, #264, .F. ) ;
#380 = PERSON_AND_ORGANIZATION_ROLE ( 'design_owner' ) ;
#381 = CYLINDRICAL_SURFACE ( 'NONE', #333, 3.250000000000000444 ) ;
ENDSEC;
END-ISO-10303-21;
