ISO-10303-21;
HEADER;
FILE_DESCRIPTION (( 'STEP AP203' ),
    '1' );
FILE_NAME ('7b08.STEP',
    '2022-07-08T15:27:16',
    ( '' ),
    ( '' ),
    'SwSTEP 2.0',
    'SolidWorks 2019',
    '' );
FILE_SCHEMA (( 'CONFIG_CONTROL_DESIGN' ));
ENDSEC;

DATA;
#1 = DIRECTION ( 'NONE',  ( 0.000000000000000000, 0.000000000000000000, 1.000000000000000000 ) ) ;
#2 = CIRCLE ( 'NONE', #128, 2.100000000000000089 ) ;
#3 = AXIS2_PLACEMENT_3D ( 'NONE', #6, #156, #276 ) ;
#4 = ORIENTED_EDGE ( 'NONE', *, *, #143, .T. ) ;
#5 = DESIGN_CONTEXT ( 'detailed design', #98, 'design' ) ;
#6 = CARTESIAN_POINT ( 'NONE',  ( 0.000000000000000000, 0.000000000000000000, 0.000000000000000000 ) ) ;
#7 = VERTEX_POINT ( 'NONE', #370 ) ;
#8 = ADVANCED_FACE ( 'NONE', ( #344 ), #42, .F. ) ;
#9 = CARTESIAN_POINT ( 'NONE',  ( -4.000000000000000000, 0.000000000000000000, 5.500000000000005329 ) ) ;
#10 = AXIS2_PLACEMENT_3D ( 'NONE', #82, #108, #196 ) ;
#11 = DIRECTION ( 'NONE',  ( 0.000000000000000000, 0.000000000000000000, 1.000000000000000000 ) ) ;
#12 = ORIENTED_EDGE ( 'NONE', *, *, #308, .T. ) ;
#13 = PRODUCT_DEFINITION_FORMATION_WITH_SPECIFIED_SOURCE ( 'LIBOVOLNÝ', '', #313, .NOT_KNOWN. ) ;
#14 = APPROVAL_STATUS ( 'not_yet_approved' ) ;
#15 = ORIENTED_EDGE ( 'NONE', *, *, #119, .F. ) ;
#16 = CALENDAR_DATE ( 2022, 8, 7 ) ;
#17 = CARTESIAN_POINT ( 'NONE',  ( 4.000000000000000000, 4.898587196589412829E-16, 305.0000000000000000 ) ) ;
#18 = PERSON_AND_ORGANIZATION_ROLE ( 'creator' ) ;
#19 = CARTESIAN_POINT ( 'NONE',  ( 7.000000000000000000, 8.572527594031473190E-16, 5.000000000000000000 ) ) ;
#20 = CIRCLE ( 'NONE', #66, 4.000000000000000000 ) ;
#21 = PERSON_AND_ORGANIZATION_ROLE ( 'design_supplier' ) ;
#22 = ORIENTED_EDGE ( 'NONE', *, *, #53, .F. ) ;
#23 = EDGE_CURVE ( 'NONE', #161, #337, #312, .T. ) ;
#24 = DIRECTION ( 'NONE',  ( 0.000000000000000000, 0.000000000000000000, 1.000000000000000000 ) ) ;
#25 = FACE_OUTER_BOUND ( 'NONE', #37, .T. ) ;
#26 = AXIS2_PLACEMENT_3D ( 'NONE', #28, #31, #57 ) ;
#27 = EDGE_CURVE ( 'NONE', #315, #193, #73, .T. ) ;
#28 = CARTESIAN_POINT ( 'NONE',  ( 0.000000000000000000, 0.000000000000000000, 305.0000000000000000 ) ) ;
#29 = DIRECTION ( 'NONE',  ( 1.000000000000000000, 0.000000000000000000, -0.000000000000000000 ) ) ;
#30 = CARTESIAN_POINT ( 'NONE',  ( 0.000000000000000000, 0.000000000000000000, 5.000000000000000000 ) ) ;
#31 = DIRECTION ( 'NONE',  ( -0.000000000000000000, -0.000000000000000000, -1.000000000000000000 ) ) ;
#32 = EDGE_CURVE ( 'NONE', #232, #224, #331, .T. ) ;
#33 = DIRECTION ( 'NONE',  ( 0.000000000000000000, 0.000000000000000000, 1.000000000000000000 ) ) ;
#34 = FACE_OUTER_BOUND ( 'NONE', #67, .T. ) ;
#35 = CYLINDRICAL_SURFACE ( 'NONE', #373, 2.100000000000000089 ) ;
#36 = APPROVAL ( #201, 'NEURÈENÝ' ) ;
#37 = EDGE_LOOP ( 'NONE', ( #307, #277, #4, #123 ) ) ;
#38 = CARTESIAN_POINT ( 'NONE',  ( 0.000000000000000000, 0.000000000000000000, 305.0000000000000000 ) ) ;
#39 = DIRECTION ( 'NONE',  ( -1.000000000000000000, 0.000000000000000000, 0.000000000000000000 ) ) ;
#40 = ORIENTED_EDGE ( 'NONE', *, *, #283, .F. ) ;
#41 = SECURITY_CLASSIFICATION ( '', '', #135 ) ;
#42 = CYLINDRICAL_SURFACE ( 'NONE', #10, 2.100000000000000089 ) ;
#43 = PERSON_AND_ORGANIZATION ( #233, #85 ) ;
#44 = ORIENTED_EDGE ( 'NONE', *, *, #77, .T. ) ;
#45 = VECTOR ( 'NONE', #346, 1000.000000000000000 ) ;
#46 = PERSON_AND_ORGANIZATION_ROLE ( 'creator' ) ;
#47 = DIRECTION ( 'NONE',  ( -0.000000000000000000, -0.000000000000000000, -1.000000000000000000 ) ) ;
#48 = AXIS2_PLACEMENT_3D ( 'NONE', #30, #90, #29 ) ;
#49 = APPROVAL_PERSON_ORGANIZATION ( #258, #185, #311 ) ;
#50 = DATE_TIME_ROLE ( 'creation_date' ) ;
#51 = EDGE_LOOP ( 'NONE', ( #106, #169, #101, #264 ) ) ;
#52 = CARTESIAN_POINT ( 'NONE',  ( 0.000000000000000000, 0.000000000000000000, 305.0000000000000000 ) ) ;
#53 = EDGE_CURVE ( 'NONE', #193, #337, #377, .T. ) ;
#54 = FACE_OUTER_BOUND ( 'NONE', #299, .T. ) ;
#55 = DIRECTION ( 'NONE',  ( 0.000000000000000000, 0.000000000000000000, 1.000000000000000000 ) ) ;
#56 = DIRECTION ( 'NONE',  ( 0.000000000000000000, 0.000000000000000000, 1.000000000000000000 ) ) ;
#57 = DIRECTION ( 'NONE',  ( -1.000000000000000000, 0.000000000000000000, 0.000000000000000000 ) ) ;
#58 = FACE_BOUND ( 'NONE', #122, .T. ) ;
#59 = CC_DESIGN_APPROVAL ( #36, ( #104 ) ) ;
#60 = CARTESIAN_POINT ( 'NONE',  ( 0.000000000000000000, 0.000000000000000000, 5.000000000000000000 ) ) ;
#61 = EDGE_LOOP ( 'NONE', ( #15, #367, #97, #129 ) ) ;
#62 = UNCERTAINTY_MEASURE_WITH_UNIT (LENGTH_MEASURE( 1.000000000000000082E-05 ), #93, 'distance_accuracy_value', 'NONE');
#63 = EDGE_CURVE ( 'NONE', #151, #180, #281, .T. ) ;
#64 = DIRECTION ( 'NONE',  ( 1.224646799147353207E-16, 1.000000000000000000, -0.000000000000000000 ) ) ;
#65 = CYLINDRICAL_SURFACE ( 'NONE', #359, 4.000000000000000000 ) ;
#66 = AXIS2_PLACEMENT_3D ( 'NONE', #328, #273, #253 ) ;
#67 = EDGE_LOOP ( 'NONE', ( #254, #22 ) ) ;
#68 = DIRECTION ( 'NONE',  ( -1.000000000000000000, 0.000000000000000000, 0.000000000000000000 ) ) ;
#69 = ORIENTED_EDGE ( 'NONE', *, *, #126, .T. ) ;
#70 = APPLICATION_PROTOCOL_DEFINITION ( 'international standard', 'config_control_design', 1994, #107 ) ;
#71 = ORIENTED_EDGE ( 'NONE', *, *, #27, .F. ) ;
#72 = CALENDAR_DATE ( 2022, 8, 7 ) ;
#73 = LINE ( 'NONE', #19, #124 ) ;
#74 = AXIS2_PLACEMENT_3D ( 'NONE', #294, #146, #112 ) ;
#75 = DATE_AND_TIME ( #255, #221 ) ;
#76 = ORIENTED_EDGE ( 'NONE', *, *, #32, .F. ) ;
#77 = EDGE_CURVE ( 'NONE', #94, #339, #80, .T. ) ;
#78 = APPLICATION_PROTOCOL_DEFINITION ( 'international standard', 'config_control_design', 1994, #98 ) ;
#79 = ORIENTED_EDGE ( 'NONE', *, *, #63, .F. ) ;
#80 = LINE ( 'NONE', #134, #109 ) ;
#81 = AXIS2_PLACEMENT_3D ( 'NONE', #60, #214, #302 ) ;
#82 = CARTESIAN_POINT ( 'NONE',  ( 0.000000000000000000, 0.000000000000000000, 305.0000000000000000 ) ) ;
#83 = FACE_BOUND ( 'NONE', #368, .T. ) ;
#84 = CARTESIAN_POINT ( 'NONE',  ( 0.000000000000000000, 0.000000000000000000, 5.500000000000005329 ) ) ;
#85 = ORGANIZATION ( 'NEURÈENÝ', 'NEURÈENÝ', '' ) ;
#86 = FACE_OUTER_BOUND ( 'NONE', #153, .T. ) ;
#87 = PRODUCT_RELATED_PRODUCT_CATEGORY ( 'detail', '', ( #313 ) ) ;
#88 = DIRECTION ( 'NONE',  ( -0.000000000000000000, -0.000000000000000000, -1.000000000000000000 ) ) ;
#89 = AXIS2_PLACEMENT_3D ( 'NONE', #323, #33, #378 ) ;
#90 = DIRECTION ( 'NONE',  ( 0.000000000000000000, 0.000000000000000000, 1.000000000000000000 ) ) ;
#91 = DIRECTION ( 'NONE',  ( 1.000000000000000000, 0.000000000000000000, 0.000000000000000000 ) ) ;
#92 = MECHANICAL_CONTEXT ( 'NONE', #107, 'mechanical' ) ;
#93 =( LENGTH_UNIT ( ) NAMED_UNIT ( * ) SI_UNIT ( .MILLI., .METRE. ) );
#94 = VERTEX_POINT ( 'NONE', #372 ) ;
#95 = CARTESIAN_POINT ( 'NONE',  ( -4.500000000000000888, 5.510910596163089556E-16, 5.500000000000005329 ) ) ;
#96 = EDGE_CURVE ( 'NONE', #161, #315, #345, .T. ) ;
#97 = ORIENTED_EDGE ( 'NONE', *, *, #191, .T. ) ;
#98 = APPLICATION_CONTEXT ( 'configuration controlled 3d designs of mechanical parts and assemblies' ) ;
#99 = AXIS2_PLACEMENT_3D ( 'NONE', #284, #138, #263 ) ;
#100 = PERSON_AND_ORGANIZATION ( #233, #85 ) ;
#101 = ORIENTED_EDGE ( 'NONE', *, *, #53, .T. ) ;
#102 = CARTESIAN_POINT ( 'NONE',  ( 2.100000000000000089, 2.571758278209441957E-16, 305.0000000000000000 ) ) ;
#103 = LOCAL_TIME ( 17, 27, 16.00000000000000000, #194 ) ;
#104 = PRODUCT_DEFINITION ( 'NEZNÁMÝ', '', #13, #5 ) ;
#105 = CALENDAR_DATE ( 2022, 8, 7 ) ;
#106 = ORIENTED_EDGE ( 'NONE', *, *, #305, .F. ) ;
#107 = APPLICATION_CONTEXT ( 'configuration controlled 3d designs of mechanical parts and assemblies' ) ;
#108 = DIRECTION ( 'NONE',  ( 0.000000000000000000, 0.000000000000000000, -1.000000000000000000 ) ) ;
#109 = VECTOR ( 'NONE', #202, 1000.000000000000000 ) ;
#110 = DATE_AND_TIME ( #16, #380 ) ;
#111 = ORIENTED_EDGE ( 'NONE', *, *, #63, .T. ) ;
#112 = DIRECTION ( 'NONE',  ( 1.000000000000000000, 0.000000000000000000, 0.000000000000000000 ) ) ;
#113 = DIRECTION ( 'NONE',  ( 0.000000000000000000, 0.000000000000000000, 1.000000000000000000 ) ) ;
#114 = CARTESIAN_POINT ( 'NONE',  ( 4.000000000000000000, 4.898587196589412829E-16, 5.500000000000005329 ) ) ;
#115 = AXIS2_PLACEMENT_3D ( 'NONE', #241, #357, #91 ) ;
#116 = DIRECTION ( 'NONE',  ( 0.000000000000000000, 0.000000000000000000, -1.000000000000000000 ) ) ;
#117 = CARTESIAN_POINT ( 'NONE',  ( 4.500000000000000888, 0.000000000000000000, 5.000000000000002665 ) ) ;
#118 = DIRECTION ( 'NONE',  ( 0.000000000000000000, 0.000000000000000000, 1.000000000000000000 ) ) ;
#119 = EDGE_CURVE ( 'NONE', #7, #224, #348, .T. ) ;
#120 = CIRCLE ( 'NONE', #81, 7.000000000000000000 ) ;
#121 = DIRECTION ( 'NONE',  ( -0.000000000000000000, -0.000000000000000000, -1.000000000000000000 ) ) ;
#122 = EDGE_LOOP ( 'NONE', ( #274, #199 ) ) ;
#123 = ORIENTED_EDGE ( 'NONE', *, *, #242, .F. ) ;
#124 = VECTOR ( 'NONE', #287, 1000.000000000000000 ) ;
#125 = EDGE_LOOP ( 'NONE', ( #71, #220, #362, #139 ) ) ;
#126 = EDGE_CURVE ( 'NONE', #252, #7, #324, .T. ) ;
#127 = DIRECTION ( 'NONE',  ( 1.000000000000000000, 0.000000000000000000, 0.000000000000000000 ) ) ;
#128 = AXIS2_PLACEMENT_3D ( 'NONE', #267, #56, #374 ) ;
#129 = ORIENTED_EDGE ( 'NONE', *, *, #32, .T. ) ;
#130 = APPROVAL_DATE_TIME ( #314, #36 ) ;
#131 = EDGE_LOOP ( 'NONE', ( #195, #227 ) ) ;
#132 = COORDINATED_UNIVERSAL_TIME_OFFSET ( 1, 0, .AHEAD. ) ;
#133 = ADVANCED_FACE ( 'NONE', ( #25 ), #318, .F. ) ;
#134 = CARTESIAN_POINT ( 'NONE',  ( -4.000000000000000000, 0.000000000000000000, 305.0000000000000000 ) ) ;
#135 = SECURITY_CLASSIFICATION_LEVEL ( 'unclassified' ) ;
#136 = VERTEX_POINT ( 'NONE', #266 ) ;
#137 = CC_DESIGN_APPROVAL ( #185, ( #41 ) ) ;
#138 = DIRECTION ( 'NONE',  ( -0.000000000000000000, -0.000000000000000000, -1.000000000000000000 ) ) ;
#139 = ORIENTED_EDGE ( 'NONE', *, *, #210, .T. ) ;
#140 = AXIS2_PLACEMENT_3D ( 'NONE', #321, #55, #246 ) ;
#141 = CYLINDRICAL_SURFACE ( 'NONE', #320, 7.000000000000000000 ) ;
#142 = DIRECTION ( 'NONE',  ( 1.000000000000000000, 0.000000000000000000, 0.000000000000000000 ) ) ;
#143 = EDGE_CURVE ( 'NONE', #180, #183, #355, .T. ) ;
#144 = CARTESIAN_POINT ( 'NONE',  ( -2.100000000000000089, 0.000000000000000000, 0.000000000000000000 ) ) ;
#145 = CARTESIAN_POINT ( 'NONE',  ( -7.000000000000000000, 0.000000000000000000, 5.000000000000000000 ) ) ;
#146 = DIRECTION ( 'NONE',  ( -0.000000000000000000, -0.000000000000000000, -1.000000000000000000 ) ) ;
#147 = ADVANCED_FACE ( 'NONE', ( #83, #54 ), #319, .T. ) ;
#148 = CARTESIAN_POINT ( 'NONE',  ( -7.000000000000000000, 0.000000000000000000, 0.000000000000000000 ) ) ;
#149 = ORIENTED_EDGE ( 'NONE', *, *, #340, .T. ) ;
#150 = CARTESIAN_POINT ( 'NONE',  ( 7.000000000000000000, 8.572527594031473190E-16, 5.000000000000000000 ) ) ;
#151 = VERTEX_POINT ( 'NONE', #381 ) ;
#152 = FACE_OUTER_BOUND ( 'NONE', #309, .T. ) ;
#153 = EDGE_LOOP ( 'NONE', ( #79, #223, #44, #215 ) ) ;
#154 = CC_DESIGN_DATE_AND_TIME_ASSIGNMENT ( #110, #50, ( #104 ) ) ;
#155 = AXIS2_PLACEMENT_3D ( 'NONE', #52, #170, #289 ) ;
#156 = DIRECTION ( 'NONE',  ( -0.000000000000000000, -0.000000000000000000, -1.000000000000000000 ) ) ;
#157 = EDGE_LOOP ( 'NONE', ( #40, #111, #149, #166 ) ) ;
#158 = APPROVAL_ROLE ( '' ) ;
#159 = AXIS2_PLACEMENT_3D ( 'NONE', #375, #209, #207 ) ;
#160 =( GEOMETRIC_REPRESENTATION_CONTEXT ( 3 ) GLOBAL_UNCERTAINTY_ASSIGNED_CONTEXT ( ( #62 ) ) GLOBAL_UNIT_ASSIGNED_CONTEXT ( ( #93, #298, #216 ) ) REPRESENTATION_CONTEXT ( 'NONE', 'WORKASPACE' ) );
#161 = VERTEX_POINT ( 'NONE', #145 ) ;
#162 = APPROVAL_DATE_TIME ( #75, #179 ) ;
#163 = CARTESIAN_POINT ( 'NONE',  ( 0.000000000000000000, 0.000000000000000000, 0.000000000000000000 ) ) ;
#164 = DATE_AND_TIME ( #259, #103 ) ;
#165 = CARTESIAN_POINT ( 'NONE',  ( -7.000000000000000000, 0.000000000000000000, 5.000000000000000000 ) ) ;
#166 = ORIENTED_EDGE ( 'NONE', *, *, #77, .F. ) ;
#167 = CIRCLE ( 'NONE', #3, 2.100000000000000089 ) ;
#168 = PERSON_AND_ORGANIZATION ( #233, #85 ) ;
#169 = ORIENTED_EDGE ( 'NONE', *, *, #27, .T. ) ;
#170 = DIRECTION ( 'NONE',  ( 0.000000000000000000, 0.000000000000000000, 1.000000000000000000 ) ) ;
#171 = LINE ( 'NONE', #325, #268 ) ;
#172 = EDGE_CURVE ( 'NONE', #7, #252, #2, .T. ) ;
#173 = CARTESIAN_POINT ( 'NONE',  ( -2.100000000000000089, 0.000000000000000000, 305.0000000000000000 ) ) ;
#174 = DIRECTION ( 'NONE',  ( 1.000000000000000000, 0.000000000000000000, -0.000000000000000000 ) ) ;
#175 = FACE_OUTER_BOUND ( 'NONE', #51, .T. ) ;
#176 = CIRCLE ( 'NONE', #295, 7.000000000000000000 ) ;
#177 = AXIS2_PLACEMENT_3D ( 'NONE', #360, #1, #222 ) ;
#178 = CYLINDRICAL_SURFACE ( 'NONE', #260, 7.000000000000000000 ) ;
#179 = APPROVAL ( #14, 'NEURÈENÝ' ) ;
#180 = VERTEX_POINT ( 'NONE', #114 ) ;
#181 = FACE_OUTER_BOUND ( 'NONE', #157, .T. ) ;
#182 = ADVANCED_BREP_SHAPE_REPRESENTATION ( '7b08', ( #213, #212 ), #160 ) ;
#183 = VERTEX_POINT ( 'NONE', #117 ) ;
#184 = FACE_OUTER_BOUND ( 'NONE', #249, .T. ) ;
#185 = APPROVAL ( #236, 'NEURÈENÝ' ) ;
#186 = ORIENTED_EDGE ( 'NONE', *, *, #143, .F. ) ;
#187 = DIRECTION ( 'NONE',  ( 1.000000000000000000, 0.000000000000000000, -0.000000000000000000 ) ) ;
#188 = AXIS2_PLACEMENT_3D ( 'NONE', #203, #356, #379 ) ;
#189 = PLANE ( 'NONE',  #296 ) ;
#190 = ORIENTED_EDGE ( 'NONE', *, *, #96, .T. ) ;
#191 = EDGE_CURVE ( 'NONE', #252, #232, #171, .T. ) ;
#192 = CIRCLE ( 'NONE', #74, 4.500000000000000888 ) ;
#193 = VERTEX_POINT ( 'NONE', #297 ) ;
#194 = COORDINATED_UNIVERSAL_TIME_OFFSET ( 1, 0, .AHEAD. ) ;
#195 = ORIENTED_EDGE ( 'NONE', *, *, #250, .T. ) ;
#196 = DIRECTION ( 'NONE',  ( -1.000000000000000000, 0.000000000000000000, 0.000000000000000000 ) ) ;
#197 = PRODUCT_DEFINITION_SHAPE ( 'NONE', 'NONE',  #104 ) ;
#198 = COORDINATED_UNIVERSAL_TIME_OFFSET ( 1, 0, .AHEAD. ) ;
#199 = ORIENTED_EDGE ( 'NONE', *, *, #172, .F. ) ;
#200 = AXIS2_PLACEMENT_3D ( 'NONE', #243, #113, #174 ) ;
#201 = APPROVAL_STATUS ( 'not_yet_approved' ) ;
#202 = DIRECTION ( 'NONE',  ( -0.000000000000000000, -0.000000000000000000, -1.000000000000000000 ) ) ;
#203 = CARTESIAN_POINT ( 'NONE',  ( 4.500000000000000888, 0.000000000000000000, 5.500000000000005329 ) ) ;
#204 = ADVANCED_FACE ( 'NONE', ( #58, #244 ), #269, .T. ) ;
#205 = DIRECTION ( 'NONE',  ( -1.000000000000000000, 0.000000000000000000, 0.000000000000000000 ) ) ;
#206 = TOROIDAL_SURFACE ( 'NONE', #177, 4.500000000000000888, 0.5000000000000000000 ) ;
#207 = DIRECTION ( 'NONE',  ( 1.000000000000000000, 0.000000000000000000, 0.000000000000000000 ) ) ;
#208 = DIRECTION ( 'NONE',  ( -1.000000000000000000, 0.000000000000000000, 0.000000000000000000 ) ) ;
#209 = DIRECTION ( 'NONE',  ( -0.000000000000000000, -0.000000000000000000, -1.000000000000000000 ) ) ;
#210 = EDGE_CURVE ( 'NONE', #337, #193, #176, .T. ) ;
#211 = CIRCLE ( 'NONE', #140, 4.000000000000000000 ) ;
#212 = AXIS2_PLACEMENT_3D ( 'NONE', #304, #11, #127 ) ;
#213 = MANIFOLD_SOLID_BREP ( 'Odebrat vysunutím3', #310 ) ;
#214 = DIRECTION ( 'NONE',  ( 0.000000000000000000, 0.000000000000000000, 1.000000000000000000 ) ) ;
#215 = ORIENTED_EDGE ( 'NONE', *, *, #234, .T. ) ;
#216 =( NAMED_UNIT ( * ) SI_UNIT ( $, .STERADIAN. ) SOLID_ANGLE_UNIT ( ) );
#217 = ORIENTED_EDGE ( 'NONE', *, *, #271, .F. ) ;
#218 = AXIS2_PLACEMENT_3D ( 'NONE', #163, #262, #237 ) ;
#219 = CC_DESIGN_PERSON_AND_ORGANIZATION_ASSIGNMENT ( #100, #338, ( #41 ) ) ;
#220 = ORIENTED_EDGE ( 'NONE', *, *, #96, .F. ) ;
#221 = LOCAL_TIME ( 17, 27, 16.00000000000000000, #132 ) ;
#222 = DIRECTION ( 'NONE',  ( 1.000000000000000000, 0.000000000000000000, 0.000000000000000000 ) ) ;
#223 = ORIENTED_EDGE ( 'NONE', *, *, #250, .F. ) ;
#224 = VERTEX_POINT ( 'NONE', #350 ) ;
#225 = VECTOR ( 'NONE', #47, 1000.000000000000000 ) ;
#226 = PERSON_AND_ORGANIZATION ( #233, #85 ) ;
#227 = ORIENTED_EDGE ( 'NONE', *, *, #283, .T. ) ;
#228 = ADVANCED_FACE ( 'NONE', ( #86 ), #248, .T. ) ;
#229 = CIRCLE ( 'NONE', #327, 4.000000000000000000 ) ;
#230 = LOCAL_TIME ( 17, 27, 16.00000000000000000, #198 ) ;
#231 = ORIENTED_EDGE ( 'NONE', *, *, #351, .T. ) ;
#232 = VERTEX_POINT ( 'NONE', #144 ) ;
#233 = PERSON ( 'NEURÈENÝ', 'NEURÈENÝ', 'NEURÈENÝ', ('NEURÈENÝ'), ('NEURÈENÝ'), ('NEURÈENÝ') ) ;
#234 = EDGE_CURVE ( 'NONE', #339, #180, #229, .T. ) ;
#235 = AXIS2_PLACEMENT_3D ( 'NONE', #288, #24, #239 ) ;
#236 = APPROVAL_STATUS ( 'not_yet_approved' ) ;
#237 = DIRECTION ( 'NONE',  ( 1.000000000000000000, 0.000000000000000000, 0.000000000000000000 ) ) ;
#238 = PERSON_AND_ORGANIZATION ( #233, #85 ) ;
#239 = DIRECTION ( 'NONE',  ( 1.000000000000000000, 0.000000000000000000, 0.000000000000000000 ) ) ;
#240 = CC_DESIGN_APPROVAL ( #179, ( #13 ) ) ;
#241 = CARTESIAN_POINT ( 'NONE',  ( 0.000000000000000000, 0.000000000000000000, 305.0000000000000000 ) ) ;
#242 = EDGE_CURVE ( 'NONE', #136, #183, #272, .T. ) ;
#243 = CARTESIAN_POINT ( 'NONE',  ( 0.000000000000000000, 0.000000000000000000, 305.0000000000000000 ) ) ;
#244 = FACE_OUTER_BOUND ( 'NONE', #131, .T. ) ;
#245 = APPROVAL_PERSON_ORGANIZATION ( #238, #36, #282 ) ;
#246 = DIRECTION ( 'NONE',  ( 1.000000000000000000, 0.000000000000000000, 0.000000000000000000 ) ) ;
#247 = ADVANCED_FACE ( 'NONE', ( #175 ), #141, .T. ) ;
#248 = CYLINDRICAL_SURFACE ( 'NONE', #26, 4.000000000000000000 ) ;
#249 = EDGE_LOOP ( 'NONE', ( #69, #303, #231, #336 ) ) ;
#250 = EDGE_CURVE ( 'NONE', #94, #151, #211, .T. ) ;
#251 = CARTESIAN_POINT ( 'NONE',  ( 0.000000000000000000, 0.000000000000000000, 0.000000000000000000 ) ) ;
#252 = VERTEX_POINT ( 'NONE', #173 ) ;
#253 = DIRECTION ( 'NONE',  ( 1.000000000000000000, 0.000000000000000000, 0.000000000000000000 ) ) ;
#254 = ORIENTED_EDGE ( 'NONE', *, *, #210, .F. ) ;
#255 = CALENDAR_DATE ( 2022, 8, 7 ) ;
#256 = CC_DESIGN_DATE_AND_TIME_ASSIGNMENT ( #164, #285, ( #41 ) ) ;
#257 = ORIENTED_EDGE ( 'NONE', *, *, #271, .T. ) ;
#258 = PERSON_AND_ORGANIZATION ( #233, #85 ) ;
#259 = CALENDAR_DATE ( 2022, 8, 7 ) ;
#260 = AXIS2_PLACEMENT_3D ( 'NONE', #354, #88, #208 ) ;
#261 = ADVANCED_FACE ( 'NONE', ( #326 ), #178, .T. ) ;
#262 = DIRECTION ( 'NONE',  ( 0.000000000000000000, 0.000000000000000000, 1.000000000000000000 ) ) ;
#263 = DIRECTION ( 'NONE',  ( 1.000000000000000000, 0.000000000000000000, 0.000000000000000000 ) ) ;
#264 = ORIENTED_EDGE ( 'NONE', *, *, #23, .F. ) ;
#265 = CARTESIAN_POINT ( 'NONE',  ( 0.000000000000000000, 0.000000000000000000, 5.000000000000000000 ) ) ;
#266 = CARTESIAN_POINT ( 'NONE',  ( -4.500000000000000888, 5.510910596163088569E-16, 5.000000000000002665 ) ) ;
#267 = CARTESIAN_POINT ( 'NONE',  ( 0.000000000000000000, 0.000000000000000000, 305.0000000000000000 ) ) ;
#268 = VECTOR ( 'NONE', #116, 1000.000000000000000 ) ;
#269 = PLANE ( 'NONE',  #200 ) ;
#270 = FACE_BOUND ( 'NONE', #342, .T. ) ;
#271 = EDGE_CURVE ( 'NONE', #183, #136, #192, .T. ) ;
#272 = CIRCLE ( 'NONE', #159, 4.500000000000000888 ) ;
#273 = DIRECTION ( 'NONE',  ( 0.000000000000000000, 0.000000000000000000, 1.000000000000000000 ) ) ;
#274 = ORIENTED_EDGE ( 'NONE', *, *, #126, .F. ) ;
#275 = VECTOR ( 'NONE', #317, 1000.000000000000000 ) ;
#276 = DIRECTION ( 'NONE',  ( 1.000000000000000000, 0.000000000000000000, 0.000000000000000000 ) ) ;
#277 = ORIENTED_EDGE ( 'NONE', *, *, #340, .F. ) ;
#278 = PERSON_AND_ORGANIZATION ( #233, #85 ) ;
#279 = ORIENTED_EDGE ( 'NONE', *, *, #234, .F. ) ;
#280 = DATE_AND_TIME ( #72, #301 ) ;
#281 = LINE ( 'NONE', #17, #45 ) ;
#282 = APPROVAL_ROLE ( '' ) ;
#283 = EDGE_CURVE ( 'NONE', #151, #94, #347, .T. ) ;
#284 = CARTESIAN_POINT ( 'NONE',  ( 0.000000000000000000, 0.000000000000000000, 0.000000000000000000 ) ) ;
#285 = DATE_TIME_ROLE ( 'classification_date' ) ;
#286 = APPROVAL_PERSON_ORGANIZATION ( #43, #179, #158 ) ;
#287 = DIRECTION ( 'NONE',  ( -0.000000000000000000, -0.000000000000000000, -1.000000000000000000 ) ) ;
#288 = CARTESIAN_POINT ( 'NONE',  ( 0.000000000000000000, 0.000000000000000000, 5.000000000000000000 ) ) ;
#289 = DIRECTION ( 'NONE',  ( 1.000000000000000000, 0.000000000000000000, 0.000000000000000000 ) ) ;
#290 = CARTESIAN_POINT ( 'NONE',  ( 0.000000000000000000, 0.000000000000000000, 0.000000000000000000 ) ) ;
#291 = DIRECTION ( 'NONE',  ( 0.000000000000000000, 0.000000000000000000, 1.000000000000000000 ) ) ;
#292 = DIRECTION ( 'NONE',  ( -0.000000000000000000, -0.000000000000000000, -1.000000000000000000 ) ) ;
#293 = ADVANCED_FACE ( 'NONE', ( #184 ), #35, .F. ) ;
#294 = CARTESIAN_POINT ( 'NONE',  ( 0.000000000000000000, 0.000000000000000000, 5.000000000000000000 ) ) ;
#295 = AXIS2_PLACEMENT_3D ( 'NONE', #290, #352, #349 ) ;
#296 = AXIS2_PLACEMENT_3D ( 'NONE', #251, #118, #187 ) ;
#297 = CARTESIAN_POINT ( 'NONE',  ( 7.000000000000000000, 8.572527594031473190E-16, 0.000000000000000000 ) ) ;
#298 =( NAMED_UNIT ( * ) PLANE_ANGLE_UNIT ( ) SI_UNIT ( $, .RADIAN. ) );
#299 = EDGE_LOOP ( 'NONE', ( #190, #300 ) ) ;
#300 = ORIENTED_EDGE ( 'NONE', *, *, #305, .T. ) ;
#301 = LOCAL_TIME ( 17, 27, 16.00000000000000000, #306 ) ;
#302 = DIRECTION ( 'NONE',  ( 1.000000000000000000, 0.000000000000000000, 0.000000000000000000 ) ) ;
#303 = ORIENTED_EDGE ( 'NONE', *, *, #119, .T. ) ;
#304 = CARTESIAN_POINT ( 'NONE',  ( 0.000000000000000000, 0.000000000000000000, 0.000000000000000000 ) ) ;
#305 = EDGE_CURVE ( 'NONE', #315, #161, #120, .T. ) ;
#306 = COORDINATED_UNIVERSAL_TIME_OFFSET ( 1, 0, .AHEAD. ) ;
#307 = ORIENTED_EDGE ( 'NONE', *, *, #308, .F. ) ;
#308 = EDGE_CURVE ( 'NONE', #339, #136, #334, .T. ) ;
#309 = EDGE_LOOP ( 'NONE', ( #279, #12, #217, #186 ) ) ;
#310 = CLOSED_SHELL ( 'NONE', ( #293, #365, #322, #247, #261, #147, #376, #228, #204, #133, #8 ) ) ;
#311 = APPROVAL_ROLE ( '' ) ;
#312 = LINE ( 'NONE', #165, #225 ) ;
#313 = PRODUCT ( '7b08', '7b08', '', ( #92 ) ) ;
#314 = DATE_AND_TIME ( #105, #230 ) ;
#315 = VERTEX_POINT ( 'NONE', #150 ) ;
#316 = PERSON_AND_ORGANIZATION_ROLE ( 'design_owner' ) ;
#317 = DIRECTION ( 'NONE',  ( 0.000000000000000000, 0.000000000000000000, -1.000000000000000000 ) ) ;
#318 = TOROIDAL_SURFACE ( 'NONE', #89, 4.500000000000000888, 0.5000000000000000000 ) ;
#319 = PLANE ( 'NONE',  #48 ) ;
#320 = AXIS2_PLACEMENT_3D ( 'NONE', #265, #292, #205 ) ;
#321 = CARTESIAN_POINT ( 'NONE',  ( 0.000000000000000000, 0.000000000000000000, 305.0000000000000000 ) ) ;
#322 = ADVANCED_FACE ( 'NONE', ( #181 ), #65, .T. ) ;
#323 = CARTESIAN_POINT ( 'NONE',  ( 0.000000000000000000, 0.000000000000000000, 5.500000000000005329 ) ) ;
#324 = CIRCLE ( 'NONE', #155, 2.100000000000000089 ) ;
#325 = CARTESIAN_POINT ( 'NONE',  ( -2.100000000000000089, 0.000000000000000000, 305.0000000000000000 ) ) ;
#326 = FACE_OUTER_BOUND ( 'NONE', #125, .T. ) ;
#327 = AXIS2_PLACEMENT_3D ( 'NONE', #84, #291, #142 ) ;
#328 = CARTESIAN_POINT ( 'NONE',  ( 0.000000000000000000, 0.000000000000000000, 5.500000000000005329 ) ) ;
#329 = ORIENTED_EDGE ( 'NONE', *, *, #242, .T. ) ;
#330 = DIRECTION ( 'NONE',  ( -1.000000000000000000, 1.224646799147351482E-16, 0.000000000000000000 ) ) ;
#331 = CIRCLE ( 'NONE', #99, 2.100000000000000089 ) ;
#332 = DIRECTION ( 'NONE',  ( 0.000000000000000000, 0.000000000000000000, -1.000000000000000000 ) ) ;
#333 = ORIENTED_EDGE ( 'NONE', *, *, #351, .F. ) ;
#334 = CIRCLE ( 'NONE', #341, 0.5000000000000004441 ) ;
#335 = CC_DESIGN_PERSON_AND_ORGANIZATION_ASSIGNMENT ( #226, #316, ( #313 ) ) ;
#336 = ORIENTED_EDGE ( 'NONE', *, *, #191, .F. ) ;
#337 = VERTEX_POINT ( 'NONE', #148 ) ;
#338 = PERSON_AND_ORGANIZATION_ROLE ( 'classification_officer' ) ;
#339 = VERTEX_POINT ( 'NONE', #9 ) ;
#340 = EDGE_CURVE ( 'NONE', #180, #339, #20, .T. ) ;
#341 = AXIS2_PLACEMENT_3D ( 'NONE', #95, #64, #330 ) ;
#342 = EDGE_LOOP ( 'NONE', ( #76, #333 ) ) ;
#343 = COORDINATED_UNIVERSAL_TIME_OFFSET ( 1, 0, .AHEAD. ) ;
#344 = FACE_OUTER_BOUND ( 'NONE', #61, .T. ) ;
#345 = CIRCLE ( 'NONE', #235, 7.000000000000000000 ) ;
#346 = DIRECTION ( 'NONE',  ( -0.000000000000000000, -0.000000000000000000, -1.000000000000000000 ) ) ;
#347 = CIRCLE ( 'NONE', #115, 4.000000000000000000 ) ;
#348 = LINE ( 'NONE', #102, #275 ) ;
#349 = DIRECTION ( 'NONE',  ( 1.000000000000000000, 0.000000000000000000, 0.000000000000000000 ) ) ;
#350 = CARTESIAN_POINT ( 'NONE',  ( 2.100000000000000089, 2.571758278209441957E-16, 0.000000000000000000 ) ) ;
#351 = EDGE_CURVE ( 'NONE', #224, #232, #167, .T. ) ;
#352 = DIRECTION ( 'NONE',  ( 0.000000000000000000, 0.000000000000000000, 1.000000000000000000 ) ) ;
#353 = CC_DESIGN_SECURITY_CLASSIFICATION ( #41, ( #13 ) ) ;
#354 = CARTESIAN_POINT ( 'NONE',  ( 0.000000000000000000, 0.000000000000000000, 5.000000000000000000 ) ) ;
#355 = CIRCLE ( 'NONE', #188, 0.5000000000000004441 ) ;
#356 = DIRECTION ( 'NONE',  ( 0.000000000000000000, -1.000000000000000000, 0.000000000000000000 ) ) ;
#357 = DIRECTION ( 'NONE',  ( 0.000000000000000000, 0.000000000000000000, 1.000000000000000000 ) ) ;
#358 = CC_DESIGN_PERSON_AND_ORGANIZATION_ASSIGNMENT ( #278, #18, ( #104 ) ) ;
#359 = AXIS2_PLACEMENT_3D ( 'NONE', #38, #121, #39 ) ;
#360 = CARTESIAN_POINT ( 'NONE',  ( 0.000000000000000000, 0.000000000000000000, 5.500000000000005329 ) ) ;
#361 = CC_DESIGN_PERSON_AND_ORGANIZATION_ASSIGNMENT ( #364, #46, ( #13 ) ) ;
#362 = ORIENTED_EDGE ( 'NONE', *, *, #23, .T. ) ;
#363 = CARTESIAN_POINT ( 'NONE',  ( 0.000000000000000000, 0.000000000000000000, 305.0000000000000000 ) ) ;
#364 = PERSON_AND_ORGANIZATION ( #233, #85 ) ;
#365 = ADVANCED_FACE ( 'NONE', ( #152 ), #206, .F. ) ;
#366 = APPROVAL_DATE_TIME ( #280, #185 ) ;
#367 = ORIENTED_EDGE ( 'NONE', *, *, #172, .T. ) ;
#368 = EDGE_LOOP ( 'NONE', ( #257, #329 ) ) ;
#369 = SHAPE_DEFINITION_REPRESENTATION ( #197, #182 ) ;
#370 = CARTESIAN_POINT ( 'NONE',  ( 2.100000000000000089, 2.571758278209441957E-16, 305.0000000000000000 ) ) ;
#371 = CC_DESIGN_PERSON_AND_ORGANIZATION_ASSIGNMENT ( #168, #21, ( #13 ) ) ;
#372 = CARTESIAN_POINT ( 'NONE',  ( -4.000000000000000000, 0.000000000000000000, 305.0000000000000000 ) ) ;
#373 = AXIS2_PLACEMENT_3D ( 'NONE', #363, #332, #68 ) ;
#374 = DIRECTION ( 'NONE',  ( 1.000000000000000000, 0.000000000000000000, 0.000000000000000000 ) ) ;
#375 = CARTESIAN_POINT ( 'NONE',  ( 0.000000000000000000, 0.000000000000000000, 5.000000000000000000 ) ) ;
#376 = ADVANCED_FACE ( 'NONE', ( #270, #34 ), #189, .F. ) ;
#377 = CIRCLE ( 'NONE', #218, 7.000000000000000000 ) ;
#378 = DIRECTION ( 'NONE',  ( 1.000000000000000000, 0.000000000000000000, 0.000000000000000000 ) ) ;
#379 = DIRECTION ( 'NONE',  ( 0.000000000000000000, 0.000000000000000000, -1.000000000000000000 ) ) ;
#380 = LOCAL_TIME ( 17, 27, 16.00000000000000000, #343 ) ;
#381 = CARTESIAN_POINT ( 'NONE',  ( 4.000000000000000000, 4.898587196589412829E-16, 305.0000000000000000 ) ) ;
ENDSEC;
END-ISO-10303-21;
