ISO-10303-21;
HEADER;
FILE_DESCRIPTION (( 'STEP AP203' ),
    '1' );
FILE_NAME ('2e07.STEP',
    '2022-07-08T14:56:35',
    ( '' ),
    ( '' ),
    'SwSTEP 2.0',
    'SolidWorks 2019',
    '' );
FILE_SCHEMA (( 'CONFIG_CONTROL_DESIGN' ));
ENDSEC;

DATA;
#1 = DIRECTION ( 'NONE',  ( 1.000000000000000000, 0.000000000000000000, 0.000000000000000000 ) ) ;
#2 = DIRECTION ( 'NONE',  ( 1.000000000000000000, 0.000000000000000000, 0.000000000000000000 ) ) ;
#3 = CARTESIAN_POINT ( 'NONE',  ( -3.000000000000000444, 0.000000000000000000, 0.000000000000000000 ) ) ;
#4 = TOROIDAL_SURFACE ( 'NONE', #144, 5.500000000000000000, 0.5000000000000000000 ) ;
#5 = VERTEX_POINT ( 'NONE', #79 ) ;
#6 = EDGE_CURVE ( 'NONE', #212, #279, #186, .T. ) ;
#7 = CARTESIAN_POINT ( 'NONE',  ( 3.000000000000000444, 3.673940397442060361E-16, 0.000000000000000000 ) ) ;
#8 = ORIENTED_EDGE ( 'NONE', *, *, #227, .F. ) ;
#9 = DIRECTION ( 'NONE',  ( 1.000000000000000000, 0.000000000000000000, 0.000000000000000000 ) ) ;
#10 = EDGE_LOOP ( 'NONE', ( #122, #128, #217, #83 ) ) ;
#11 = DIRECTION ( 'NONE',  ( 1.000000000000000000, 0.000000000000000000, 0.000000000000000000 ) ) ;
#12 = CC_DESIGN_APPROVAL ( #189, ( #176 ) ) ;
#13 = DIRECTION ( 'NONE',  ( -0.000000000000000000, -0.000000000000000000, -1.000000000000000000 ) ) ;
#14 = VERTEX_POINT ( 'NONE', #197 ) ;
#15 = DIRECTION ( 'NONE',  ( 0.000000000000000000, 0.000000000000000000, 1.000000000000000000 ) ) ;
#16 = CYLINDRICAL_SURFACE ( 'NONE', #219, 8.000000000000000000 ) ;
#17 = AXIS2_PLACEMENT_3D ( 'NONE', #354, #62, #321 ) ;
#18 = ADVANCED_FACE ( 'NONE', ( #169 ), #284, .T. ) ;
#19 = DIRECTION ( 'NONE',  ( -1.000000000000000000, 1.224646799147351482E-16, 0.000000000000000000 ) ) ;
#20 = DATE_AND_TIME ( #104, #337 ) ;
#21 = DIRECTION ( 'NONE',  ( 0.000000000000000000, 0.000000000000000000, 1.000000000000000000 ) ) ;
#22 = ORIENTED_EDGE ( 'NONE', *, *, #61, .F. ) ;
#23 = ADVANCED_FACE ( 'NONE', ( #171, #256 ), #140, .F. ) ;
#24 = TOROIDAL_SURFACE ( 'NONE', #64, 5.500000000000000000, 0.5000000000000000000 ) ;
#25 = PERSON_AND_ORGANIZATION_ROLE ( 'design_supplier' ) ;
#26 = CARTESIAN_POINT ( 'NONE',  ( 0.000000000000000000, 0.000000000000000000, 505.0000000000000000 ) ) ;
#27 = DIRECTION ( 'NONE',  ( 0.000000000000000000, 0.000000000000000000, -1.000000000000000000 ) ) ;
#28 = CARTESIAN_POINT ( 'NONE',  ( -3.000000000000000444, 0.000000000000000000, 505.0000000000000000 ) ) ;
#29 = AXIS2_PLACEMENT_3D ( 'NONE', #60, #296, #32 ) ;
#30 = DIRECTION ( 'NONE',  ( 1.000000000000000000, 0.000000000000000000, 0.000000000000000000 ) ) ;
#31 = PRODUCT_DEFINITION_SHAPE ( 'NONE', 'NONE',  #176 ) ;
#32 = DIRECTION ( 'NONE',  ( 1.000000000000000000, 0.000000000000000000, 0.000000000000000000 ) ) ;
#33 = EDGE_CURVE ( 'NONE', #244, #5, #322, .T. ) ;
#34 = EDGE_LOOP ( 'NONE', ( #133, #152 ) ) ;
#35 = APPROVAL_PERSON_ORGANIZATION ( #195, #189, #342 ) ;
#36 = CARTESIAN_POINT ( 'NONE',  ( 0.000000000000000000, 0.000000000000000000, 5.000000000000000000 ) ) ;
#37 = ADVANCED_FACE ( 'NONE', ( #81 ), #289, .T. ) ;
#38 = CARTESIAN_POINT ( 'NONE',  ( 5.000000000000000000, 6.123233995736766282E-16, 505.0000000000000000 ) ) ;
#39 = DIRECTION ( 'NONE',  ( 0.000000000000000000, 0.000000000000000000, 1.000000000000000000 ) ) ;
#40 = VERTEX_POINT ( 'NONE', #141 ) ;
#41 = AXIS2_PLACEMENT_3D ( 'NONE', #243, #39, #11 ) ;
#42 = LINE ( 'NONE', #125, #46 ) ;
#43 = ORIENTED_EDGE ( 'NONE', *, *, #6, .T. ) ;
#44 = ADVANCED_FACE ( 'NONE', ( #290 ), #261, .F. ) ;
#45 = ORIENTED_EDGE ( 'NONE', *, *, #280, .F. ) ;
#46 = VECTOR ( 'NONE', #250, 1000.000000000000000 ) ;
#47 = DATE_TIME_ROLE ( 'creation_date' ) ;
#48 = PERSON_AND_ORGANIZATION ( #381, #226 ) ;
#49 = CC_DESIGN_PERSON_AND_ORGANIZATION_ASSIGNMENT ( #194, #228, ( #166 ) ) ;
#50 = ORIENTED_EDGE ( 'NONE', *, *, #270, .F. ) ;
#51 = PERSON_AND_ORGANIZATION ( #381, #226 ) ;
#52 = VECTOR ( 'NONE', #55, 1000.000000000000000 ) ;
#53 = CIRCLE ( 'NONE', #264, 5.000000000000000000 ) ;
#54 = APPROVAL_DATE_TIME ( #345, #306 ) ;
#55 = DIRECTION ( 'NONE',  ( -0.000000000000000000, -0.000000000000000000, -1.000000000000000000 ) ) ;
#56 = CARTESIAN_POINT ( 'NONE',  ( 0.000000000000000000, 0.000000000000000000, 5.000000000000000000 ) ) ;
#57 = AXIS2_PLACEMENT_3D ( 'NONE', #262, #174, #107 ) ;
#58 = APPROVAL_PERSON_ORGANIZATION ( #167, #88, #285 ) ;
#59 = CARTESIAN_POINT ( 'NONE',  ( -5.000000000000000000, 0.000000000000000000, 505.0000000000000000 ) ) ;
#60 = CARTESIAN_POINT ( 'NONE',  ( 0.000000000000000000, 0.000000000000000000, 5.500000000000005329 ) ) ;
#61 = EDGE_CURVE ( 'NONE', #244, #364, #373, .T. ) ;
#62 = DIRECTION ( 'NONE',  ( 0.000000000000000000, 0.000000000000000000, 1.000000000000000000 ) ) ;
#63 = ORIENTED_EDGE ( 'NONE', *, *, #106, .T. ) ;
#64 = AXIS2_PLACEMENT_3D ( 'NONE', #269, #120, #326 ) ;
#65 = DIRECTION ( 'NONE',  ( -0.000000000000000000, -0.000000000000000000, -1.000000000000000000 ) ) ;
#66 = EDGE_LOOP ( 'NONE', ( #69, #361, #309, #220 ) ) ;
#67 =( NAMED_UNIT ( * ) PLANE_ANGLE_UNIT ( ) SI_UNIT ( $, .RADIAN. ) );
#68 = ORIENTED_EDGE ( 'NONE', *, *, #227, .T. ) ;
#69 = ORIENTED_EDGE ( 'NONE', *, *, #33, .F. ) ;
#70 = AXIS2_PLACEMENT_3D ( 'NONE', #240, #292, #266 ) ;
#71 = CARTESIAN_POINT ( 'NONE',  ( -8.000000000000000000, 0.000000000000000000, 5.000000000000000000 ) ) ;
#72 = EDGE_CURVE ( 'NONE', #328, #5, #310, .T. ) ;
#73 = APPROVAL_ROLE ( '' ) ;
#74 = EDGE_LOOP ( 'NONE', ( #184, #156 ) ) ;
#75 = APPLICATION_PROTOCOL_DEFINITION ( 'international standard', 'config_control_design', 1994, #198 ) ;
#76 = CLOSED_SHELL ( 'NONE', ( #96, #129, #37, #18, #267, #317, #23, #213, #208, #101, #44 ) ) ;
#77 = CC_DESIGN_PERSON_AND_ORGANIZATION_ASSIGNMENT ( #314, #377, ( #374 ) ) ;
#78 = SHAPE_DEFINITION_REPRESENTATION ( #31, #281 ) ;
#79 = CARTESIAN_POINT ( 'NONE',  ( -5.500000000000000000, 6.735557395310442023E-16, 5.000000000000002665 ) ) ;
#80 = PERSON_AND_ORGANIZATION_ROLE ( 'design_owner' ) ;
#81 = FACE_OUTER_BOUND ( 'NONE', #332, .T. ) ;
#82 = APPROVAL_STATUS ( 'not_yet_approved' ) ;
#83 = ORIENTED_EDGE ( 'NONE', *, *, #352, .T. ) ;
#84 = VECTOR ( 'NONE', #143, 1000.000000000000000 ) ;
#85 = AXIS2_PLACEMENT_3D ( 'NONE', #162, #98, #331 ) ;
#86 = CARTESIAN_POINT ( 'NONE',  ( 0.000000000000000000, 0.000000000000000000, 5.500000000000005329 ) ) ;
#87 = CARTESIAN_POINT ( 'NONE',  ( 5.500000000000000000, 0.000000000000000000, 5.500000000000005329 ) ) ;
#88 = APPROVAL ( #316, 'NEURÈENÝ' ) ;
#89 = CIRCLE ( 'NONE', #237, 3.000000000000000444 ) ;
#90 =( GEOMETRIC_REPRESENTATION_CONTEXT ( 3 ) GLOBAL_UNCERTAINTY_ASSIGNED_CONTEXT ( ( #313 ) ) GLOBAL_UNIT_ASSIGNED_CONTEXT ( ( #127, #67, #124 ) ) REPRESENTATION_CONTEXT ( 'NONE', 'WORKASPACE' ) );
#91 = CYLINDRICAL_SURFACE ( 'NONE', #70, 5.000000000000000000 ) ;
#92 = ORIENTED_EDGE ( 'NONE', *, *, #72, .T. ) ;
#93 = DIRECTION ( 'NONE',  ( 0.000000000000000000, 0.000000000000000000, 1.000000000000000000 ) ) ;
#94 = FACE_OUTER_BOUND ( 'NONE', #252, .T. ) ;
#95 = ORIENTED_EDGE ( 'NONE', *, *, #291, .F. ) ;
#96 = ADVANCED_FACE ( 'NONE', ( #357 ), #117, .F. ) ;
#97 = ORIENTED_EDGE ( 'NONE', *, *, #185, .T. ) ;
#98 = DIRECTION ( 'NONE',  ( 0.000000000000000000, 0.000000000000000000, 1.000000000000000000 ) ) ;
#99 = CARTESIAN_POINT ( 'NONE',  ( 0.000000000000000000, 0.000000000000000000, 5.000000000000000000 ) ) ;
#100 = ORIENTED_EDGE ( 'NONE', *, *, #142, .T. ) ;
#101 = ADVANCED_FACE ( 'NONE', ( #298 ), #4, .F. ) ;
#102 = DIRECTION ( 'NONE',  ( -0.000000000000000000, -0.000000000000000000, -1.000000000000000000 ) ) ;
#103 = AXIS2_PLACEMENT_3D ( 'NONE', #315, #347, #19 ) ;
#104 = CALENDAR_DATE ( 2022, 8, 7 ) ;
#105 = CARTESIAN_POINT ( 'NONE',  ( 0.000000000000000000, 0.000000000000000000, 5.500000000000005329 ) ) ;
#106 = EDGE_CURVE ( 'NONE', #364, #244, #191, .T. ) ;
#107 = DIRECTION ( 'NONE',  ( 1.000000000000000000, 0.000000000000000000, 0.000000000000000000 ) ) ;
#108 = AXIS2_PLACEMENT_3D ( 'NONE', #87, #148, #205 ) ;
#109 = CIRCLE ( 'NONE', #251, 3.000000000000000444 ) ;
#110 = COORDINATED_UNIVERSAL_TIME_OFFSET ( 1, 0, .AHEAD. ) ;
#111 = DIRECTION ( 'NONE',  ( 0.000000000000000000, 0.000000000000000000, 1.000000000000000000 ) ) ;
#112 = CALENDAR_DATE ( 2022, 8, 7 ) ;
#113 = CARTESIAN_POINT ( 'NONE',  ( 0.000000000000000000, 0.000000000000000000, 505.0000000000000000 ) ) ;
#114 = CC_DESIGN_PERSON_AND_ORGANIZATION_ASSIGNMENT ( #163, #80, ( #378 ) ) ;
#115 = AXIS2_PLACEMENT_3D ( 'NONE', #146, #233, #235 ) ;
#116 = AXIS2_PLACEMENT_3D ( 'NONE', #26, #202, #254 ) ;
#117 = CYLINDRICAL_SURFACE ( 'NONE', #157, 3.000000000000000444 ) ;
#118 = DIRECTION ( 'NONE',  ( 0.000000000000000000, 0.000000000000000000, 1.000000000000000000 ) ) ;
#119 = MANIFOLD_SOLID_BREP ( 'Odebrat vysunutím3', #76 ) ;
#120 = DIRECTION ( 'NONE',  ( 0.000000000000000000, 0.000000000000000000, 1.000000000000000000 ) ) ;
#121 = DIRECTION ( 'NONE',  ( 1.000000000000000000, 0.000000000000000000, 0.000000000000000000 ) ) ;
#122 = ORIENTED_EDGE ( 'NONE', *, *, #376, .F. ) ;
#123 = EDGE_LOOP ( 'NONE', ( #305, #248, #68, #131 ) ) ;
#124 =( NAMED_UNIT ( * ) SI_UNIT ( $, .STERADIAN. ) SOLID_ANGLE_UNIT ( ) );
#125 = CARTESIAN_POINT ( 'NONE',  ( -5.000000000000000000, 0.000000000000000000, 505.0000000000000000 ) ) ;
#126 = CIRCLE ( 'NONE', #295, 8.000000000000000000 ) ;
#127 =( LENGTH_UNIT ( ) NAMED_UNIT ( * ) SI_UNIT ( .MILLI., .METRE. ) );
#128 = ORIENTED_EDGE ( 'NONE', *, *, #349, .T. ) ;
#129 = ADVANCED_FACE ( 'NONE', ( #297 ), #24, .F. ) ;
#130 = CARTESIAN_POINT ( 'NONE',  ( 5.000000000000000000, 6.123233995736766282E-16, 5.500000000000005329 ) ) ;
#131 = ORIENTED_EDGE ( 'NONE', *, *, #172, .T. ) ;
#132 = CARTESIAN_POINT ( 'NONE',  ( 5.500000000000000000, 0.000000000000000000, 5.000000000000002665 ) ) ;
#133 = ORIENTED_EDGE ( 'NONE', *, *, #352, .F. ) ;
#134 = AXIS2_PLACEMENT_3D ( 'NONE', #138, #379, #312 ) ;
#135 = AXIS2_PLACEMENT_3D ( 'NONE', #241, #278, #335 ) ;
#136 = APPROVAL_STATUS ( 'not_yet_approved' ) ;
#137 = SECURITY_CLASSIFICATION_LEVEL ( 'unclassified' ) ;
#138 = CARTESIAN_POINT ( 'NONE',  ( 0.000000000000000000, 0.000000000000000000, 5.000000000000000000 ) ) ;
#139 = CARTESIAN_POINT ( 'NONE',  ( 0.000000000000000000, 0.000000000000000000, 0.000000000000000000 ) ) ;
#140 = PLANE ( 'NONE',  #294 ) ;
#141 = CARTESIAN_POINT ( 'NONE',  ( 8.000000000000000000, 9.797174393178825657E-16, 0.000000000000000000 ) ) ;
#142 = EDGE_CURVE ( 'NONE', #223, #193, #89, .T. ) ;
#143 = DIRECTION ( 'NONE',  ( 0.000000000000000000, 0.000000000000000000, -1.000000000000000000 ) ) ;
#144 = AXIS2_PLACEMENT_3D ( 'NONE', #86, #181, #1 ) ;
#145 = CIRCLE ( 'NONE', #135, 3.000000000000000444 ) ;
#146 = CARTESIAN_POINT ( 'NONE',  ( 0.000000000000000000, 0.000000000000000000, 0.000000000000000000 ) ) ;
#147 = CC_DESIGN_PERSON_AND_ORGANIZATION_ASSIGNMENT ( #51, #222, ( #176 ) ) ;
#148 = DIRECTION ( 'NONE',  ( 0.000000000000000000, -1.000000000000000000, 0.000000000000000000 ) ) ;
#149 = FACE_BOUND ( 'NONE', #366, .T. ) ;
#150 = AXIS2_PLACEMENT_3D ( 'NONE', #139, #21, #369 ) ;
#151 = CARTESIAN_POINT ( 'NONE',  ( 0.000000000000000000, 0.000000000000000000, 5.000000000000000000 ) ) ;
#152 = ORIENTED_EDGE ( 'NONE', *, *, #142, .F. ) ;
#153 = CC_DESIGN_DATE_AND_TIME_ASSIGNMENT ( #288, #47, ( #176 ) ) ;
#154 = CARTESIAN_POINT ( 'NONE',  ( 0.000000000000000000, 0.000000000000000000, 0.000000000000000000 ) ) ;
#155 = PLANE ( 'NONE',  #323 ) ;
#156 = ORIENTED_EDGE ( 'NONE', *, *, #291, .T. ) ;
#157 = AXIS2_PLACEMENT_3D ( 'NONE', #293, #319, #350 ) ;
#158 = DIRECTION ( 'NONE',  ( 0.000000000000000000, 0.000000000000000000, 1.000000000000000000 ) ) ;
#159 = LOCAL_TIME ( 16, 56, 35.00000000000000000, #260 ) ;
#160 = EDGE_CURVE ( 'NONE', #343, #325, #303, .T. ) ;
#161 = ORIENTED_EDGE ( 'NONE', *, *, #33, .T. ) ;
#162 = CARTESIAN_POINT ( 'NONE',  ( 0.000000000000000000, 0.000000000000000000, 5.000000000000000000 ) ) ;
#163 = PERSON_AND_ORGANIZATION ( #381, #226 ) ;
#164 = VECTOR ( 'NONE', #13, 1000.000000000000000 ) ;
#165 = APPROVAL_PERSON_ORGANIZATION ( #348, #306, #73 ) ;
#166 = SECURITY_CLASSIFICATION ( '', '', #137 ) ;
#167 = PERSON_AND_ORGANIZATION ( #381, #226 ) ;
#168 = ORIENTED_EDGE ( 'NONE', *, *, #280, .T. ) ;
#169 = FACE_OUTER_BOUND ( 'NONE', #234, .T. ) ;
#170 = COORDINATED_UNIVERSAL_TIME_OFFSET ( 1, 0, .AHEAD. ) ;
#171 = FACE_BOUND ( 'NONE', #34, .T. ) ;
#172 = EDGE_CURVE ( 'NONE', #14, #40, #355, .T. ) ;
#173 = AXIS2_PLACEMENT_3D ( 'NONE', #151, #380, #2 ) ;
#174 = DIRECTION ( 'NONE',  ( 0.000000000000000000, 0.000000000000000000, 1.000000000000000000 ) ) ;
#175 = LINE ( 'NONE', #28, #84 ) ;
#176 = PRODUCT_DEFINITION ( 'NEZNÁMÝ', '', #374, #299 ) ;
#177 = VERTEX_POINT ( 'NONE', #236 ) ;
#178 = AXIS2_PLACEMENT_3D ( 'NONE', #56, #118, #30 ) ;
#179 = VECTOR ( 'NONE', #360, 1000.000000000000000 ) ;
#180 = APPLICATION_CONTEXT ( 'configuration controlled 3d designs of mechanical parts and assemblies' ) ;
#181 = DIRECTION ( 'NONE',  ( 0.000000000000000000, 0.000000000000000000, 1.000000000000000000 ) ) ;
#182 = CARTESIAN_POINT ( 'NONE',  ( 5.000000000000000000, 6.123233995736766282E-16, 505.0000000000000000 ) ) ;
#183 = FACE_OUTER_BOUND ( 'NONE', #333, .T. ) ;
#184 = ORIENTED_EDGE ( 'NONE', *, *, #160, .T. ) ;
#185 = EDGE_CURVE ( 'NONE', #279, #364, #265, .T. ) ;
#186 = CIRCLE ( 'NONE', #57, 5.000000000000000000 ) ;
#187 = APPLICATION_PROTOCOL_DEFINITION ( 'international standard', 'config_control_design', 1994, #180 ) ;
#188 = LINE ( 'NONE', #301, #179 ) ;
#189 = APPROVAL ( #136, 'NEURÈENÝ' ) ;
#190 = DIRECTION ( 'NONE',  ( 1.000000000000000000, 0.000000000000000000, 0.000000000000000000 ) ) ;
#191 = CIRCLE ( 'NONE', #29, 5.000000000000000000 ) ;
#192 = CARTESIAN_POINT ( 'NONE',  ( 0.000000000000000000, 0.000000000000000000, 5.000000000000000000 ) ) ;
#193 = VERTEX_POINT ( 'NONE', #3 ) ;
#194 = PERSON_AND_ORGANIZATION ( #381, #226 ) ;
#195 = PERSON_AND_ORGANIZATION ( #381, #226 ) ;
#196 = ORIENTED_EDGE ( 'NONE', *, *, #185, .F. ) ;
#197 = CARTESIAN_POINT ( 'NONE',  ( -8.000000000000000000, 0.000000000000000000, 0.000000000000000000 ) ) ;
#198 = APPLICATION_CONTEXT ( 'configuration controlled 3d designs of mechanical parts and assemblies' ) ;
#199 = CALENDAR_DATE ( 2022, 8, 7 ) ;
#200 = EDGE_CURVE ( 'NONE', #364, #328, #225, .T. ) ;
#201 = DATE_AND_TIME ( #199, #356 ) ;
#202 = DIRECTION ( 'NONE',  ( -0.000000000000000000, -0.000000000000000000, -1.000000000000000000 ) ) ;
#203 = VECTOR ( 'NONE', #353, 1000.000000000000000 ) ;
#204 = ORIENTED_EDGE ( 'NONE', *, *, #286, .T. ) ;
#205 = DIRECTION ( 'NONE',  ( 0.000000000000000000, 0.000000000000000000, -1.000000000000000000 ) ) ;
#206 = CARTESIAN_POINT ( 'NONE',  ( 0.000000000000000000, 0.000000000000000000, 0.000000000000000000 ) ) ;
#207 = DIRECTION ( 'NONE',  ( -0.000000000000000000, -0.000000000000000000, -1.000000000000000000 ) ) ;
#208 = ADVANCED_FACE ( 'NONE', ( #149, #94 ), #209, .T. ) ;
#209 = PLANE ( 'NONE',  #17 ) ;
#210 = ORIENTED_EDGE ( 'NONE', *, *, #286, .F. ) ;
#211 = AXIS2_PLACEMENT_3D ( 'NONE', #192, #247, #271 ) ;
#212 = VERTEX_POINT ( 'NONE', #59 ) ;
#213 = ADVANCED_FACE ( 'NONE', ( #183 ), #91, .T. ) ;
#214 = FACE_OUTER_BOUND ( 'NONE', #74, .T. ) ;
#215 = ORIENTED_EDGE ( 'NONE', *, *, #257, .T. ) ;
#216 = DIRECTION ( 'NONE',  ( 1.000000000000000000, 0.000000000000000000, 0.000000000000000000 ) ) ;
#217 = ORIENTED_EDGE ( 'NONE', *, *, #239, .T. ) ;
#218 = FACE_OUTER_BOUND ( 'NONE', #123, .T. ) ;
#219 = AXIS2_PLACEMENT_3D ( 'NONE', #36, #102, #245 ) ;
#220 = ORIENTED_EDGE ( 'NONE', *, *, #249, .F. ) ;
#221 = EDGE_LOOP ( 'NONE', ( #168, #339, #100, #340 ) ) ;
#222 = PERSON_AND_ORGANIZATION_ROLE ( 'creator' ) ;
#223 = VERTEX_POINT ( 'NONE', #7 ) ;
#224 = CALENDAR_DATE ( 2022, 8, 7 ) ;
#225 = CIRCLE ( 'NONE', #108, 0.5000000000000004441 ) ;
#226 = ORGANIZATION ( 'NEURÈENÝ', 'NEURÈENÝ', '' ) ;
#227 = EDGE_CURVE ( 'NONE', #343, #14, #324, .T. ) ;
#228 = PERSON_AND_ORGANIZATION_ROLE ( 'classification_officer' ) ;
#229 = DIRECTION ( 'NONE',  ( 1.000000000000000000, 0.000000000000000000, -0.000000000000000000 ) ) ;
#230 = DATE_AND_TIME ( #112, #367 ) ;
#231 = EDGE_LOOP ( 'NONE', ( #92, #368 ) ) ;
#232 = AXIS2_PLACEMENT_3D ( 'NONE', #113, #27, #370 ) ;
#233 = DIRECTION ( 'NONE',  ( 0.000000000000000000, 0.000000000000000000, 1.000000000000000000 ) ) ;
#234 = EDGE_LOOP ( 'NONE', ( #95, #215, #204, #8 ) ) ;
#235 = DIRECTION ( 'NONE',  ( 1.000000000000000000, 0.000000000000000000, 0.000000000000000000 ) ) ;
#236 = CARTESIAN_POINT ( 'NONE',  ( -3.000000000000000444, 0.000000000000000000, 505.0000000000000000 ) ) ;
#237 = AXIS2_PLACEMENT_3D ( 'NONE', #206, #207, #121 ) ;
#238 = CIRCLE ( 'NONE', #41, 3.000000000000000444 ) ;
#239 = EDGE_CURVE ( 'NONE', #177, #193, #175, .T. ) ;
#240 = CARTESIAN_POINT ( 'NONE',  ( 0.000000000000000000, 0.000000000000000000, 505.0000000000000000 ) ) ;
#241 = CARTESIAN_POINT ( 'NONE',  ( 0.000000000000000000, 0.000000000000000000, 505.0000000000000000 ) ) ;
#242 = EDGE_LOOP ( 'NONE', ( #22, #161, #336, #308 ) ) ;
#243 = CARTESIAN_POINT ( 'NONE',  ( 0.000000000000000000, 0.000000000000000000, 505.0000000000000000 ) ) ;
#244 = VERTEX_POINT ( 'NONE', #263 ) ;
#245 = DIRECTION ( 'NONE',  ( -1.000000000000000000, 0.000000000000000000, 0.000000000000000000 ) ) ;
#246 = ORIENTED_EDGE ( 'NONE', *, *, #6, .F. ) ;
#247 = DIRECTION ( 'NONE',  ( -0.000000000000000000, -0.000000000000000000, -1.000000000000000000 ) ) ;
#248 = ORIENTED_EDGE ( 'NONE', *, *, #160, .F. ) ;
#249 = EDGE_CURVE ( 'NONE', #5, #328, #329, .T. ) ;
#250 = DIRECTION ( 'NONE',  ( -0.000000000000000000, -0.000000000000000000, -1.000000000000000000 ) ) ;
#251 = AXIS2_PLACEMENT_3D ( 'NONE', #154, #65, #216 ) ;
#252 = EDGE_LOOP ( 'NONE', ( #43, #351 ) ) ;
#253 = APPROVAL_DATE_TIME ( #201, #189 ) ;
#254 = DIRECTION ( 'NONE',  ( -1.000000000000000000, 0.000000000000000000, 0.000000000000000000 ) ) ;
#255 = DATE_TIME_ROLE ( 'classification_date' ) ;
#256 = FACE_OUTER_BOUND ( 'NONE', #272, .T. ) ;
#257 = EDGE_CURVE ( 'NONE', #325, #40, #276, .T. ) ;
#258 = COORDINATED_UNIVERSAL_TIME_OFFSET ( 1, 0, .AHEAD. ) ;
#259 = CARTESIAN_POINT ( 'NONE',  ( 0.000000000000000000, 0.000000000000000000, 0.000000000000000000 ) ) ;
#260 = COORDINATED_UNIVERSAL_TIME_OFFSET ( 1, 0, .AHEAD. ) ;
#261 = CYLINDRICAL_SURFACE ( 'NONE', #232, 3.000000000000000444 ) ;
#262 = CARTESIAN_POINT ( 'NONE',  ( 0.000000000000000000, 0.000000000000000000, 505.0000000000000000 ) ) ;
#263 = CARTESIAN_POINT ( 'NONE',  ( -5.000000000000000000, 0.000000000000000000, 5.500000000000005329 ) ) ;
#264 = AXIS2_PLACEMENT_3D ( 'NONE', #338, #15, #190 ) ;
#265 = LINE ( 'NONE', #182, #203 ) ;
#266 = DIRECTION ( 'NONE',  ( -1.000000000000000000, 0.000000000000000000, 0.000000000000000000 ) ) ;
#267 = ADVANCED_FACE ( 'NONE', ( #218 ), #16, .T. ) ;
#268 = DIRECTION ( 'NONE',  ( 1.000000000000000000, 0.000000000000000000, 0.000000000000000000 ) ) ;
#269 = CARTESIAN_POINT ( 'NONE',  ( 0.000000000000000000, 0.000000000000000000, 5.500000000000005329 ) ) ;
#270 = EDGE_CURVE ( 'NONE', #212, #244, #42, .T. ) ;
#271 = DIRECTION ( 'NONE',  ( 1.000000000000000000, 0.000000000000000000, 0.000000000000000000 ) ) ;
#272 = EDGE_LOOP ( 'NONE', ( #327, #210 ) ) ;
#273 = CARTESIAN_POINT ( 'NONE',  ( 3.000000000000000444, 3.673940397442060361E-16, 505.0000000000000000 ) ) ;
#274 = AXIS2_PLACEMENT_3D ( 'NONE', #105, #93, #268 ) ;
#275 = CC_DESIGN_APPROVAL ( #306, ( #166 ) ) ;
#276 = LINE ( 'NONE', #365, #164 ) ;
#277 = ORIENTED_EDGE ( 'NONE', *, *, #61, .T. ) ;
#278 = DIRECTION ( 'NONE',  ( 0.000000000000000000, 0.000000000000000000, 1.000000000000000000 ) ) ;
#279 = VERTEX_POINT ( 'NONE', #38 ) ;
#280 = EDGE_CURVE ( 'NONE', #177, #372, #238, .T. ) ;
#281 = ADVANCED_BREP_SHAPE_REPRESENTATION ( '2e07', ( #119, #150 ), #90 ) ;
#282 = FACE_BOUND ( 'NONE', #231, .T. ) ;
#283 = ORIENTED_EDGE ( 'NONE', *, *, #320, .F. ) ;
#284 = CYLINDRICAL_SURFACE ( 'NONE', #134, 8.000000000000000000 ) ;
#285 = APPROVAL_ROLE ( '' ) ;
#286 = EDGE_CURVE ( 'NONE', #40, #14, #126, .T. ) ;
#287 = ORIENTED_EDGE ( 'NONE', *, *, #270, .T. ) ;
#288 = DATE_AND_TIME ( #311, #159 ) ;
#289 = CYLINDRICAL_SURFACE ( 'NONE', #116, 5.000000000000000000 ) ;
#290 = FACE_OUTER_BOUND ( 'NONE', #10, .T. ) ;
#291 = EDGE_CURVE ( 'NONE', #325, #343, #344, .T. ) ;
#292 = DIRECTION ( 'NONE',  ( -0.000000000000000000, -0.000000000000000000, -1.000000000000000000 ) ) ;
#293 = CARTESIAN_POINT ( 'NONE',  ( 0.000000000000000000, 0.000000000000000000, 505.0000000000000000 ) ) ;
#294 = AXIS2_PLACEMENT_3D ( 'NONE', #259, #111, #229 ) ;
#295 = AXIS2_PLACEMENT_3D ( 'NONE', #363, #307, #9 ) ;
#296 = DIRECTION ( 'NONE',  ( 0.000000000000000000, 0.000000000000000000, 1.000000000000000000 ) ) ;
#297 = FACE_OUTER_BOUND ( 'NONE', #242, .T. ) ;
#298 = FACE_OUTER_BOUND ( 'NONE', #66, .T. ) ;
#299 = DESIGN_CONTEXT ( 'detailed design', #198, 'design' ) ;
#300 = CC_DESIGN_SECURITY_CLASSIFICATION ( #166, ( #374 ) ) ;
#301 = CARTESIAN_POINT ( 'NONE',  ( 3.000000000000000444, 3.673940397442060361E-16, 505.0000000000000000 ) ) ;
#302 = DIRECTION ( 'NONE',  ( 1.000000000000000000, 0.000000000000000000, -0.000000000000000000 ) ) ;
#303 = CIRCLE ( 'NONE', #178, 8.000000000000000000 ) ;
#304 = CC_DESIGN_APPROVAL ( #88, ( #374 ) ) ;
#305 = ORIENTED_EDGE ( 'NONE', *, *, #257, .F. ) ;
#306 = APPROVAL ( #82, 'NEURÈENÝ' ) ;
#307 = DIRECTION ( 'NONE',  ( 0.000000000000000000, 0.000000000000000000, 1.000000000000000000 ) ) ;
#308 = ORIENTED_EDGE ( 'NONE', *, *, #200, .F. ) ;
#309 = ORIENTED_EDGE ( 'NONE', *, *, #200, .T. ) ;
#310 = CIRCLE ( 'NONE', #173, 5.500000000000000000 ) ;
#311 = CALENDAR_DATE ( 2022, 8, 7 ) ;
#312 = DIRECTION ( 'NONE',  ( -1.000000000000000000, 0.000000000000000000, 0.000000000000000000 ) ) ;
#313 = UNCERTAINTY_MEASURE_WITH_UNIT (LENGTH_MEASURE( 1.000000000000000082E-05 ), #127, 'distance_accuracy_value', 'NONE');
#314 = PERSON_AND_ORGANIZATION ( #381, #226 ) ;
#315 = CARTESIAN_POINT ( 'NONE',  ( -5.500000000000000000, 6.735557395310442023E-16, 5.500000000000005329 ) ) ;
#316 = APPROVAL_STATUS ( 'not_yet_approved' ) ;
#317 = ADVANCED_FACE ( 'NONE', ( #282, #214 ), #155, .T. ) ;
#318 = ORIENTED_EDGE ( 'NONE', *, *, #349, .F. ) ;
#319 = DIRECTION ( 'NONE',  ( 0.000000000000000000, 0.000000000000000000, -1.000000000000000000 ) ) ;
#320 = EDGE_CURVE ( 'NONE', #279, #212, #53, .T. ) ;
#321 = DIRECTION ( 'NONE',  ( 1.000000000000000000, 0.000000000000000000, -0.000000000000000000 ) ) ;
#322 = CIRCLE ( 'NONE', #103, 0.5000000000000004441 ) ;
#323 = AXIS2_PLACEMENT_3D ( 'NONE', #99, #158, #302 ) ;
#324 = LINE ( 'NONE', #358, #52 ) ;
#325 = VERTEX_POINT ( 'NONE', #362 ) ;
#326 = DIRECTION ( 'NONE',  ( 1.000000000000000000, 0.000000000000000000, 0.000000000000000000 ) ) ;
#327 = ORIENTED_EDGE ( 'NONE', *, *, #172, .F. ) ;
#328 = VERTEX_POINT ( 'NONE', #132 ) ;
#329 = CIRCLE ( 'NONE', #211, 5.500000000000000000 ) ;
#330 = LOCAL_TIME ( 16, 56, 35.00000000000000000, #371 ) ;
#331 = DIRECTION ( 'NONE',  ( 1.000000000000000000, 0.000000000000000000, 0.000000000000000000 ) ) ;
#332 = EDGE_LOOP ( 'NONE', ( #283, #97, #63, #50 ) ) ;
#333 = EDGE_LOOP ( 'NONE', ( #196, #246, #287, #277 ) ) ;
#334 = CC_DESIGN_PERSON_AND_ORGANIZATION_ASSIGNMENT ( #48, #25, ( #374 ) ) ;
#335 = DIRECTION ( 'NONE',  ( 1.000000000000000000, 0.000000000000000000, 0.000000000000000000 ) ) ;
#336 = ORIENTED_EDGE ( 'NONE', *, *, #72, .F. ) ;
#337 = LOCAL_TIME ( 16, 56, 35.00000000000000000, #170 ) ;
#338 = CARTESIAN_POINT ( 'NONE',  ( 0.000000000000000000, 0.000000000000000000, 505.0000000000000000 ) ) ;
#339 = ORIENTED_EDGE ( 'NONE', *, *, #376, .T. ) ;
#340 = ORIENTED_EDGE ( 'NONE', *, *, #239, .F. ) ;
#341 = PRODUCT_RELATED_PRODUCT_CATEGORY ( 'detail', '', ( #378 ) ) ;
#342 = APPROVAL_ROLE ( '' ) ;
#343 = VERTEX_POINT ( 'NONE', #71 ) ;
#344 = CIRCLE ( 'NONE', #85, 8.000000000000000000 ) ;
#345 = DATE_AND_TIME ( #224, #330 ) ;
#346 = MECHANICAL_CONTEXT ( 'NONE', #180, 'mechanical' ) ;
#347 = DIRECTION ( 'NONE',  ( 1.224646799147353207E-16, 1.000000000000000000, -0.000000000000000000 ) ) ;
#348 = PERSON_AND_ORGANIZATION ( #381, #226 ) ;
#349 = EDGE_CURVE ( 'NONE', #372, #177, #145, .T. ) ;
#350 = DIRECTION ( 'NONE',  ( -1.000000000000000000, 0.000000000000000000, 0.000000000000000000 ) ) ;
#351 = ORIENTED_EDGE ( 'NONE', *, *, #320, .T. ) ;
#352 = EDGE_CURVE ( 'NONE', #193, #223, #109, .T. ) ;
#353 = DIRECTION ( 'NONE',  ( -0.000000000000000000, -0.000000000000000000, -1.000000000000000000 ) ) ;
#354 = CARTESIAN_POINT ( 'NONE',  ( 0.000000000000000000, 0.000000000000000000, 505.0000000000000000 ) ) ;
#355 = CIRCLE ( 'NONE', #115, 8.000000000000000000 ) ;
#356 = LOCAL_TIME ( 16, 56, 35.00000000000000000, #258 ) ;
#357 = FACE_OUTER_BOUND ( 'NONE', #221, .T. ) ;
#358 = CARTESIAN_POINT ( 'NONE',  ( -8.000000000000000000, 0.000000000000000000, 5.000000000000000000 ) ) ;
#359 = CC_DESIGN_DATE_AND_TIME_ASSIGNMENT ( #230, #255, ( #166 ) ) ;
#360 = DIRECTION ( 'NONE',  ( 0.000000000000000000, 0.000000000000000000, -1.000000000000000000 ) ) ;
#361 = ORIENTED_EDGE ( 'NONE', *, *, #106, .F. ) ;
#362 = CARTESIAN_POINT ( 'NONE',  ( 8.000000000000000000, 9.797174393178825657E-16, 5.000000000000000000 ) ) ;
#363 = CARTESIAN_POINT ( 'NONE',  ( 0.000000000000000000, 0.000000000000000000, 0.000000000000000000 ) ) ;
#364 = VERTEX_POINT ( 'NONE', #130 ) ;
#365 = CARTESIAN_POINT ( 'NONE',  ( 8.000000000000000000, 9.797174393178825657E-16, 5.000000000000000000 ) ) ;
#366 = EDGE_LOOP ( 'NONE', ( #45, #318 ) ) ;
#367 = LOCAL_TIME ( 16, 56, 35.00000000000000000, #110 ) ;
#368 = ORIENTED_EDGE ( 'NONE', *, *, #249, .T. ) ;
#369 = DIRECTION ( 'NONE',  ( 1.000000000000000000, 0.000000000000000000, 0.000000000000000000 ) ) ;
#370 = DIRECTION ( 'NONE',  ( -1.000000000000000000, 0.000000000000000000, 0.000000000000000000 ) ) ;
#371 = COORDINATED_UNIVERSAL_TIME_OFFSET ( 1, 0, .AHEAD. ) ;
#372 = VERTEX_POINT ( 'NONE', #273 ) ;
#373 = CIRCLE ( 'NONE', #274, 5.000000000000000000 ) ;
#374 = PRODUCT_DEFINITION_FORMATION_WITH_SPECIFIED_SOURCE ( 'LIBOVOLNÝ', '', #378, .NOT_KNOWN. ) ;
#375 = APPROVAL_DATE_TIME ( #20, #88 ) ;
#376 = EDGE_CURVE ( 'NONE', #372, #223, #188, .T. ) ;
#377 = PERSON_AND_ORGANIZATION_ROLE ( 'creator' ) ;
#378 = PRODUCT ( '2e07', '2e07', '', ( #346 ) ) ;
#379 = DIRECTION ( 'NONE',  ( -0.000000000000000000, -0.000000000000000000, -1.000000000000000000 ) ) ;
#380 = DIRECTION ( 'NONE',  ( -0.000000000000000000, -0.000000000000000000, -1.000000000000000000 ) ) ;
#381 = PERSON ( 'NEURÈENÝ', 'NEURÈENÝ', 'NEURÈENÝ', ('NEURÈENÝ'), ('NEURÈENÝ'), ('NEURÈENÝ') ) ;
ENDSEC;
END-ISO-10303-21;
