ISO-10303-21;
HEADER;
FILE_DESCRIPTION (( 'STEP AP203' ),
    '1' );
FILE_NAME ('abc6.STEP',
    '2022-07-08T15:03:13',
    ( '' ),
    ( '' ),
    'SwSTEP 2.0',
    'SolidWorks 2019',
    '' );
FILE_SCHEMA (( 'CONFIG_CONTROL_DESIGN' ));
ENDSEC;

DATA;
#1 = CARTESIAN_POINT ( 'NONE',  ( 0.000000000000000000, 0.000000000000000000, 805.0000000000000000 ) ) ;
#2 = DIRECTION ( 'NONE',  ( 0.000000000000000000, 0.000000000000000000, 1.000000000000000000 ) ) ;
#3 = PERSON_AND_ORGANIZATION ( #22, #347 ) ;
#4 = VECTOR ( 'NONE', #24, 1000.000000000000000 ) ;
#5 = EDGE_CURVE ( 'NONE', #333, #355, #309, .T. ) ;
#6 = CALENDAR_DATE ( 2022, 8, 7 ) ;
#7 = ORIENTED_EDGE ( 'NONE', *, *, #12, .T. ) ;
#8 =( LENGTH_UNIT ( ) NAMED_UNIT ( * ) SI_UNIT ( .MILLI., .METRE. ) );
#9 = ORIENTED_EDGE ( 'NONE', *, *, #210, .T. ) ;
#10 = DIRECTION ( 'NONE',  ( 0.000000000000000000, 0.000000000000000000, -1.000000000000000000 ) ) ;
#11 = ORIENTED_EDGE ( 'NONE', *, *, #39, .T. ) ;
#12 = EDGE_CURVE ( 'NONE', #38, #252, #198, .T. ) ;
#13 = AXIS2_PLACEMENT_3D ( 'NONE', #215, #59, #27 ) ;
#14 = CC_DESIGN_APPROVAL ( #87, ( #205 ) ) ;
#15 = VERTEX_POINT ( 'NONE', #374 ) ;
#16 = EDGE_CURVE ( 'NONE', #15, #335, #327, .T. ) ;
#17 = CYLINDRICAL_SURFACE ( 'NONE', #359, 5.000000000000000000 ) ;
#18 = CC_DESIGN_PERSON_AND_ORGANIZATION_ASSIGNMENT ( #340, #55, ( #205 ) ) ;
#19 = CARTESIAN_POINT ( 'NONE',  ( 0.000000000000000000, 0.000000000000000000, 805.0000000000000000 ) ) ;
#20 = AXIS2_PLACEMENT_3D ( 'NONE', #290, #26, #287 ) ;
#21 = CALENDAR_DATE ( 2022, 8, 7 ) ;
#22 = PERSON ( 'NEURÈENÝ', 'NEURÈENÝ', 'NEURÈENÝ', ('NEURÈENÝ'), ('NEURÈENÝ'), ('NEURÈENÝ') ) ;
#23 = EDGE_CURVE ( 'NONE', #133, #15, #58, .T. ) ;
#24 = DIRECTION ( 'NONE',  ( 0.000000000000000000, 0.000000000000000000, -1.000000000000000000 ) ) ;
#25 = PERSON_AND_ORGANIZATION_ROLE ( 'design_supplier' ) ;
#26 = DIRECTION ( 'NONE',  ( 0.000000000000000000, 0.000000000000000000, 1.000000000000000000 ) ) ;
#27 = DIRECTION ( 'NONE',  ( 1.000000000000000000, 0.000000000000000000, 0.000000000000000000 ) ) ;
#28 = CYLINDRICAL_SURFACE ( 'NONE', #257, 5.000000000000000000 ) ;
#29 = CARTESIAN_POINT ( 'NONE',  ( 5.000000000000000000, 6.123233995736766282E-16, 5.499999999999949374 ) ) ;
#30 = PLANE ( 'NONE',  #276 ) ;
#31 = ORIENTED_EDGE ( 'NONE', *, *, #172, .T. ) ;
#32 = FACE_BOUND ( 'NONE', #44, .T. ) ;
#33 = EDGE_CURVE ( 'NONE', #294, #201, #300, .T. ) ;
#34 = TOROIDAL_SURFACE ( 'NONE', #13, 5.500000000000000000, 0.5000000000000000000 ) ;
#35 = DIRECTION ( 'NONE',  ( 1.000000000000000000, 0.000000000000000000, 0.000000000000000000 ) ) ;
#36 = COORDINATED_UNIVERSAL_TIME_OFFSET ( 1, 0, .AHEAD. ) ;
#37 = CALENDAR_DATE ( 2022, 8, 7 ) ;
#38 = VERTEX_POINT ( 'NONE', #376 ) ;
#39 = EDGE_CURVE ( 'NONE', #201, #294, #177, .T. ) ;
#40 = CARTESIAN_POINT ( 'NONE',  ( 0.000000000000000000, 0.000000000000000000, 5.499999999999949374 ) ) ;
#41 = ORIENTED_EDGE ( 'NONE', *, *, #43, .F. ) ;
#42 = MECHANICAL_CONTEXT ( 'NONE', #102, 'mechanical' ) ;
#43 = EDGE_CURVE ( 'NONE', #133, #74, #65, .T. ) ;
#44 = EDGE_LOOP ( 'NONE', ( #368, #282 ) ) ;
#45 = ORIENTED_EDGE ( 'NONE', *, *, #151, .F. ) ;
#46 = AXIS2_PLACEMENT_3D ( 'NONE', #62, #221, #274 ) ;
#47 = ORIENTED_EDGE ( 'NONE', *, *, #196, .F. ) ;
#48 = COORDINATED_UNIVERSAL_TIME_OFFSET ( 1, 0, .AHEAD. ) ;
#49 = CARTESIAN_POINT ( 'NONE',  ( 5.500000000000000000, 0.000000000000000000, 5.499999999999949374 ) ) ;
#50 = APPROVAL_ROLE ( '' ) ;
#51 = DIRECTION ( 'NONE',  ( 0.000000000000000000, -1.000000000000000000, 0.000000000000000000 ) ) ;
#52 = AXIS2_PLACEMENT_3D ( 'NONE', #110, #319, #109 ) ;
#53 = AXIS2_PLACEMENT_3D ( 'NONE', #241, #235, #341 ) ;
#54 = CC_DESIGN_PERSON_AND_ORGANIZATION_ASSIGNMENT ( #277, #303, ( #84 ) ) ;
#55 = PERSON_AND_ORGANIZATION_ROLE ( 'creator' ) ;
#56 = PLANE ( 'NONE',  #296 ) ;
#57 = CC_DESIGN_DATE_AND_TIME_ASSIGNMENT ( #285, #82, ( #131 ) ) ;
#58 = LINE ( 'NONE', #188, #92 ) ;
#59 = DIRECTION ( 'NONE',  ( 0.000000000000000000, 0.000000000000000000, 1.000000000000000000 ) ) ;
#60 = DIRECTION ( 'NONE',  ( 0.000000000000000000, 0.000000000000000000, 1.000000000000000000 ) ) ;
#61 = CIRCLE ( 'NONE', #111, 5.000000000000000000 ) ;
#62 = CARTESIAN_POINT ( 'NONE',  ( 0.000000000000000000, 0.000000000000000000, 0.000000000000000000 ) ) ;
#63 = ORIENTED_EDGE ( 'NONE', *, *, #136, .T. ) ;
#64 = DIRECTION ( 'NONE',  ( -1.000000000000000000, 1.224646799147351482E-16, 0.000000000000000000 ) ) ;
#65 = CIRCLE ( 'NONE', #20, 8.000000000000000000 ) ;
#66 = CARTESIAN_POINT ( 'NONE',  ( 0.000000000000000000, 0.000000000000000000, 805.0000000000000000 ) ) ;
#67 = APPROVAL_PERSON_ORGANIZATION ( #3, #200, #230 ) ;
#68 =( NAMED_UNIT ( * ) SI_UNIT ( $, .STERADIAN. ) SOLID_ANGLE_UNIT ( ) );
#69 = ADVANCED_FACE ( 'NONE', ( #312 ), #113, .F. ) ;
#70 = DESIGN_CONTEXT ( 'detailed design', #121, 'design' ) ;
#71 = PLANE ( 'NONE',  #317 ) ;
#72 = ORIENTED_EDGE ( 'NONE', *, *, #73, .F. ) ;
#73 = EDGE_CURVE ( 'NONE', #335, #15, #122, .T. ) ;
#74 = VERTEX_POINT ( 'NONE', #232 ) ;
#75 = APPROVAL_DATE_TIME ( #168, #200 ) ;
#76 = ORIENTED_EDGE ( 'NONE', *, *, #164, .F. ) ;
#77 = ORIENTED_EDGE ( 'NONE', *, *, #237, .T. ) ;
#78 = DIRECTION ( 'NONE',  ( 0.000000000000000000, 0.000000000000000000, 1.000000000000000000 ) ) ;
#79 = AXIS2_PLACEMENT_3D ( 'NONE', #332, #367, #35 ) ;
#80 = PERSON_AND_ORGANIZATION ( #22, #347 ) ;
#81 = DIRECTION ( 'NONE',  ( -1.000000000000000000, 0.000000000000000000, 0.000000000000000000 ) ) ;
#82 = DATE_TIME_ROLE ( 'classification_date' ) ;
#83 = CARTESIAN_POINT ( 'NONE',  ( 0.000000000000000000, 0.000000000000000000, 805.0000000000000000 ) ) ;
#84 = PRODUCT_DEFINITION ( 'NEZNÁMÝ', '', #205, #70 ) ;
#85 = CARTESIAN_POINT ( 'NONE',  ( 2.750000000000000000, 3.367778697655221012E-16, 805.0000000000000000 ) ) ;
#86 = ORIENTED_EDGE ( 'NONE', *, *, #5, .F. ) ;
#87 = APPROVAL ( #357, 'NEURÈENÝ' ) ;
#88 = AXIS2_PLACEMENT_3D ( 'NONE', #223, #320, #216 ) ;
#89 = CARTESIAN_POINT ( 'NONE',  ( 0.000000000000000000, 0.000000000000000000, 805.0000000000000000 ) ) ;
#90 = CARTESIAN_POINT ( 'NONE',  ( -5.500000000000000000, 6.735557395310442023E-16, 5.499999999999949374 ) ) ;
#91 = DIRECTION ( 'NONE',  ( -0.000000000000000000, -0.000000000000000000, -1.000000000000000000 ) ) ;
#92 = VECTOR ( 'NONE', #343, 1000.000000000000000 ) ;
#93 = FACE_OUTER_BOUND ( 'NONE', #323, .T. ) ;
#94 = ADVANCED_FACE ( 'NONE', ( #182 ), #17, .T. ) ;
#95 = ORIENTED_EDGE ( 'NONE', *, *, #237, .F. ) ;
#96 = CARTESIAN_POINT ( 'NONE',  ( 0.000000000000000000, 0.000000000000000000, 5.499999999999949374 ) ) ;
#97 = ORIENTED_EDGE ( 'NONE', *, *, #16, .F. ) ;
#98 = EDGE_CURVE ( 'NONE', #139, #355, #128, .T. ) ;
#99 = DIRECTION ( 'NONE',  ( -0.000000000000000000, -0.000000000000000000, -1.000000000000000000 ) ) ;
#100 = APPROVAL_ROLE ( '' ) ;
#101 = CIRCLE ( 'NONE', #225, 5.000000000000000000 ) ;
#102 = APPLICATION_CONTEXT ( 'configuration controlled 3d designs of mechanical parts and assemblies' ) ;
#103 = ORIENTED_EDGE ( 'NONE', *, *, #243, .F. ) ;
#104 = APPLICATION_PROTOCOL_DEFINITION ( 'international standard', 'config_control_design', 1994, #102 ) ;
#105 = EDGE_LOOP ( 'NONE', ( #72, #97 ) ) ;
#106 = CIRCLE ( 'NONE', #169, 2.750000000000000000 ) ;
#107 = DIRECTION ( 'NONE',  ( 1.000000000000000000, 0.000000000000000000, 0.000000000000000000 ) ) ;
#108 = ORIENTED_EDGE ( 'NONE', *, *, #136, .F. ) ;
#109 = DIRECTION ( 'NONE',  ( 1.000000000000000000, 0.000000000000000000, 0.000000000000000000 ) ) ;
#110 = CARTESIAN_POINT ( 'NONE',  ( 0.000000000000000000, 0.000000000000000000, 805.0000000000000000 ) ) ;
#111 = AXIS2_PLACEMENT_3D ( 'NONE', #158, #324, #191 ) ;
#112 = FACE_OUTER_BOUND ( 'NONE', #105, .T. ) ;
#113 = CYLINDRICAL_SURFACE ( 'NONE', #339, 2.750000000000000000 ) ;
#114 = DIRECTION ( 'NONE',  ( 1.000000000000000000, 0.000000000000000000, 0.000000000000000000 ) ) ;
#115 = ADVANCED_FACE ( 'NONE', ( #147 ), #185, .T. ) ;
#116 = AXIS2_PLACEMENT_3D ( 'NONE', #262, #310, #316 ) ;
#117 = CC_DESIGN_APPROVAL ( #234, ( #131 ) ) ;
#118 = DIRECTION ( 'NONE',  ( 0.000000000000000000, 0.000000000000000000, 1.000000000000000000 ) ) ;
#119 = FACE_OUTER_BOUND ( 'NONE', #202, .T. ) ;
#120 = CARTESIAN_POINT ( 'NONE',  ( 0.000000000000000000, 0.000000000000000000, 5.499999999999949374 ) ) ;
#121 = APPLICATION_CONTEXT ( 'configuration controlled 3d designs of mechanical parts and assemblies' ) ;
#122 = CIRCLE ( 'NONE', #156, 8.000000000000000000 ) ;
#123 = DIRECTION ( 'NONE',  ( 1.000000000000000000, 0.000000000000000000, 0.000000000000000000 ) ) ;
#124 = AXIS2_PLACEMENT_3D ( 'NONE', #40, #361, #107 ) ;
#125 = ORIENTED_EDGE ( 'NONE', *, *, #370, .T. ) ;
#126 = CARTESIAN_POINT ( 'NONE',  ( -5.000000000000000000, 0.000000000000000000, 5.499999999999949374 ) ) ;
#127 = PERSON_AND_ORGANIZATION ( #22, #347 ) ;
#128 = CIRCLE ( 'NONE', #346, 5.500000000000000000 ) ;
#129 = ADVANCED_FACE ( 'NONE', ( #288 ), #371, .T. ) ;
#130 = FACE_OUTER_BOUND ( 'NONE', #192, .T. ) ;
#131 = SECURITY_CLASSIFICATION ( '', '', #342 ) ;
#132 = PERSON_AND_ORGANIZATION_ROLE ( 'design_owner' ) ;
#133 = VERTEX_POINT ( 'NONE', #207 ) ;
#134 =( NAMED_UNIT ( * ) PLANE_ANGLE_UNIT ( ) SI_UNIT ( $, .RADIAN. ) );
#135 = EDGE_LOOP ( 'NONE', ( #259, #214 ) ) ;
#136 = EDGE_CURVE ( 'NONE', #294, #273, #150, .T. ) ;
#137 = AXIS2_PLACEMENT_3D ( 'NONE', #83, #289, #314 ) ;
#138 = DIRECTION ( 'NONE',  ( 0.000000000000000000, 0.000000000000000000, 1.000000000000000000 ) ) ;
#139 = VERTEX_POINT ( 'NONE', #263 ) ;
#140 = DATE_AND_TIME ( #313, #366 ) ;
#141 = CARTESIAN_POINT ( 'NONE',  ( 0.000000000000000000, 0.000000000000000000, 805.0000000000000000 ) ) ;
#142 = PERSON_AND_ORGANIZATION_ROLE ( 'classification_officer' ) ;
#143 = MANIFOLD_SOLID_BREP ( 'Odebrat vysunutím3', #167 ) ;
#144 = DIRECTION ( 'NONE',  ( 1.000000000000000000, 0.000000000000000000, 0.000000000000000000 ) ) ;
#145 = ADVANCED_FACE ( 'NONE', ( #373, #112 ), #56, .F. ) ;
#146 = AXIS2_PLACEMENT_3D ( 'NONE', #89, #236, #144 ) ;
#147 = FACE_OUTER_BOUND ( 'NONE', #179, .T. ) ;
#148 = CIRCLE ( 'NONE', #88, 8.000000000000000000 ) ;
#149 =( GEOMETRIC_REPRESENTATION_CONTEXT ( 3 ) GLOBAL_UNCERTAINTY_ASSIGNED_CONTEXT ( ( #358 ) ) GLOBAL_UNIT_ASSIGNED_CONTEXT ( ( #8, #134, #68 ) ) REPRESENTATION_CONTEXT ( 'NONE', 'WORKASPACE' ) );
#150 = LINE ( 'NONE', #85, #4 ) ;
#151 = EDGE_CURVE ( 'NONE', #305, #273, #106, .T. ) ;
#152 = APPROVAL_DATE_TIME ( #140, #234 ) ;
#153 = CARTESIAN_POINT ( 'NONE',  ( 0.000000000000000000, 0.000000000000000000, 0.000000000000000000 ) ) ;
#154 = ADVANCED_FACE ( 'NONE', ( #93 ), #28, .T. ) ;
#155 = LINE ( 'NONE', #189, #204 ) ;
#156 = AXIS2_PLACEMENT_3D ( 'NONE', #153, #338, #238 ) ;
#157 = CARTESIAN_POINT ( 'NONE',  ( 2.750000000000000000, 3.367778697655221012E-16, 805.0000000000000000 ) ) ;
#158 = CARTESIAN_POINT ( 'NONE',  ( 0.000000000000000000, 0.000000000000000000, 805.0000000000000000 ) ) ;
#159 = ADVANCED_FACE ( 'NONE', ( #32, #295 ), #30, .T. ) ;
#160 = LINE ( 'NONE', #162, #283 ) ;
#161 = ORIENTED_EDGE ( 'NONE', *, *, #375, .F. ) ;
#162 = CARTESIAN_POINT ( 'NONE',  ( -5.000000000000000000, 0.000000000000000000, 805.0000000000000000 ) ) ;
#163 = APPROVAL_PERSON_ORGANIZATION ( #127, #87, #100 ) ;
#164 = EDGE_CURVE ( 'NONE', #333, #220, #101, .T. ) ;
#165 = DIRECTION ( 'NONE',  ( -1.000000000000000000, 0.000000000000000000, 0.000000000000000000 ) ) ;
#166 = CARTESIAN_POINT ( 'NONE',  ( 0.000000000000000000, 0.000000000000000000, 805.0000000000000000 ) ) ;
#167 = CLOSED_SHELL ( 'NONE', ( #69, #315, #94, #115, #129, #378, #145, #154, #159, #255, #352 ) ) ;
#168 = DATE_AND_TIME ( #37, #360 ) ;
#169 = AXIS2_PLACEMENT_3D ( 'NONE', #379, #354, #380 ) ;
#170 = ORIENTED_EDGE ( 'NONE', *, *, #23, .F. ) ;
#171 = AXIS2_PLACEMENT_3D ( 'NONE', #166, #10, #165 ) ;
#172 = EDGE_CURVE ( 'NONE', #252, #333, #155, .T. ) ;
#173 = FACE_OUTER_BOUND ( 'NONE', #135, .T. ) ;
#174 = ORIENTED_EDGE ( 'NONE', *, *, #5, .T. ) ;
#175 = CALENDAR_DATE ( 2022, 8, 7 ) ;
#176 = EDGE_LOOP ( 'NONE', ( #45, #231 ) ) ;
#177 = CIRCLE ( 'NONE', #137, 2.750000000000000000 ) ;
#178 = COORDINATED_UNIVERSAL_TIME_OFFSET ( 1, 0, .AHEAD. ) ;
#179 = EDGE_LOOP ( 'NONE', ( #41, #308, #363, #103 ) ) ;
#180 = TOROIDAL_SURFACE ( 'NONE', #269, 5.500000000000000000, 0.5000000000000000000 ) ;
#181 = PERSON_AND_ORGANIZATION ( #22, #347 ) ;
#182 = FACE_OUTER_BOUND ( 'NONE', #248, .T. ) ;
#183 = SHAPE_DEFINITION_REPRESENTATION ( #253, #261 ) ;
#184 = DIRECTION ( 'NONE',  ( 0.000000000000000000, 0.000000000000000000, -1.000000000000000000 ) ) ;
#185 = CYLINDRICAL_SURFACE ( 'NONE', #116, 8.000000000000000000 ) ;
#186 = APPROVAL_PERSON_ORGANIZATION ( #80, #234, #50 ) ;
#187 = CARTESIAN_POINT ( 'NONE',  ( 0.000000000000000000, 0.000000000000000000, 0.000000000000000000 ) ) ;
#188 = CARTESIAN_POINT ( 'NONE',  ( 8.000000000000000000, 9.797174393178825657E-16, 5.000000000000000000 ) ) ;
#189 = CARTESIAN_POINT ( 'NONE',  ( 5.000000000000000000, 6.123233995736766282E-16, 805.0000000000000000 ) ) ;
#190 = DIRECTION ( 'NONE',  ( 1.000000000000000000, 0.000000000000000000, 0.000000000000000000 ) ) ;
#191 = DIRECTION ( 'NONE',  ( 1.000000000000000000, 0.000000000000000000, 0.000000000000000000 ) ) ;
#192 = EDGE_LOOP ( 'NONE', ( #108, #381, #299, #353 ) ) ;
#193 = EDGE_CURVE ( 'NONE', #38, #220, #160, .T. ) ;
#194 = DIRECTION ( 'NONE',  ( 1.224646799147353207E-16, 1.000000000000000000, -0.000000000000000000 ) ) ;
#195 = LOCAL_TIME ( 17, 3, 13.00000000000000000, #178 ) ;
#196 = EDGE_CURVE ( 'NONE', #252, #38, #61, .T. ) ;
#197 = ORIENTED_EDGE ( 'NONE', *, *, #243, .T. ) ;
#198 = CIRCLE ( 'NONE', #52, 5.000000000000000000 ) ;
#199 = EDGE_LOOP ( 'NONE', ( #11, #63, #9, #362 ) ) ;
#200 = APPROVAL ( #228, 'NEURÈENÝ' ) ;
#201 = VERTEX_POINT ( 'NONE', #247 ) ;
#202 = EDGE_LOOP ( 'NONE', ( #213, #77, #161, #86 ) ) ;
#203 = DIRECTION ( 'NONE',  ( -0.000000000000000000, -0.000000000000000000, -1.000000000000000000 ) ) ;
#204 = VECTOR ( 'NONE', #272, 1000.000000000000000 ) ;
#205 = PRODUCT_DEFINITION_FORMATION_WITH_SPECIFIED_SOURCE ( 'LIBOVOLNÝ', '', #301, .NOT_KNOWN. ) ;
#206 = APPROVAL_STATUS ( 'not_yet_approved' ) ;
#207 = CARTESIAN_POINT ( 'NONE',  ( 8.000000000000000000, 9.797174393178825657E-16, 5.000000000000000000 ) ) ;
#208 = CC_DESIGN_PERSON_AND_ORGANIZATION_ASSIGNMENT ( #181, #25, ( #205 ) ) ;
#209 = CARTESIAN_POINT ( 'NONE',  ( 0.000000000000000000, 0.000000000000000000, 5.000000000000000000 ) ) ;
#210 = EDGE_CURVE ( 'NONE', #273, #305, #217, .T. ) ;
#211 = DIRECTION ( 'NONE',  ( 0.000000000000000000, 0.000000000000000000, -1.000000000000000000 ) ) ;
#212 = VECTOR ( 'NONE', #356, 1000.000000000000000 ) ;
#213 = ORIENTED_EDGE ( 'NONE', *, *, #370, .F. ) ;
#214 = ORIENTED_EDGE ( 'NONE', *, *, #43, .T. ) ;
#215 = CARTESIAN_POINT ( 'NONE',  ( 0.000000000000000000, 0.000000000000000000, 5.499999999999949374 ) ) ;
#216 = DIRECTION ( 'NONE',  ( 1.000000000000000000, 0.000000000000000000, 0.000000000000000000 ) ) ;
#217 = CIRCLE ( 'NONE', #46, 2.750000000000000000 ) ;
#218 = CIRCLE ( 'NONE', #79, 5.500000000000000000 ) ;
#219 = LINE ( 'NONE', #271, #329 ) ;
#220 = VERTEX_POINT ( 'NONE', #126 ) ;
#221 = DIRECTION ( 'NONE',  ( -0.000000000000000000, -0.000000000000000000, -1.000000000000000000 ) ) ;
#222 = EDGE_LOOP ( 'NONE', ( #7, #227 ) ) ;
#223 = CARTESIAN_POINT ( 'NONE',  ( 0.000000000000000000, 0.000000000000000000, 5.000000000000000000 ) ) ;
#224 = AXIS2_PLACEMENT_3D ( 'NONE', #49, #51, #184 ) ;
#225 = AXIS2_PLACEMENT_3D ( 'NONE', #96, #242, #123 ) ;
#226 = CARTESIAN_POINT ( 'NONE',  ( 0.000000000000000000, 0.000000000000000000, 0.000000000000000000 ) ) ;
#227 = ORIENTED_EDGE ( 'NONE', *, *, #196, .T. ) ;
#228 = APPROVAL_STATUS ( 'not_yet_approved' ) ;
#229 = ORIENTED_EDGE ( 'NONE', *, *, #12, .F. ) ;
#230 = APPROVAL_ROLE ( '' ) ;
#231 = ORIENTED_EDGE ( 'NONE', *, *, #210, .F. ) ;
#232 = CARTESIAN_POINT ( 'NONE',  ( -8.000000000000000000, 0.000000000000000000, 5.000000000000000000 ) ) ;
#233 = APPROVAL_DATE_TIME ( #251, #87 ) ;
#234 = APPROVAL ( #206, 'NEURÈENÝ' ) ;
#235 = DIRECTION ( 'NONE',  ( -0.000000000000000000, -0.000000000000000000, -1.000000000000000000 ) ) ;
#236 = DIRECTION ( 'NONE',  ( 0.000000000000000000, 0.000000000000000000, 1.000000000000000000 ) ) ;
#237 = EDGE_CURVE ( 'NONE', #220, #139, #302, .T. ) ;
#238 = DIRECTION ( 'NONE',  ( 1.000000000000000000, 0.000000000000000000, 0.000000000000000000 ) ) ;
#239 = EDGE_CURVE ( 'NONE', #74, #133, #148, .T. ) ;
#240 = AXIS2_PLACEMENT_3D ( 'NONE', #345, #78, #264 ) ;
#241 = CARTESIAN_POINT ( 'NONE',  ( 0.000000000000000000, 0.000000000000000000, 5.000000000000000000 ) ) ;
#242 = DIRECTION ( 'NONE',  ( 0.000000000000000000, 0.000000000000000000, 1.000000000000000000 ) ) ;
#243 = EDGE_CURVE ( 'NONE', #74, #335, #268, .T. ) ;
#244 = DIRECTION ( 'NONE',  ( 1.000000000000000000, 0.000000000000000000, -0.000000000000000000 ) ) ;
#245 = EDGE_LOOP ( 'NONE', ( #95, #76, #174, #318 ) ) ;
#246 = CC_DESIGN_SECURITY_CLASSIFICATION ( #131, ( #205 ) ) ;
#247 = CARTESIAN_POINT ( 'NONE',  ( -2.750000000000000000, 0.000000000000000000, 805.0000000000000000 ) ) ;
#248 = EDGE_LOOP ( 'NONE', ( #47, #31, #325, #284 ) ) ;
#249 = CARTESIAN_POINT ( 'NONE',  ( 5.500000000000000000, 0.000000000000000000, 4.999999999999975131 ) ) ;
#250 = LOCAL_TIME ( 17, 3, 13.00000000000000000, #36 ) ;
#251 = DATE_AND_TIME ( #6, #250 ) ;
#252 = VERTEX_POINT ( 'NONE', #328 ) ;
#253 = PRODUCT_DEFINITION_SHAPE ( 'NONE', 'NONE',  #84 ) ;
#254 = EDGE_LOOP ( 'NONE', ( #260, #278 ) ) ;
#255 = ADVANCED_FACE ( 'NONE', ( #293 ), #34, .F. ) ;
#256 = CYLINDRICAL_SURFACE ( 'NONE', #171, 2.750000000000000000 ) ;
#257 = AXIS2_PLACEMENT_3D ( 'NONE', #66, #91, #351 ) ;
#258 = AXIS2_PLACEMENT_3D ( 'NONE', #226, #2, #334 ) ;
#259 = ORIENTED_EDGE ( 'NONE', *, *, #239, .T. ) ;
#260 = ORIENTED_EDGE ( 'NONE', *, *, #375, .T. ) ;
#261 = ADVANCED_BREP_SHAPE_REPRESENTATION ( 'abc6', ( #143, #258 ), #149 ) ;
#262 = CARTESIAN_POINT ( 'NONE',  ( 0.000000000000000000, 0.000000000000000000, 5.000000000000000000 ) ) ;
#263 = CARTESIAN_POINT ( 'NONE',  ( -5.500000000000000000, 6.735557395310442023E-16, 4.999999999999975131 ) ) ;
#264 = DIRECTION ( 'NONE',  ( 1.000000000000000000, 0.000000000000000000, 0.000000000000000000 ) ) ;
#265 = CC_DESIGN_PERSON_AND_ORGANIZATION_ASSIGNMENT ( #298, #132, ( #301 ) ) ;
#266 = ORIENTED_EDGE ( 'NONE', *, *, #172, .F. ) ;
#267 = EDGE_CURVE ( 'NONE', #201, #305, #219, .T. ) ;
#268 = LINE ( 'NONE', #270, #212 ) ;
#269 = AXIS2_PLACEMENT_3D ( 'NONE', #120, #60, #190 ) ;
#270 = CARTESIAN_POINT ( 'NONE',  ( -8.000000000000000000, 0.000000000000000000, 5.000000000000000000 ) ) ;
#271 = CARTESIAN_POINT ( 'NONE',  ( -2.750000000000000000, 0.000000000000000000, 805.0000000000000000 ) ) ;
#272 = DIRECTION ( 'NONE',  ( -0.000000000000000000, -0.000000000000000000, -1.000000000000000000 ) ) ;
#273 = VERTEX_POINT ( 'NONE', #291 ) ;
#274 = DIRECTION ( 'NONE',  ( 1.000000000000000000, 0.000000000000000000, 0.000000000000000000 ) ) ;
#275 = FACE_BOUND ( 'NONE', #254, .T. ) ;
#276 = AXIS2_PLACEMENT_3D ( 'NONE', #1, #349, #321 ) ;
#277 = PERSON_AND_ORGANIZATION ( #22, #347 ) ;
#278 = ORIENTED_EDGE ( 'NONE', *, *, #98, .T. ) ;
#279 = CARTESIAN_POINT ( 'NONE',  ( 0.000000000000000000, 0.000000000000000000, 5.000000000000000000 ) ) ;
#280 = ORIENTED_EDGE ( 'NONE', *, *, #239, .F. ) ;
#281 = DATE_TIME_ROLE ( 'creation_date' ) ;
#282 = ORIENTED_EDGE ( 'NONE', *, *, #33, .F. ) ;
#283 = VECTOR ( 'NONE', #99, 1000.000000000000000 ) ;
#284 = ORIENTED_EDGE ( 'NONE', *, *, #193, .F. ) ;
#285 = DATE_AND_TIME ( #21, #195 ) ;
#286 = DIRECTION ( 'NONE',  ( -1.000000000000000000, 0.000000000000000000, 0.000000000000000000 ) ) ;
#287 = DIRECTION ( 'NONE',  ( 1.000000000000000000, 0.000000000000000000, 0.000000000000000000 ) ) ;
#288 = FACE_OUTER_BOUND ( 'NONE', #369, .T. ) ;
#289 = DIRECTION ( 'NONE',  ( 0.000000000000000000, 0.000000000000000000, 1.000000000000000000 ) ) ;
#290 = CARTESIAN_POINT ( 'NONE',  ( 0.000000000000000000, 0.000000000000000000, 5.000000000000000000 ) ) ;
#291 = CARTESIAN_POINT ( 'NONE',  ( 2.750000000000000000, 3.367778697655221012E-16, 0.000000000000000000 ) ) ;
#292 = CC_DESIGN_APPROVAL ( #200, ( #84 ) ) ;
#293 = FACE_OUTER_BOUND ( 'NONE', #245, .T. ) ;
#294 = VERTEX_POINT ( 'NONE', #157 ) ;
#295 = FACE_OUTER_BOUND ( 'NONE', #222, .T. ) ;
#296 = AXIS2_PLACEMENT_3D ( 'NONE', #187, #118, #244 ) ;
#297 = DATE_AND_TIME ( #175, #372 ) ;
#298 = PERSON_AND_ORGANIZATION ( #22, #347 ) ;
#299 = ORIENTED_EDGE ( 'NONE', *, *, #267, .T. ) ;
#300 = CIRCLE ( 'NONE', #146, 2.750000000000000000 ) ;
#301 = PRODUCT ( 'abc6', 'abc6', '', ( #42 ) ) ;
#302 = CIRCLE ( 'NONE', #365, 0.5000000000000004441 ) ;
#303 = PERSON_AND_ORGANIZATION_ROLE ( 'creator' ) ;
#304 = CIRCLE ( 'NONE', #124, 5.000000000000000000 ) ;
#305 = VERTEX_POINT ( 'NONE', #377 ) ;
#306 = APPLICATION_PROTOCOL_DEFINITION ( 'international standard', 'config_control_design', 1994, #121 ) ;
#307 = ORIENTED_EDGE ( 'NONE', *, *, #193, .T. ) ;
#308 = ORIENTED_EDGE ( 'NONE', *, *, #23, .T. ) ;
#309 = CIRCLE ( 'NONE', #224, 0.5000000000000004441 ) ;
#310 = DIRECTION ( 'NONE',  ( -0.000000000000000000, -0.000000000000000000, -1.000000000000000000 ) ) ;
#311 = PERSON_AND_ORGANIZATION ( #22, #347 ) ;
#312 = FACE_OUTER_BOUND ( 'NONE', #199, .T. ) ;
#313 = CALENDAR_DATE ( 2022, 8, 7 ) ;
#314 = DIRECTION ( 'NONE',  ( 1.000000000000000000, 0.000000000000000000, 0.000000000000000000 ) ) ;
#315 = ADVANCED_FACE ( 'NONE', ( #119 ), #180, .F. ) ;
#316 = DIRECTION ( 'NONE',  ( -1.000000000000000000, 0.000000000000000000, 0.000000000000000000 ) ) ;
#317 = AXIS2_PLACEMENT_3D ( 'NONE', #279, #138, #331 ) ;
#318 = ORIENTED_EDGE ( 'NONE', *, *, #98, .F. ) ;
#319 = DIRECTION ( 'NONE',  ( 0.000000000000000000, 0.000000000000000000, 1.000000000000000000 ) ) ;
#320 = DIRECTION ( 'NONE',  ( 0.000000000000000000, 0.000000000000000000, 1.000000000000000000 ) ) ;
#321 = DIRECTION ( 'NONE',  ( 1.000000000000000000, 0.000000000000000000, -0.000000000000000000 ) ) ;
#322 = DIRECTION ( 'NONE',  ( 0.000000000000000000, 0.000000000000000000, -1.000000000000000000 ) ) ;
#323 = EDGE_LOOP ( 'NONE', ( #266, #229, #307, #125 ) ) ;
#324 = DIRECTION ( 'NONE',  ( 0.000000000000000000, 0.000000000000000000, 1.000000000000000000 ) ) ;
#325 = ORIENTED_EDGE ( 'NONE', *, *, #164, .T. ) ;
#326 = CC_DESIGN_PERSON_AND_ORGANIZATION_ASSIGNMENT ( #311, #142, ( #131 ) ) ;
#327 = CIRCLE ( 'NONE', #240, 8.000000000000000000 ) ;
#328 = CARTESIAN_POINT ( 'NONE',  ( 5.000000000000000000, 6.123233995736766282E-16, 805.0000000000000000 ) ) ;
#329 = VECTOR ( 'NONE', #322, 1000.000000000000000 ) ;
#330 = COORDINATED_UNIVERSAL_TIME_OFFSET ( 1, 0, .AHEAD. ) ;
#331 = DIRECTION ( 'NONE',  ( 1.000000000000000000, 0.000000000000000000, -0.000000000000000000 ) ) ;
#332 = CARTESIAN_POINT ( 'NONE',  ( 0.000000000000000000, 0.000000000000000000, 5.000000000000000000 ) ) ;
#333 = VERTEX_POINT ( 'NONE', #29 ) ;
#334 = DIRECTION ( 'NONE',  ( 1.000000000000000000, 0.000000000000000000, 0.000000000000000000 ) ) ;
#335 = VERTEX_POINT ( 'NONE', #350 ) ;
#336 = COORDINATED_UNIVERSAL_TIME_OFFSET ( 1, 0, .AHEAD. ) ;
#337 = ORIENTED_EDGE ( 'NONE', *, *, #73, .T. ) ;
#338 = DIRECTION ( 'NONE',  ( 0.000000000000000000, 0.000000000000000000, 1.000000000000000000 ) ) ;
#339 = AXIS2_PLACEMENT_3D ( 'NONE', #141, #211, #286 ) ;
#340 = PERSON_AND_ORGANIZATION ( #22, #347 ) ;
#341 = DIRECTION ( 'NONE',  ( -1.000000000000000000, 0.000000000000000000, 0.000000000000000000 ) ) ;
#342 = SECURITY_CLASSIFICATION_LEVEL ( 'unclassified' ) ;
#343 = DIRECTION ( 'NONE',  ( -0.000000000000000000, -0.000000000000000000, -1.000000000000000000 ) ) ;
#344 = DIRECTION ( 'NONE',  ( -0.000000000000000000, -0.000000000000000000, -1.000000000000000000 ) ) ;
#345 = CARTESIAN_POINT ( 'NONE',  ( 0.000000000000000000, 0.000000000000000000, 0.000000000000000000 ) ) ;
#346 = AXIS2_PLACEMENT_3D ( 'NONE', #209, #203, #114 ) ;
#347 = ORGANIZATION ( 'NEURÈENÝ', 'NEURÈENÝ', '' ) ;
#348 = PRODUCT_RELATED_PRODUCT_CATEGORY ( 'detail', '', ( #301 ) ) ;
#349 = DIRECTION ( 'NONE',  ( 0.000000000000000000, 0.000000000000000000, 1.000000000000000000 ) ) ;
#350 = CARTESIAN_POINT ( 'NONE',  ( -8.000000000000000000, 0.000000000000000000, 0.000000000000000000 ) ) ;
#351 = DIRECTION ( 'NONE',  ( -1.000000000000000000, 0.000000000000000000, 0.000000000000000000 ) ) ;
#352 = ADVANCED_FACE ( 'NONE', ( #130 ), #256, .F. ) ;
#353 = ORIENTED_EDGE ( 'NONE', *, *, #151, .T. ) ;
#354 = DIRECTION ( 'NONE',  ( -0.000000000000000000, -0.000000000000000000, -1.000000000000000000 ) ) ;
#355 = VERTEX_POINT ( 'NONE', #249 ) ;
#356 = DIRECTION ( 'NONE',  ( -0.000000000000000000, -0.000000000000000000, -1.000000000000000000 ) ) ;
#357 = APPROVAL_STATUS ( 'not_yet_approved' ) ;
#358 = UNCERTAINTY_MEASURE_WITH_UNIT (LENGTH_MEASURE( 1.000000000000000082E-05 ), #8, 'distance_accuracy_value', 'NONE');
#359 = AXIS2_PLACEMENT_3D ( 'NONE', #19, #344, #81 ) ;
#360 = LOCAL_TIME ( 17, 3, 13.00000000000000000, #330 ) ;
#361 = DIRECTION ( 'NONE',  ( 0.000000000000000000, 0.000000000000000000, 1.000000000000000000 ) ) ;
#362 = ORIENTED_EDGE ( 'NONE', *, *, #267, .F. ) ;
#363 = ORIENTED_EDGE ( 'NONE', *, *, #16, .T. ) ;
#364 = CC_DESIGN_DATE_AND_TIME_ASSIGNMENT ( #297, #281, ( #84 ) ) ;
#365 = AXIS2_PLACEMENT_3D ( 'NONE', #90, #194, #64 ) ;
#366 = LOCAL_TIME ( 17, 3, 13.00000000000000000, #48 ) ;
#367 = DIRECTION ( 'NONE',  ( -0.000000000000000000, -0.000000000000000000, -1.000000000000000000 ) ) ;
#368 = ORIENTED_EDGE ( 'NONE', *, *, #39, .F. ) ;
#369 = EDGE_LOOP ( 'NONE', ( #170, #280, #197, #337 ) ) ;
#370 = EDGE_CURVE ( 'NONE', #220, #333, #304, .T. ) ;
#371 = CYLINDRICAL_SURFACE ( 'NONE', #53, 8.000000000000000000 ) ;
#372 = LOCAL_TIME ( 17, 3, 13.00000000000000000, #336 ) ;
#373 = FACE_BOUND ( 'NONE', #176, .T. ) ;
#374 = CARTESIAN_POINT ( 'NONE',  ( 8.000000000000000000, 9.797174393178825657E-16, 0.000000000000000000 ) ) ;
#375 = EDGE_CURVE ( 'NONE', #355, #139, #218, .T. ) ;
#376 = CARTESIAN_POINT ( 'NONE',  ( -5.000000000000000000, 0.000000000000000000, 805.0000000000000000 ) ) ;
#377 = CARTESIAN_POINT ( 'NONE',  ( -2.750000000000000000, 0.000000000000000000, 0.000000000000000000 ) ) ;
#378 = ADVANCED_FACE ( 'NONE', ( #275, #173 ), #71, .T. ) ;
#379 = CARTESIAN_POINT ( 'NONE',  ( 0.000000000000000000, 0.000000000000000000, 0.000000000000000000 ) ) ;
#380 = DIRECTION ( 'NONE',  ( 1.000000000000000000, 0.000000000000000000, 0.000000000000000000 ) ) ;
#381 = ORIENTED_EDGE ( 'NONE', *, *, #33, .T. ) ;
ENDSEC;
END-ISO-10303-21;
