ISO-10303-21;
HEADER;
FILE_DESCRIPTION (( 'STEP AP203' ),
    '1' );
FILE_NAME ('8718.STEP',
    '2022-07-08T14:30:35',
    ( '' ),
    ( '' ),
    'SwSTEP 2.0',
    'SolidWorks 2019',
    '' );
FILE_SCHEMA (( 'CONFIG_CONTROL_DESIGN' ));
ENDSEC;

DATA;
#1 = DIRECTION ( 'NONE',  ( 0.000000000000000000, 0.000000000000000000, 1.000000000000000000 ) ) ;
#2 = AXIS2_PLACEMENT_3D ( 'NONE', #103, #232, #313 ) ;
#3 = EDGE_CURVE ( 'NONE', #213, #116, #161, .T. ) ;
#4 = ORIENTED_EDGE ( 'NONE', *, *, #191, .T. ) ;
#5 = ORIENTED_EDGE ( 'NONE', *, *, #49, .F. ) ;
#6 = ORIENTED_EDGE ( 'NONE', *, *, #97, .F. ) ;
#7 = CIRCLE ( 'NONE', #94, 4.250000000000000000 ) ;
#8 = DIRECTION ( 'NONE',  ( 0.000000000000000000, 0.000000000000000000, 1.000000000000000000 ) ) ;
#9 = ORIENTED_EDGE ( 'NONE', *, *, #76, .T. ) ;
#10 = VECTOR ( 'NONE', #207, 1000.000000000000000 ) ;
#11 = ORIENTED_EDGE ( 'NONE', *, *, #140, .T. ) ;
#12 = DIRECTION ( 'NONE',  ( 0.000000000000000000, 0.000000000000000000, -1.000000000000000000 ) ) ;
#13 = CARTESIAN_POINT ( 'NONE',  ( -4.250000000000000000, 0.000000000000000000, 0.000000000000000000 ) ) ;
#14 = SECURITY_CLASSIFICATION ( '', '', #137 ) ;
#15 = DIRECTION ( 'NONE',  ( -0.000000000000000000, -0.000000000000000000, -1.000000000000000000 ) ) ;
#16 = CARTESIAN_POINT ( 'NONE',  ( -10.00000000000000000, 0.000000000000000000, 7.000000000000000000 ) ) ;
#17 = CALENDAR_DATE ( 2022, 8, 7 ) ;
#18 = ADVANCED_FACE ( 'NONE', ( #375 ), #200, .T. ) ;
#19 = AXIS2_PLACEMENT_3D ( 'NONE', #354, #88, #209 ) ;
#20 = DIRECTION ( 'NONE',  ( 0.000000000000000000, 0.000000000000000000, -1.000000000000000000 ) ) ;
#21 = DIRECTION ( 'NONE',  ( 1.000000000000000000, 0.000000000000000000, 0.000000000000000000 ) ) ;
#22 = DIRECTION ( 'NONE',  ( -1.000000000000000000, 0.000000000000000000, 0.000000000000000000 ) ) ;
#23 = AXIS2_PLACEMENT_3D ( 'NONE', #111, #167, #261 ) ;
#24 = APPROVAL_DATE_TIME ( #175, #254 ) ;
#25 = DESIGN_CONTEXT ( 'detailed design', #58, 'design' ) ;
#26 = VERTEX_POINT ( 'NONE', #102 ) ;
#27 = TOROIDAL_SURFACE ( 'NONE', #303, 6.700000000000001066, 0.6999999999999999556 ) ;
#28 = DIRECTION ( 'NONE',  ( 0.000000000000000000, 0.000000000000000000, 1.000000000000000000 ) ) ;
#29 = PRODUCT ( '8718', '8718', '', ( #89 ) ) ;
#30 = COORDINATED_UNIVERSAL_TIME_OFFSET ( 1, 0, .AHEAD. ) ;
#31 = DIRECTION ( 'NONE',  ( 1.000000000000000000, 0.000000000000000000, 0.000000000000000000 ) ) ;
#32 = APPLICATION_CONTEXT ( 'configuration controlled 3d designs of mechanical parts and assemblies' ) ;
#33 = ADVANCED_FACE ( 'NONE', ( #138 ), #314, .T. ) ;
#34 = EDGE_LOOP ( 'NONE', ( #11, #243, #188, #66 ) ) ;
#35 = CC_DESIGN_DATE_AND_TIME_ASSIGNMENT ( #50, #290, ( #14 ) ) ;
#36 = AXIS2_PLACEMENT_3D ( 'NONE', #48, #130, #86 ) ;
#37 = ORIENTED_EDGE ( 'NONE', *, *, #373, .T. ) ;
#38 = CARTESIAN_POINT ( 'NONE',  ( 0.000000000000000000, 0.000000000000000000, 0.000000000000000000 ) ) ;
#39 = VERTEX_POINT ( 'NONE', #106 ) ;
#40 = CARTESIAN_POINT ( 'NONE',  ( 0.000000000000000000, 0.000000000000000000, 307.0000000000000000 ) ) ;
#41 = ORIENTED_EDGE ( 'NONE', *, *, #353, .T. ) ;
#42 =( NAMED_UNIT ( * ) PLANE_ANGLE_UNIT ( ) SI_UNIT ( $, .RADIAN. ) );
#43 = AXIS2_PLACEMENT_3D ( 'NONE', #104, #319, #311 ) ;
#44 = ORIENTED_EDGE ( 'NONE', *, *, #3, .T. ) ;
#45 = EDGE_CURVE ( 'NONE', #181, #213, #84, .T. ) ;
#46 =( NAMED_UNIT ( * ) SI_UNIT ( $, .STERADIAN. ) SOLID_ANGLE_UNIT ( ) );
#47 = AXIS2_PLACEMENT_3D ( 'NONE', #59, #176, #180 ) ;
#48 = CARTESIAN_POINT ( 'NONE',  ( 0.000000000000000000, 0.000000000000000000, 7.000000000000000000 ) ) ;
#49 = EDGE_CURVE ( 'NONE', #215, #181, #198, .T. ) ;
#50 = DATE_AND_TIME ( #316, #266 ) ;
#51 = CARTESIAN_POINT ( 'NONE',  ( -4.250000000000000000, 0.000000000000000000, 307.0000000000000000 ) ) ;
#52 = AXIS2_PLACEMENT_3D ( 'NONE', #363, #310, #193 ) ;
#53 = CARTESIAN_POINT ( 'NONE',  ( 0.000000000000000000, 0.000000000000000000, 0.000000000000000000 ) ) ;
#54 = EDGE_CURVE ( 'NONE', #92, #213, #265, .T. ) ;
#55 = APPLICATION_PROTOCOL_DEFINITION ( 'international standard', 'config_control_design', 1994, #32 ) ;
#56 = FACE_OUTER_BOUND ( 'NONE', #74, .T. ) ;
#57 = APPLICATION_PROTOCOL_DEFINITION ( 'international standard', 'config_control_design', 1994, #58 ) ;
#58 = APPLICATION_CONTEXT ( 'configuration controlled 3d designs of mechanical parts and assemblies' ) ;
#59 = CARTESIAN_POINT ( 'NONE',  ( 0.000000000000000000, 0.000000000000000000, 7.000000000000000000 ) ) ;
#60 = ORIENTED_EDGE ( 'NONE', *, *, #54, .T. ) ;
#61 = CARTESIAN_POINT ( 'NONE',  ( 0.000000000000000000, 0.000000000000000000, 307.0000000000000000 ) ) ;
#62 = LOCAL_TIME ( 16, 30, 35.00000000000000000, #143 ) ;
#63 = EDGE_LOOP ( 'NONE', ( #5, #348, #60, #4 ) ) ;
#64 = LOCAL_TIME ( 16, 30, 35.00000000000000000, #30 ) ;
#65 = FACE_OUTER_BOUND ( 'NONE', #195, .T. ) ;
#66 = ORIENTED_EDGE ( 'NONE', *, *, #118, .F. ) ;
#67 = APPROVAL_ROLE ( '' ) ;
#68 = VECTOR ( 'NONE', #109, 1000.000000000000000 ) ;
#69 = DIRECTION ( 'NONE',  ( -0.000000000000000000, -0.000000000000000000, -1.000000000000000000 ) ) ;
#70 = ORIENTED_EDGE ( 'NONE', *, *, #367, .F. ) ;
#71 = AXIS2_PLACEMENT_3D ( 'NONE', #61, #117, #249 ) ;
#72 = ORIENTED_EDGE ( 'NONE', *, *, #153, .F. ) ;
#73 = CARTESIAN_POINT ( 'NONE',  ( -10.00000000000000000, 0.000000000000000000, 7.000000000000000000 ) ) ;
#74 = EDGE_LOOP ( 'NONE', ( #151, #300 ) ) ;
#75 = CIRCLE ( 'NONE', #336, 4.250000000000000000 ) ;
#76 = EDGE_CURVE ( 'NONE', #119, #26, #285, .T. ) ;
#77 = ORIENTED_EDGE ( 'NONE', *, *, #114, .F. ) ;
#78 = DIRECTION ( 'NONE',  ( 1.000000000000000000, 0.000000000000000000, 0.000000000000000000 ) ) ;
#79 = CIRCLE ( 'NONE', #358, 4.250000000000000000 ) ;
#80 = DIRECTION ( 'NONE',  ( 0.000000000000000000, 0.000000000000000000, -1.000000000000000000 ) ) ;
#81 = DIRECTION ( 'NONE',  ( -1.000000000000000000, 1.224646799147353454E-16, 0.000000000000000000 ) ) ;
#82 = AXIS2_PLACEMENT_3D ( 'NONE', #374, #202, #21 ) ;
#83 = CARTESIAN_POINT ( 'NONE',  ( -6.000000000000000888, 0.000000000000000000, 307.0000000000000000 ) ) ;
#84 = CIRCLE ( 'NONE', #23, 6.000000000000000888 ) ;
#85 = APPROVAL_STATUS ( 'not_yet_approved' ) ;
#86 = DIRECTION ( 'NONE',  ( -1.000000000000000000, 0.000000000000000000, 0.000000000000000000 ) ) ;
#87 = CIRCLE ( 'NONE', #71, 6.000000000000000888 ) ;
#88 = DIRECTION ( 'NONE',  ( 0.000000000000000000, 0.000000000000000000, -1.000000000000000000 ) ) ;
#89 = MECHANICAL_CONTEXT ( 'NONE', #32, 'mechanical' ) ;
#90 = ORIENTED_EDGE ( 'NONE', *, *, #347, .F. ) ;
#91 = PLANE ( 'NONE',  #101 ) ;
#92 = VERTEX_POINT ( 'NONE', #83 ) ;
#93 = FACE_BOUND ( 'NONE', #252, .T. ) ;
#94 = AXIS2_PLACEMENT_3D ( 'NONE', #100, #306, #78 ) ;
#95 = EDGE_LOOP ( 'NONE', ( #190, #177, #227, #225 ) ) ;
#96 = CC_DESIGN_APPROVAL ( #288, ( #14 ) ) ;
#97 = EDGE_CURVE ( 'NONE', #329, #119, #238, .T. ) ;
#98 = EDGE_LOOP ( 'NONE', ( #37, #157 ) ) ;
#99 = FACE_OUTER_BOUND ( 'NONE', #250, .T. ) ;
#100 = CARTESIAN_POINT ( 'NONE',  ( 0.000000000000000000, 0.000000000000000000, 0.000000000000000000 ) ) ;
#101 = AXIS2_PLACEMENT_3D ( 'NONE', #142, #269, #270 ) ;
#102 = CARTESIAN_POINT ( 'NONE',  ( 10.00000000000000000, 1.224646799147353256E-15, 0.000000000000000000 ) ) ;
#103 = CARTESIAN_POINT ( 'NONE',  ( 0.000000000000000000, 0.000000000000000000, 7.699999999999985079 ) ) ;
#104 = CARTESIAN_POINT ( 'NONE',  ( 0.000000000000000000, 0.000000000000000000, 7.000000000000000000 ) ) ;
#105 = DIRECTION ( 'NONE',  ( -1.000000000000000000, 0.000000000000000000, 0.000000000000000000 ) ) ;
#106 = CARTESIAN_POINT ( 'NONE',  ( 10.00000000000000000, 1.224646799147353256E-15, 7.000000000000000000 ) ) ;
#107 = PERSON_AND_ORGANIZATION_ROLE ( 'classification_officer' ) ;
#108 = AXIS2_PLACEMENT_3D ( 'NONE', #301, #1, #141 ) ;
#109 = DIRECTION ( 'NONE',  ( -0.000000000000000000, -0.000000000000000000, -1.000000000000000000 ) ) ;
#110 = PERSON_AND_ORGANIZATION ( #244, #298 ) ;
#111 = CARTESIAN_POINT ( 'NONE',  ( 0.000000000000000000, 0.000000000000000000, 7.699999999999985079 ) ) ;
#112 = VECTOR ( 'NONE', #234, 1000.000000000000000 ) ;
#113 = DATE_TIME_ROLE ( 'creation_date' ) ;
#114 = EDGE_CURVE ( 'NONE', #128, #116, #120, .T. ) ;
#115 = CIRCLE ( 'NONE', #131, 6.700000000000001066 ) ;
#116 = VERTEX_POINT ( 'NONE', #164 ) ;
#117 = DIRECTION ( 'NONE',  ( 0.000000000000000000, 0.000000000000000000, 1.000000000000000000 ) ) ;
#118 = EDGE_CURVE ( 'NONE', #359, #125, #205, .T. ) ;
#119 = VERTEX_POINT ( 'NONE', #173 ) ;
#120 = CIRCLE ( 'NONE', #43, 6.700000000000001066 ) ;
#121 = CYLINDRICAL_SURFACE ( 'NONE', #330, 10.00000000000000000 ) ;
#122 = ORIENTED_EDGE ( 'NONE', *, *, #76, .F. ) ;
#123 = EDGE_CURVE ( 'NONE', #281, #257, #291, .T. ) ;
#124 = ORIENTED_EDGE ( 'NONE', *, *, #114, .T. ) ;
#125 = VERTEX_POINT ( 'NONE', #13 ) ;
#126 = APPROVAL_PERSON_ORGANIZATION ( #376, #318, #241 ) ;
#127 = FACE_BOUND ( 'NONE', #304, .T. ) ;
#128 = VERTEX_POINT ( 'NONE', #273 ) ;
#129 =( LENGTH_UNIT ( ) NAMED_UNIT ( * ) SI_UNIT ( .MILLI., .METRE. ) );
#130 = DIRECTION ( 'NONE',  ( -0.000000000000000000, -0.000000000000000000, -1.000000000000000000 ) ) ;
#131 = AXIS2_PLACEMENT_3D ( 'NONE', #228, #69, #262 ) ;
#132 = CARTESIAN_POINT ( 'NONE',  ( 0.000000000000000000, 0.000000000000000000, 0.000000000000000000 ) ) ;
#133 = PRODUCT_DEFINITION ( 'NEZNÁMÝ', '', #283, #25 ) ;
#134 = APPROVAL_PERSON_ORGANIZATION ( #346, #288, #67 ) ;
#135 = DIRECTION ( 'NONE',  ( 0.000000000000000000, 0.000000000000000000, 1.000000000000000000 ) ) ;
#136 = CARTESIAN_POINT ( 'NONE',  ( 6.000000000000000888, 7.347880794884120722E-16, 307.0000000000000000 ) ) ;
#137 = SECURITY_CLASSIFICATION_LEVEL ( 'unclassified' ) ;
#138 = FACE_OUTER_BOUND ( 'NONE', #95, .T. ) ;
#139 = PERSON_AND_ORGANIZATION ( #244, #298 ) ;
#140 = EDGE_CURVE ( 'NONE', #359, #281, #79, .T. ) ;
#141 = DIRECTION ( 'NONE',  ( 1.000000000000000000, 0.000000000000000000, 0.000000000000000000 ) ) ;
#142 = CARTESIAN_POINT ( 'NONE',  ( 0.000000000000000000, 0.000000000000000000, 307.0000000000000000 ) ) ;
#143 = COORDINATED_UNIVERSAL_TIME_OFFSET ( 1, 0, .AHEAD. ) ;
#144 = CC_DESIGN_PERSON_AND_ORGANIZATION_ASSIGNMENT ( #139, #296, ( #283 ) ) ;
#145 = CIRCLE ( 'NONE', #158, 6.000000000000000888 ) ;
#146 = DIRECTION ( 'NONE',  ( -0.000000000000000000, -0.000000000000000000, -1.000000000000000000 ) ) ;
#147 = CC_DESIGN_APPROVAL ( #254, ( #283 ) ) ;
#148 = DIRECTION ( 'NONE',  ( 1.000000000000000000, 0.000000000000000000, 0.000000000000000000 ) ) ;
#149 = CALENDAR_DATE ( 2022, 8, 7 ) ;
#150 = LINE ( 'NONE', #212, #320 ) ;
#151 = ORIENTED_EDGE ( 'NONE', *, *, #156, .T. ) ;
#152 = CIRCLE ( 'NONE', #52, 4.250000000000000000 ) ;
#153 = EDGE_CURVE ( 'NONE', #39, #26, #150, .T. ) ;
#154 = ORIENTED_EDGE ( 'NONE', *, *, #45, .F. ) ;
#155 = ORIENTED_EDGE ( 'NONE', *, *, #267, .T. ) ;
#156 = EDGE_CURVE ( 'NONE', #329, #39, #174, .T. ) ;
#157 = ORIENTED_EDGE ( 'NONE', *, *, #186, .T. ) ;
#158 = AXIS2_PLACEMENT_3D ( 'NONE', #40, #135, #159 ) ;
#159 = DIRECTION ( 'NONE',  ( 1.000000000000000000, 0.000000000000000000, 0.000000000000000000 ) ) ;
#160 = ORIENTED_EDGE ( 'NONE', *, *, #97, .T. ) ;
#161 = CIRCLE ( 'NONE', #345, 0.7000000000000000666 ) ;
#162 = FACE_OUTER_BOUND ( 'NONE', #63, .T. ) ;
#163 = CYLINDRICAL_SURFACE ( 'NONE', #360, 6.000000000000000888 ) ;
#164 = CARTESIAN_POINT ( 'NONE',  ( -6.700000000000001066, 8.205133554287267548E-16, 6.999999999999992006 ) ) ;
#165 = AXIS2_PLACEMENT_3D ( 'NONE', #242, #294, #148 ) ;
#166 = DIRECTION ( 'NONE',  ( 0.000000000000000000, -1.000000000000000000, 0.000000000000000000 ) ) ;
#167 = DIRECTION ( 'NONE',  ( 0.000000000000000000, 0.000000000000000000, 1.000000000000000000 ) ) ;
#168 = PERSON_AND_ORGANIZATION_ROLE ( 'creator' ) ;
#169 = VECTOR ( 'NONE', #343, 1000.000000000000000 ) ;
#170 = DIRECTION ( 'NONE',  ( -0.000000000000000000, -0.000000000000000000, -1.000000000000000000 ) ) ;
#171 = COORDINATED_UNIVERSAL_TIME_OFFSET ( 1, 0, .AHEAD. ) ;
#172 = EDGE_CURVE ( 'NONE', #39, #329, #380, .T. ) ;
#173 = CARTESIAN_POINT ( 'NONE',  ( -10.00000000000000000, 0.000000000000000000, 0.000000000000000000 ) ) ;
#174 = CIRCLE ( 'NONE', #108, 10.00000000000000000 ) ;
#175 = DATE_AND_TIME ( #370, #217 ) ;
#176 = DIRECTION ( 'NONE',  ( 0.000000000000000000, 0.000000000000000000, 1.000000000000000000 ) ) ;
#177 = ORIENTED_EDGE ( 'NONE', *, *, #49, .T. ) ;
#178 = CC_DESIGN_PERSON_AND_ORGANIZATION_ASSIGNMENT ( #378, #179, ( #283 ) ) ;
#179 = PERSON_AND_ORGANIZATION_ROLE ( 'creator' ) ;
#180 = DIRECTION ( 'NONE',  ( 1.000000000000000000, 0.000000000000000000, -0.000000000000000000 ) ) ;
#181 = VERTEX_POINT ( 'NONE', #381 ) ;
#182 = CIRCLE ( 'NONE', #194, 10.00000000000000000 ) ;
#183 = CARTESIAN_POINT ( 'NONE',  ( 6.700000000000001066, 0.000000000000000000, 7.699999999999985079 ) ) ;
#184 = EDGE_LOOP ( 'NONE', ( #246, #259, #351, #6 ) ) ;
#185 = CARTESIAN_POINT ( 'NONE',  ( 0.000000000000000000, 0.000000000000000000, 307.0000000000000000 ) ) ;
#186 = EDGE_CURVE ( 'NONE', #215, #92, #87, .T. ) ;
#187 = CIRCLE ( 'NONE', #324, 0.7000000000000000666 ) ;
#188 = ORIENTED_EDGE ( 'NONE', *, *, #302, .T. ) ;
#189 = APPROVAL_DATE_TIME ( #253, #288 ) ;
#190 = ORIENTED_EDGE ( 'NONE', *, *, #186, .F. ) ;
#191 = EDGE_CURVE ( 'NONE', #213, #181, #229, .T. ) ;
#192 = ORIENTED_EDGE ( 'NONE', *, *, #123, .F. ) ;
#193 = DIRECTION ( 'NONE',  ( 1.000000000000000000, 0.000000000000000000, 0.000000000000000000 ) ) ;
#194 = AXIS2_PLACEMENT_3D ( 'NONE', #132, #233, #199 ) ;
#195 = EDGE_LOOP ( 'NONE', ( #192, #41, #326, #295 ) ) ;
#196 = ADVANCED_FACE ( 'NONE', ( #293 ), #121, .T. ) ;
#197 = DIRECTION ( 'NONE',  ( 0.000000000000000000, 0.000000000000000000, 1.000000000000000000 ) ) ;
#198 = LINE ( 'NONE', #136, #10 ) ;
#199 = DIRECTION ( 'NONE',  ( 1.000000000000000000, 0.000000000000000000, 0.000000000000000000 ) ) ;
#200 = CYLINDRICAL_SURFACE ( 'NONE', #36, 10.00000000000000000 ) ;
#201 = MANIFOLD_SOLID_BREP ( 'Odebrat vysunutím3', #327 ) ;
#202 = DIRECTION ( 'NONE',  ( 0.000000000000000000, 0.000000000000000000, 1.000000000000000000 ) ) ;
#203 = CARTESIAN_POINT ( 'NONE',  ( -6.000000000000000888, 0.000000000000000000, 307.0000000000000000 ) ) ;
#204 = PERSON_AND_ORGANIZATION_ROLE ( 'design_owner' ) ;
#205 = LINE ( 'NONE', #51, #169 ) ;
#206 = APPROVAL_DATE_TIME ( #315, #318 ) ;
#207 = DIRECTION ( 'NONE',  ( -0.000000000000000000, -0.000000000000000000, -1.000000000000000000 ) ) ;
#208 = APPROVAL_STATUS ( 'not_yet_approved' ) ;
#209 = DIRECTION ( 'NONE',  ( -1.000000000000000000, 0.000000000000000000, 0.000000000000000000 ) ) ;
#210 = CC_DESIGN_PERSON_AND_ORGANIZATION_ASSIGNMENT ( #110, #204, ( #29 ) ) ;
#211 = ORIENTED_EDGE ( 'NONE', *, *, #353, .F. ) ;
#212 = CARTESIAN_POINT ( 'NONE',  ( 10.00000000000000000, 1.224646799147353256E-15, 7.000000000000000000 ) ) ;
#213 = VERTEX_POINT ( 'NONE', #245 ) ;
#214 = FACE_OUTER_BOUND ( 'NONE', #331, .T. ) ;
#215 = VERTEX_POINT ( 'NONE', #355 ) ;
#216 = ADVANCED_BREP_SHAPE_REPRESENTATION ( '8718', ( #201, #82 ), #286 ) ;
#217 = LOCAL_TIME ( 16, 30, 35.00000000000000000, #321 ) ;
#218 = CARTESIAN_POINT ( 'NONE',  ( 0.000000000000000000, 0.000000000000000000, 7.000000000000000000 ) ) ;
#219 = ORIENTED_EDGE ( 'NONE', *, *, #191, .F. ) ;
#220 = ADVANCED_FACE ( 'NONE', ( #93, #325 ), #91, .T. ) ;
#221 = AXIS2_PLACEMENT_3D ( 'NONE', #263, #170, #372 ) ;
#222 = ORIENTED_EDGE ( 'NONE', *, *, #347, .T. ) ;
#223 = ORIENTED_EDGE ( 'NONE', *, *, #302, .F. ) ;
#224 = PRODUCT_RELATED_PRODUCT_CATEGORY ( 'detail', '', ( #29 ) ) ;
#225 = ORIENTED_EDGE ( 'NONE', *, *, #54, .F. ) ;
#226 = DIRECTION ( 'NONE',  ( 1.000000000000000000, 0.000000000000000000, -0.000000000000000000 ) ) ;
#227 = ORIENTED_EDGE ( 'NONE', *, *, #45, .T. ) ;
#228 = CARTESIAN_POINT ( 'NONE',  ( 0.000000000000000000, 0.000000000000000000, 7.000000000000000000 ) ) ;
#229 = CIRCLE ( 'NONE', #350, 6.000000000000000888 ) ;
#230 = ADVANCED_FACE ( 'NONE', ( #65 ), #377, .F. ) ;
#231 = DIRECTION ( 'NONE',  ( 0.000000000000000000, 0.000000000000000000, 1.000000000000000000 ) ) ;
#232 = DIRECTION ( 'NONE',  ( 0.000000000000000000, 0.000000000000000000, 1.000000000000000000 ) ) ;
#233 = DIRECTION ( 'NONE',  ( 0.000000000000000000, 0.000000000000000000, 1.000000000000000000 ) ) ;
#234 = DIRECTION ( 'NONE',  ( -0.000000000000000000, -0.000000000000000000, -1.000000000000000000 ) ) ;
#235 = CC_DESIGN_APPROVAL ( #318, ( #133 ) ) ;
#236 = CALENDAR_DATE ( 2022, 8, 7 ) ;
#237 = PERSON_AND_ORGANIZATION ( #244, #298 ) ;
#238 = LINE ( 'NONE', #16, #112 ) ;
#239 = ADVANCED_FACE ( 'NONE', ( #322, #56 ), #352, .T. ) ;
#240 = DIRECTION ( 'NONE',  ( 1.000000000000000000, 0.000000000000000000, 0.000000000000000000 ) ) ;
#241 = APPROVAL_ROLE ( '' ) ;
#242 = CARTESIAN_POINT ( 'NONE',  ( 0.000000000000000000, 0.000000000000000000, 7.000000000000000000 ) ) ;
#243 = ORIENTED_EDGE ( 'NONE', *, *, #123, .T. ) ;
#244 = PERSON ( 'NEURÈENÝ', 'NEURÈENÝ', 'NEURÈENÝ', ('NEURÈENÝ'), ('NEURÈENÝ'), ('NEURÈENÝ') ) ;
#245 = CARTESIAN_POINT ( 'NONE',  ( -6.000000000000000888, 0.000000000000000000, 7.699999999999985079 ) ) ;
#246 = ORIENTED_EDGE ( 'NONE', *, *, #172, .F. ) ;
#247 = DIRECTION ( 'NONE',  ( -0.000000000000000000, -0.000000000000000000, -1.000000000000000000 ) ) ;
#248 = AXIS2_PLACEMENT_3D ( 'NONE', #38, #8, #226 ) ;
#249 = DIRECTION ( 'NONE',  ( 1.000000000000000000, 0.000000000000000000, 0.000000000000000000 ) ) ;
#250 = EDGE_LOOP ( 'NONE', ( #122, #308 ) ) ;
#251 = AXIS2_PLACEMENT_3D ( 'NONE', #53, #231, #289 ) ;
#252 = EDGE_LOOP ( 'NONE', ( #255, #211 ) ) ;
#253 = DATE_AND_TIME ( #149, #64 ) ;
#254 = APPROVAL ( #208, 'NEURÈENÝ' ) ;
#255 = ORIENTED_EDGE ( 'NONE', *, *, #140, .F. ) ;
#256 = CARTESIAN_POINT ( 'NONE',  ( 0.000000000000000000, 0.000000000000000000, 307.0000000000000000 ) ) ;
#257 = VERTEX_POINT ( 'NONE', #297 ) ;
#258 = FACE_OUTER_BOUND ( 'NONE', #34, .T. ) ;
#259 = ORIENTED_EDGE ( 'NONE', *, *, #153, .T. ) ;
#260 = ADVANCED_FACE ( 'NONE', ( #214 ), #27, .F. ) ;
#261 = DIRECTION ( 'NONE',  ( 1.000000000000000000, 0.000000000000000000, 0.000000000000000000 ) ) ;
#262 = DIRECTION ( 'NONE',  ( 1.000000000000000000, 0.000000000000000000, 0.000000000000000000 ) ) ;
#263 = CARTESIAN_POINT ( 'NONE',  ( 0.000000000000000000, 0.000000000000000000, 307.0000000000000000 ) ) ;
#264 = PERSON_AND_ORGANIZATION ( #244, #298 ) ;
#265 = LINE ( 'NONE', #203, #68 ) ;
#266 = LOCAL_TIME ( 16, 30, 35.00000000000000000, #344 ) ;
#267 = EDGE_CURVE ( 'NONE', #181, #128, #187, .T. ) ;
#268 = VECTOR ( 'NONE', #20, 1000.000000000000000 ) ;
#269 = DIRECTION ( 'NONE',  ( 0.000000000000000000, 0.000000000000000000, 1.000000000000000000 ) ) ;
#270 = DIRECTION ( 'NONE',  ( 1.000000000000000000, 0.000000000000000000, -0.000000000000000000 ) ) ;
#271 = AXIS2_PLACEMENT_3D ( 'NONE', #256, #80, #105 ) ;
#272 = APPROVAL_ROLE ( '' ) ;
#273 = CARTESIAN_POINT ( 'NONE',  ( 6.700000000000001066, 0.000000000000000000, 6.999999999999992006 ) ) ;
#274 = DIRECTION ( 'NONE',  ( 0.000000000000000000, 0.000000000000000000, 1.000000000000000000 ) ) ;
#275 = CC_DESIGN_PERSON_AND_ORGANIZATION_ASSIGNMENT ( #264, #107, ( #14 ) ) ;
#276 = ORIENTED_EDGE ( 'NONE', *, *, #156, .F. ) ;
#277 = SHAPE_DEFINITION_REPRESENTATION ( #365, #216 ) ;
#278 = CARTESIAN_POINT ( 'NONE',  ( 0.000000000000000000, 0.000000000000000000, 307.0000000000000000 ) ) ;
#279 = EDGE_LOOP ( 'NONE', ( #124, #222 ) ) ;
#280 = ADVANCED_FACE ( 'NONE', ( #127, #99 ), #337, .F. ) ;
#281 = VERTEX_POINT ( 'NONE', #364 ) ;
#282 = DIRECTION ( 'NONE',  ( 1.000000000000000000, 0.000000000000000000, 0.000000000000000000 ) ) ;
#283 = PRODUCT_DEFINITION_FORMATION_WITH_SPECIFIED_SOURCE ( 'LIBOVOLNÝ', '', #29, .NOT_KNOWN. ) ;
#284 = DIRECTION ( 'NONE',  ( -1.000000000000000000, 0.000000000000000000, 0.000000000000000000 ) ) ;
#285 = CIRCLE ( 'NONE', #251, 10.00000000000000000 ) ;
#286 =( GEOMETRIC_REPRESENTATION_CONTEXT ( 3 ) GLOBAL_UNCERTAINTY_ASSIGNED_CONTEXT ( ( #305 ) ) GLOBAL_UNIT_ASSIGNED_CONTEXT ( ( #129, #42, #46 ) ) REPRESENTATION_CONTEXT ( 'NONE', 'WORKASPACE' ) );
#287 = CARTESIAN_POINT ( 'NONE',  ( 4.250000000000000000, 5.204748896376250699E-16, 307.0000000000000000 ) ) ;
#288 = APPROVAL ( #317, 'NEURÈENÝ' ) ;
#289 = DIRECTION ( 'NONE',  ( 1.000000000000000000, 0.000000000000000000, 0.000000000000000000 ) ) ;
#290 = DATE_TIME_ROLE ( 'classification_date' ) ;
#291 = LINE ( 'NONE', #287, #268 ) ;
#292 = TOROIDAL_SURFACE ( 'NONE', #2, 6.700000000000001066, 0.6999999999999999556 ) ;
#293 = FACE_OUTER_BOUND ( 'NONE', #184, .T. ) ;
#294 = DIRECTION ( 'NONE',  ( 0.000000000000000000, 0.000000000000000000, 1.000000000000000000 ) ) ;
#295 = ORIENTED_EDGE ( 'NONE', *, *, #367, .T. ) ;
#296 = PERSON_AND_ORGANIZATION_ROLE ( 'design_supplier' ) ;
#297 = CARTESIAN_POINT ( 'NONE',  ( 4.250000000000000000, 5.204748896376250699E-16, 0.000000000000000000 ) ) ;
#298 = ORGANIZATION ( 'NEURÈENÝ', 'NEURÈENÝ', '' ) ;
#299 = CARTESIAN_POINT ( 'NONE',  ( 0.000000000000000000, 0.000000000000000000, 7.699999999999985079 ) ) ;
#300 = ORIENTED_EDGE ( 'NONE', *, *, #172, .T. ) ;
#301 = CARTESIAN_POINT ( 'NONE',  ( 0.000000000000000000, 0.000000000000000000, 7.000000000000000000 ) ) ;
#302 = EDGE_CURVE ( 'NONE', #257, #125, #7, .T. ) ;
#303 = AXIS2_PLACEMENT_3D ( 'NONE', #299, #28, #282 ) ;
#304 = EDGE_LOOP ( 'NONE', ( #70, #223 ) ) ;
#305 = UNCERTAINTY_MEASURE_WITH_UNIT (LENGTH_MEASURE( 1.000000000000000082E-05 ), #129, 'distance_accuracy_value', 'NONE');
#306 = DIRECTION ( 'NONE',  ( -0.000000000000000000, -0.000000000000000000, -1.000000000000000000 ) ) ;
#307 = ADVANCED_FACE ( 'NONE', ( #258 ), #333, .F. ) ;
#308 = ORIENTED_EDGE ( 'NONE', *, *, #338, .F. ) ;
#309 = CC_DESIGN_SECURITY_CLASSIFICATION ( #14, ( #283 ) ) ;
#310 = DIRECTION ( 'NONE',  ( -0.000000000000000000, -0.000000000000000000, -1.000000000000000000 ) ) ;
#311 = DIRECTION ( 'NONE',  ( 1.000000000000000000, 0.000000000000000000, 0.000000000000000000 ) ) ;
#312 = CC_DESIGN_PERSON_AND_ORGANIZATION_ASSIGNMENT ( #237, #168, ( #133 ) ) ;
#313 = DIRECTION ( 'NONE',  ( 1.000000000000000000, 0.000000000000000000, 0.000000000000000000 ) ) ;
#314 = CYLINDRICAL_SURFACE ( 'NONE', #221, 6.000000000000000888 ) ;
#315 = DATE_AND_TIME ( #236, #342 ) ;
#316 = CALENDAR_DATE ( 2022, 8, 7 ) ;
#317 = APPROVAL_STATUS ( 'not_yet_approved' ) ;
#318 = APPROVAL ( #85, 'NEURÈENÝ' ) ;
#319 = DIRECTION ( 'NONE',  ( -0.000000000000000000, -0.000000000000000000, -1.000000000000000000 ) ) ;
#320 = VECTOR ( 'NONE', #146, 1000.000000000000000 ) ;
#321 = COORDINATED_UNIVERSAL_TIME_OFFSET ( 1, 0, .AHEAD. ) ;
#322 = FACE_BOUND ( 'NONE', #279, .T. ) ;
#323 = EDGE_LOOP ( 'NONE', ( #72, #276, #160, #9 ) ) ;
#324 = AXIS2_PLACEMENT_3D ( 'NONE', #183, #166, #12 ) ;
#325 = FACE_OUTER_BOUND ( 'NONE', #98, .T. ) ;
#326 = ORIENTED_EDGE ( 'NONE', *, *, #118, .T. ) ;
#327 = CLOSED_SHELL ( 'NONE', ( #307, #260, #33, #196, #18, #239, #280, #379, #220, #362, #230 ) ) ;
#328 = DIRECTION ( 'NONE',  ( 0.000000000000000000, 0.000000000000000000, 1.000000000000000000 ) ) ;
#329 = VERTEX_POINT ( 'NONE', #73 ) ;
#330 = AXIS2_PLACEMENT_3D ( 'NONE', #218, #247, #22 ) ;
#331 = EDGE_LOOP ( 'NONE', ( #219, #44, #77, #334 ) ) ;
#332 = CC_DESIGN_DATE_AND_TIME_ASSIGNMENT ( #341, #113, ( #133 ) ) ;
#333 = CYLINDRICAL_SURFACE ( 'NONE', #271, 4.250000000000000000 ) ;
#334 = ORIENTED_EDGE ( 'NONE', *, *, #267, .F. ) ;
#335 = CARTESIAN_POINT ( 'NONE',  ( 0.000000000000000000, 0.000000000000000000, 307.0000000000000000 ) ) ;
#336 = AXIS2_PLACEMENT_3D ( 'NONE', #185, #197, #366 ) ;
#337 = PLANE ( 'NONE',  #248 ) ;
#338 = EDGE_CURVE ( 'NONE', #26, #119, #182, .T. ) ;
#339 = FACE_OUTER_BOUND ( 'NONE', #361, .T. ) ;
#340 = DIRECTION ( 'NONE',  ( 1.224646799147353207E-16, 1.000000000000000000, -0.000000000000000000 ) ) ;
#341 = DATE_AND_TIME ( #17, #62 ) ;
#342 = LOCAL_TIME ( 16, 30, 35.00000000000000000, #171 ) ;
#343 = DIRECTION ( 'NONE',  ( 0.000000000000000000, 0.000000000000000000, -1.000000000000000000 ) ) ;
#344 = COORDINATED_UNIVERSAL_TIME_OFFSET ( 1, 0, .AHEAD. ) ;
#345 = AXIS2_PLACEMENT_3D ( 'NONE', #369, #340, #81 ) ;
#346 = PERSON_AND_ORGANIZATION ( #244, #298 ) ;
#347 = EDGE_CURVE ( 'NONE', #116, #128, #115, .T. ) ;
#348 = ORIENTED_EDGE ( 'NONE', *, *, #373, .F. ) ;
#349 = PERSON_AND_ORGANIZATION ( #244, #298 ) ;
#350 = AXIS2_PLACEMENT_3D ( 'NONE', #356, #328, #240 ) ;
#351 = ORIENTED_EDGE ( 'NONE', *, *, #338, .T. ) ;
#352 = PLANE ( 'NONE',  #47 ) ;
#353 = EDGE_CURVE ( 'NONE', #281, #359, #75, .T. ) ;
#354 = CARTESIAN_POINT ( 'NONE',  ( 0.000000000000000000, 0.000000000000000000, 307.0000000000000000 ) ) ;
#355 = CARTESIAN_POINT ( 'NONE',  ( 6.000000000000000888, 7.347880794884120722E-16, 307.0000000000000000 ) ) ;
#356 = CARTESIAN_POINT ( 'NONE',  ( 0.000000000000000000, 0.000000000000000000, 7.699999999999985079 ) ) ;
#357 = ORIENTED_EDGE ( 'NONE', *, *, #3, .F. ) ;
#358 = AXIS2_PLACEMENT_3D ( 'NONE', #278, #274, #31 ) ;
#359 = VERTEX_POINT ( 'NONE', #368 ) ;
#360 = AXIS2_PLACEMENT_3D ( 'NONE', #335, #15, #284 ) ;
#361 = EDGE_LOOP ( 'NONE', ( #357, #154, #155, #90 ) ) ;
#362 = ADVANCED_FACE ( 'NONE', ( #339 ), #292, .F. ) ;
#363 = CARTESIAN_POINT ( 'NONE',  ( 0.000000000000000000, 0.000000000000000000, 0.000000000000000000 ) ) ;
#364 = CARTESIAN_POINT ( 'NONE',  ( 4.250000000000000000, 5.204748896376250699E-16, 307.0000000000000000 ) ) ;
#365 = PRODUCT_DEFINITION_SHAPE ( 'NONE', 'NONE',  #133 ) ;
#366 = DIRECTION ( 'NONE',  ( 1.000000000000000000, 0.000000000000000000, 0.000000000000000000 ) ) ;
#367 = EDGE_CURVE ( 'NONE', #125, #257, #152, .T. ) ;
#368 = CARTESIAN_POINT ( 'NONE',  ( -4.250000000000000000, 0.000000000000000000, 307.0000000000000000 ) ) ;
#369 = CARTESIAN_POINT ( 'NONE',  ( -6.700000000000001066, 8.205133554287267548E-16, 7.699999999999985079 ) ) ;
#370 = CALENDAR_DATE ( 2022, 8, 7 ) ;
#371 = APPROVAL_PERSON_ORGANIZATION ( #349, #254, #272 ) ;
#372 = DIRECTION ( 'NONE',  ( -1.000000000000000000, 0.000000000000000000, 0.000000000000000000 ) ) ;
#373 = EDGE_CURVE ( 'NONE', #92, #215, #145, .T. ) ;
#374 = CARTESIAN_POINT ( 'NONE',  ( 0.000000000000000000, 0.000000000000000000, 0.000000000000000000 ) ) ;
#375 = FACE_OUTER_BOUND ( 'NONE', #323, .T. ) ;
#376 = PERSON_AND_ORGANIZATION ( #244, #298 ) ;
#377 = CYLINDRICAL_SURFACE ( 'NONE', #19, 4.250000000000000000 ) ;
#378 = PERSON_AND_ORGANIZATION ( #244, #298 ) ;
#379 = ADVANCED_FACE ( 'NONE', ( #162 ), #163, .T. ) ;
#380 = CIRCLE ( 'NONE', #165, 10.00000000000000000 ) ;
#381 = CARTESIAN_POINT ( 'NONE',  ( 6.000000000000000888, 7.347880794884120722E-16, 7.699999999999985079 ) ) ;
ENDSEC;
END-ISO-10303-21;
