ISO-10303-21;
HEADER;
FILE_DESCRIPTION (( 'STEP AP203' ),
    '1' );
FILE_NAME ('5a56.STEP',
    '2022-07-08T15:11:01',
    ( '' ),
    ( '' ),
    'SwSTEP 2.0',
    'SolidWorks 2019',
    '' );
FILE_SCHEMA (( 'CONFIG_CONTROL_DESIGN' ));
ENDSEC;

DATA;
#1 = CARTESIAN_POINT ( 'NONE',  ( 0.000000000000000000, 0.000000000000000000, 7.000000000000000000 ) ) ;
#2 = CARTESIAN_POINT ( 'NONE',  ( 0.000000000000000000, 0.000000000000000000, 707.0000000000000000 ) ) ;
#3 = ADVANCED_FACE ( 'NONE', ( #221, #322 ), #168, .T. ) ;
#4 = DIRECTION ( 'NONE',  ( 0.000000000000000000, 0.000000000000000000, 1.000000000000000000 ) ) ;
#5 = DIRECTION ( 'NONE',  ( 1.000000000000000000, 0.000000000000000000, 0.000000000000000000 ) ) ;
#6 = DIRECTION ( 'NONE',  ( -0.000000000000000000, -0.000000000000000000, -1.000000000000000000 ) ) ;
#7 = CARTESIAN_POINT ( 'NONE',  ( 0.000000000000000000, 0.000000000000000000, 7.000000000000000000 ) ) ;
#8 = ADVANCED_FACE ( 'NONE', ( #108 ), #260, .F. ) ;
#9 = AXIS2_PLACEMENT_3D ( 'NONE', #159, #42, #214 ) ;
#10 = VERTEX_POINT ( 'NONE', #84 ) ;
#11 = ADVANCED_FACE ( 'NONE', ( #327 ), #86, .F. ) ;
#12 = CARTESIAN_POINT ( 'NONE',  ( 6.000000000000000888, 7.347880794884120722E-16, 707.0000000000000000 ) ) ;
#13 = ORIENTED_EDGE ( 'NONE', *, *, #321, .T. ) ;
#14 = APPLICATION_PROTOCOL_DEFINITION ( 'international standard', 'config_control_design', 1994, #111 ) ;
#15 = VERTEX_POINT ( 'NONE', #353 ) ;
#16 = DIRECTION ( 'NONE',  ( -1.000000000000000000, 0.000000000000000000, 0.000000000000000000 ) ) ;
#17 = VERTEX_POINT ( 'NONE', #377 ) ;
#18 = EDGE_CURVE ( 'NONE', #340, #45, #234, .T. ) ;
#19 = PERSON_AND_ORGANIZATION_ROLE ( 'classification_officer' ) ;
#20 = CARTESIAN_POINT ( 'NONE',  ( 0.000000000000000000, 0.000000000000000000, 7.000000000000000000 ) ) ;
#21 = CARTESIAN_POINT ( 'NONE',  ( 0.000000000000000000, 0.000000000000000000, 707.0000000000000000 ) ) ;
#22 = LOCAL_TIME ( 17, 11, 1.000000000000000000, #292 ) ;
#23 = DATE_TIME_ROLE ( 'classification_date' ) ;
#24 = CARTESIAN_POINT ( 'NONE',  ( 6.500000000000000888, 0.000000000000000000, 6.999999999999975131 ) ) ;
#25 = PRODUCT_DEFINITION_SHAPE ( 'NONE', 'NONE',  #332 ) ;
#26 = CC_DESIGN_PERSON_AND_ORGANIZATION_ASSIGNMENT ( #288, #164, ( #297 ) ) ;
#27 = FACE_OUTER_BOUND ( 'NONE', #338, .T. ) ;
#28 = DATE_AND_TIME ( #379, #126 ) ;
#29 = ORIENTED_EDGE ( 'NONE', *, *, #41, .T. ) ;
#30 = FACE_OUTER_BOUND ( 'NONE', #247, .T. ) ;
#31 = ADVANCED_FACE ( 'NONE', ( #165 ), #294, .T. ) ;
#32 = DIRECTION ( 'NONE',  ( 1.000000000000000000, 0.000000000000000000, 0.000000000000000000 ) ) ;
#33 = CARTESIAN_POINT ( 'NONE',  ( 0.000000000000000000, 0.000000000000000000, 7.499999999999951150 ) ) ;
#34 = CARTESIAN_POINT ( 'NONE',  ( 0.000000000000000000, 0.000000000000000000, 0.000000000000000000 ) ) ;
#35 = CARTESIAN_POINT ( 'NONE',  ( -10.00000000000000000, 0.000000000000000000, 0.000000000000000000 ) ) ;
#36 = ADVANCED_FACE ( 'NONE', ( #349, #27 ), #79, .F. ) ;
#37 = DIRECTION ( 'NONE',  ( -0.000000000000000000, -0.000000000000000000, -1.000000000000000000 ) ) ;
#38 = APPROVAL_PERSON_ORGANIZATION ( #75, #61, #263 ) ;
#39 = MECHANICAL_CONTEXT ( 'NONE', #111, 'mechanical' ) ;
#40 = ORIENTED_EDGE ( 'NONE', *, *, #157, .F. ) ;
#41 = EDGE_CURVE ( 'NONE', #100, #45, #281, .T. ) ;
#42 = DIRECTION ( 'NONE',  ( 0.000000000000000000, 0.000000000000000000, 1.000000000000000000 ) ) ;
#43 = ORIENTED_EDGE ( 'NONE', *, *, #276, .F. ) ;
#44 = CALENDAR_DATE ( 2022, 8, 7 ) ;
#45 = VERTEX_POINT ( 'NONE', #24 ) ;
#46 = FACE_OUTER_BOUND ( 'NONE', #163, .T. ) ;
#47 = VECTOR ( 'NONE', #142, 1000.000000000000000 ) ;
#48 = EDGE_LOOP ( 'NONE', ( #372, #345, #211, #13 ) ) ;
#49 = ORIENTED_EDGE ( 'NONE', *, *, #172, .F. ) ;
#50 = CARTESIAN_POINT ( 'NONE',  ( -2.500000000000000000, 0.000000000000000000, 707.0000000000000000 ) ) ;
#51 = AXIS2_PLACEMENT_3D ( 'NONE', #139, #166, #264 ) ;
#52 = CARTESIAN_POINT ( 'NONE',  ( 0.000000000000000000, 0.000000000000000000, 707.0000000000000000 ) ) ;
#53 = EDGE_CURVE ( 'NONE', #15, #17, #326, .T. ) ;
#54 = EDGE_LOOP ( 'NONE', ( #49, #284, #278, #192 ) ) ;
#55 = EDGE_LOOP ( 'NONE', ( #125, #123 ) ) ;
#56 = CARTESIAN_POINT ( 'NONE',  ( 10.00000000000000000, 1.224646799147353256E-15, 7.000000000000000000 ) ) ;
#57 = AXIS2_PLACEMENT_3D ( 'NONE', #33, #171, #146 ) ;
#58 = DIRECTION ( 'NONE',  ( 1.000000000000000000, 0.000000000000000000, 0.000000000000000000 ) ) ;
#59 = AXIS2_PLACEMENT_3D ( 'NONE', #82, #324, #320 ) ;
#60 = DIRECTION ( 'NONE',  ( 1.000000000000000000, 0.000000000000000000, 0.000000000000000000 ) ) ;
#61 = APPROVAL ( #251, 'NEURÈENÝ' ) ;
#62 = CARTESIAN_POINT ( 'NONE',  ( 0.000000000000000000, 0.000000000000000000, 707.0000000000000000 ) ) ;
#63 = CARTESIAN_POINT ( 'NONE',  ( 0.000000000000000000, 0.000000000000000000, 707.0000000000000000 ) ) ;
#64 = PERSON_AND_ORGANIZATION ( #83, #303 ) ;
#65 = EDGE_LOOP ( 'NONE', ( #73, #160 ) ) ;
#66 = AXIS2_PLACEMENT_3D ( 'NONE', #93, #175, #356 ) ;
#67 = PERSON_AND_ORGANIZATION ( #83, #303 ) ;
#68 = VERTEX_POINT ( 'NONE', #354 ) ;
#69 = DIRECTION ( 'NONE',  ( -1.000000000000000000, 0.000000000000000000, 0.000000000000000000 ) ) ;
#70 = ORIENTED_EDGE ( 'NONE', *, *, #115, .T. ) ;
#71 = VECTOR ( 'NONE', #112, 1000.000000000000000 ) ;
#72 =( LENGTH_UNIT ( ) NAMED_UNIT ( * ) SI_UNIT ( .MILLI., .METRE. ) );
#73 = ORIENTED_EDGE ( 'NONE', *, *, #92, .T. ) ;
#74 = PRODUCT_RELATED_PRODUCT_CATEGORY ( 'detail', '', ( #283 ) ) ;
#75 = PERSON_AND_ORGANIZATION ( #83, #303 ) ;
#76 = LOCAL_TIME ( 17, 11, 1.000000000000000000, #124 ) ;
#77 = ORIENTED_EDGE ( 'NONE', *, *, #115, .F. ) ;
#78 = DIRECTION ( 'NONE',  ( 0.000000000000000000, 0.000000000000000000, 1.000000000000000000 ) ) ;
#79 = PLANE ( 'NONE',  #59 ) ;
#80 = EDGE_CURVE ( 'NONE', #10, #317, #198, .T. ) ;
#81 = PERSON_AND_ORGANIZATION ( #83, #303 ) ;
#82 = CARTESIAN_POINT ( 'NONE',  ( 0.000000000000000000, 0.000000000000000000, 0.000000000000000000 ) ) ;
#83 = PERSON ( 'NEURÈENÝ', 'NEURÈENÝ', 'NEURÈENÝ', ('NEURÈENÝ'), ('NEURÈENÝ'), ('NEURÈENÝ') ) ;
#84 = CARTESIAN_POINT ( 'NONE',  ( 10.00000000000000000, 1.224646799147353256E-15, 7.000000000000000000 ) ) ;
#85 = ORIENTED_EDGE ( 'NONE', *, *, #145, .T. ) ;
#86 = TOROIDAL_SURFACE ( 'NONE', #143, 6.500000000000000888, 0.5000000000000000000 ) ;
#87 = FACE_OUTER_BOUND ( 'NONE', #65, .T. ) ;
#88 = AXIS2_PLACEMENT_3D ( 'NONE', #63, #358, #141 ) ;
#89 = AXIS2_PLACEMENT_3D ( 'NONE', #34, #6, #335 ) ;
#90 = CARTESIAN_POINT ( 'NONE',  ( -6.500000000000000888, 7.960204194457796463E-16, 7.499999999999951150 ) ) ;
#91 = DIRECTION ( 'NONE',  ( 0.000000000000000000, 0.000000000000000000, 1.000000000000000000 ) ) ;
#92 = EDGE_CURVE ( 'NONE', #161, #10, #343, .T. ) ;
#93 = CARTESIAN_POINT ( 'NONE',  ( 0.000000000000000000, 0.000000000000000000, 7.000000000000000000 ) ) ;
#94 = CIRCLE ( 'NONE', #204, 6.000000000000000888 ) ;
#95 = AXIS2_PLACEMENT_3D ( 'NONE', #7, #4, #5 ) ;
#96 = DIRECTION ( 'NONE',  ( -0.000000000000000000, -0.000000000000000000, -1.000000000000000000 ) ) ;
#97 = EDGE_LOOP ( 'NONE', ( #215, #43 ) ) ;
#98 = VERTEX_POINT ( 'NONE', #350 ) ;
#99 = COORDINATED_UNIVERSAL_TIME_OFFSET ( 1, 0, .AHEAD. ) ;
#100 = VERTEX_POINT ( 'NONE', #133 ) ;
#101 = DIRECTION ( 'NONE',  ( -0.000000000000000000, -0.000000000000000000, -1.000000000000000000 ) ) ;
#102 = ORIENTED_EDGE ( 'NONE', *, *, #80, .T. ) ;
#103 = EDGE_LOOP ( 'NONE', ( #40, #309, #29, #342 ) ) ;
#104 = VERTEX_POINT ( 'NONE', #50 ) ;
#105 = TOROIDAL_SURFACE ( 'NONE', #256, 6.500000000000000888, 0.5000000000000000000 ) ;
#106 = EDGE_CURVE ( 'NONE', #98, #15, #94, .T. ) ;
#107 = DIRECTION ( 'NONE',  ( 1.000000000000000000, 0.000000000000000000, 0.000000000000000000 ) ) ;
#108 = FACE_OUTER_BOUND ( 'NONE', #245, .T. ) ;
#109 = PERSON_AND_ORGANIZATION ( #83, #303 ) ;
#110 = CIRCLE ( 'NONE', #367, 6.500000000000000888 ) ;
#111 = APPLICATION_CONTEXT ( 'configuration controlled 3d designs of mechanical parts and assemblies' ) ;
#112 = DIRECTION ( 'NONE',  ( -0.000000000000000000, -0.000000000000000000, -1.000000000000000000 ) ) ;
#113 = DIRECTION ( 'NONE',  ( -0.000000000000000000, -0.000000000000000000, -1.000000000000000000 ) ) ;
#114 = CARTESIAN_POINT ( 'NONE',  ( -10.00000000000000000, 0.000000000000000000, 7.000000000000000000 ) ) ;
#115 = EDGE_CURVE ( 'NONE', #104, #130, #298, .T. ) ;
#116 = DIRECTION ( 'NONE',  ( -1.000000000000000000, 1.224646799147351482E-16, 0.000000000000000000 ) ) ;
#117 = VECTOR ( 'NONE', #169, 1000.000000000000000 ) ;
#118 = DIRECTION ( 'NONE',  ( 0.000000000000000000, 0.000000000000000000, -1.000000000000000000 ) ) ;
#119 = CIRCLE ( 'NONE', #57, 6.000000000000000888 ) ;
#120 = EDGE_CURVE ( 'NONE', #186, #130, #218, .T. ) ;
#121 = DATE_AND_TIME ( #44, #76 ) ;
#122 = ORIENTED_EDGE ( 'NONE', *, *, #182, .T. ) ;
#123 = ORIENTED_EDGE ( 'NONE', *, *, #120, .F. ) ;
#124 = COORDINATED_UNIVERSAL_TIME_OFFSET ( 1, 0, .AHEAD. ) ;
#125 = ORIENTED_EDGE ( 'NONE', *, *, #145, .F. ) ;
#126 = LOCAL_TIME ( 17, 11, 1.000000000000000000, #227 ) ;
#127 = ORIENTED_EDGE ( 'NONE', *, *, #106, .F. ) ;
#128 = ADVANCED_FACE ( 'NONE', ( #199 ), #105, .F. ) ;
#129 = CYLINDRICAL_SURFACE ( 'NONE', #187, 10.00000000000000000 ) ;
#130 = VERTEX_POINT ( 'NONE', #360 ) ;
#131 = DIRECTION ( 'NONE',  ( 0.000000000000000000, 0.000000000000000000, 1.000000000000000000 ) ) ;
#132 = CC_DESIGN_SECURITY_CLASSIFICATION ( #219, ( #297 ) ) ;
#133 = CARTESIAN_POINT ( 'NONE',  ( 6.000000000000000888, 7.347880794884120722E-16, 7.499999999999951150 ) ) ;
#134 = EDGE_LOOP ( 'NONE', ( #319, #380 ) ) ;
#135 = SHAPE_DEFINITION_REPRESENTATION ( #25, #252 ) ;
#136 = AXIS2_PLACEMENT_3D ( 'NONE', #223, #351, #222 ) ;
#137 = DIRECTION ( 'NONE',  ( 1.000000000000000000, 0.000000000000000000, 0.000000000000000000 ) ) ;
#138 = SECURITY_CLASSIFICATION_LEVEL ( 'unclassified' ) ;
#139 = CARTESIAN_POINT ( 'NONE',  ( 0.000000000000000000, 0.000000000000000000, 707.0000000000000000 ) ) ;
#140 = ADVANCED_FACE ( 'NONE', ( #270, #87 ), #231, .T. ) ;
#141 = DIRECTION ( 'NONE',  ( 1.000000000000000000, 0.000000000000000000, 0.000000000000000000 ) ) ;
#142 = DIRECTION ( 'NONE',  ( -0.000000000000000000, -0.000000000000000000, -1.000000000000000000 ) ) ;
#143 = AXIS2_PLACEMENT_3D ( 'NONE', #374, #191, #137 ) ;
#144 = MANIFOLD_SOLID_BREP ( 'Odebrat vysunutím3', #300 ) ;
#145 = EDGE_CURVE ( 'NONE', #130, #186, #376, .T. ) ;
#146 = DIRECTION ( 'NONE',  ( 1.000000000000000000, 0.000000000000000000, 0.000000000000000000 ) ) ;
#147 = CIRCLE ( 'NONE', #224, 6.000000000000000888 ) ;
#148 = LOCAL_TIME ( 17, 11, 1.000000000000000000, #352 ) ;
#149 = LINE ( 'NONE', #299, #170 ) ;
#150 = DIRECTION ( 'NONE',  ( 1.000000000000000000, 0.000000000000000000, 0.000000000000000000 ) ) ;
#151 = CARTESIAN_POINT ( 'NONE',  ( 0.000000000000000000, 0.000000000000000000, 0.000000000000000000 ) ) ;
#152 =( GEOMETRIC_REPRESENTATION_CONTEXT ( 3 ) GLOBAL_UNCERTAINTY_ASSIGNED_CONTEXT ( ( #273 ) ) GLOBAL_UNIT_ASSIGNED_CONTEXT ( ( #72, #248, #371 ) ) REPRESENTATION_CONTEXT ( 'NONE', 'WORKASPACE' ) );
#153 = CARTESIAN_POINT ( 'NONE',  ( 0.000000000000000000, 0.000000000000000000, 0.000000000000000000 ) ) ;
#154 = ORIENTED_EDGE ( 'NONE', *, *, #316, .F. ) ;
#155 = APPROVAL_ROLE ( '' ) ;
#156 = ORIENTED_EDGE ( 'NONE', *, *, #167, .F. ) ;
#157 = EDGE_CURVE ( 'NONE', #17, #340, #310, .T. ) ;
#158 = AXIS2_PLACEMENT_3D ( 'NONE', #344, #101, #16 ) ;
#159 = CARTESIAN_POINT ( 'NONE',  ( 0.000000000000000000, 0.000000000000000000, 707.0000000000000000 ) ) ;
#160 = ORIENTED_EDGE ( 'NONE', *, *, #241, .T. ) ;
#161 = VERTEX_POINT ( 'NONE', #233 ) ;
#162 = ADVANCED_FACE ( 'NONE', ( #30 ), #229, .F. ) ;
#163 = EDGE_LOOP ( 'NONE', ( #280, #154, #286, #368 ) ) ;
#164 = PERSON_AND_ORGANIZATION_ROLE ( 'creator' ) ;
#165 = FACE_OUTER_BOUND ( 'NONE', #213, .T. ) ;
#166 = DIRECTION ( 'NONE',  ( 0.000000000000000000, 0.000000000000000000, -1.000000000000000000 ) ) ;
#167 = EDGE_CURVE ( 'NONE', #161, #190, #305, .T. ) ;
#168 = PLANE ( 'NONE',  #250 ) ;
#169 = DIRECTION ( 'NONE',  ( -0.000000000000000000, -0.000000000000000000, -1.000000000000000000 ) ) ;
#170 = VECTOR ( 'NONE', #272, 1000.000000000000000 ) ;
#171 = DIRECTION ( 'NONE',  ( 0.000000000000000000, 0.000000000000000000, 1.000000000000000000 ) ) ;
#172 = EDGE_CURVE ( 'NONE', #17, #100, #147, .T. ) ;
#173 = CARTESIAN_POINT ( 'NONE',  ( 0.000000000000000000, 0.000000000000000000, 7.499999999999951150 ) ) ;
#174 = AXIS2_PLACEMENT_3D ( 'NONE', #20, #131, #253 ) ;
#175 = DIRECTION ( 'NONE',  ( 0.000000000000000000, 0.000000000000000000, 1.000000000000000000 ) ) ;
#176 = DIRECTION ( 'NONE',  ( 0.000000000000000000, 0.000000000000000000, -1.000000000000000000 ) ) ;
#177 = PERSON_AND_ORGANIZATION_ROLE ( 'design_owner' ) ;
#178 = APPROVAL_STATUS ( 'not_yet_approved' ) ;
#179 = AXIS2_PLACEMENT_3D ( 'NONE', #2, #96, #337 ) ;
#180 = APPROVAL_STATUS ( 'not_yet_approved' ) ;
#181 = EDGE_LOOP ( 'NONE', ( #122, #197 ) ) ;
#182 = EDGE_CURVE ( 'NONE', #45, #340, #110, .T. ) ;
#183 = CARTESIAN_POINT ( 'NONE',  ( 0.000000000000000000, 0.000000000000000000, 7.000000000000000000 ) ) ;
#184 = EDGE_LOOP ( 'NONE', ( #127, #289, #240, #312 ) ) ;
#185 = DIRECTION ( 'NONE',  ( 1.000000000000000000, 0.000000000000000000, 0.000000000000000000 ) ) ;
#186 = VERTEX_POINT ( 'NONE', #232 ) ;
#187 = AXIS2_PLACEMENT_3D ( 'NONE', #183, #37, #69 ) ;
#188 = APPLICATION_CONTEXT ( 'configuration controlled 3d designs of mechanical parts and assemblies' ) ;
#189 = CC_DESIGN_PERSON_AND_ORGANIZATION_ASSIGNMENT ( #81, #19, ( #219 ) ) ;
#190 = VERTEX_POINT ( 'NONE', #35 ) ;
#191 = DIRECTION ( 'NONE',  ( 0.000000000000000000, 0.000000000000000000, 1.000000000000000000 ) ) ;
#192 = ORIENTED_EDGE ( 'NONE', *, *, #41, .F. ) ;
#193 = LOCAL_TIME ( 17, 11, 1.000000000000000000, #99 ) ;
#194 = APPROVAL_ROLE ( '' ) ;
#195 = CARTESIAN_POINT ( 'NONE',  ( 6.500000000000000888, 0.000000000000000000, 7.499999999999951150 ) ) ;
#196 = EDGE_CURVE ( 'NONE', #100, #17, #119, .T. ) ;
#197 = ORIENTED_EDGE ( 'NONE', *, *, #18, .T. ) ;
#198 = LINE ( 'NONE', #56, #117 ) ;
#199 = FACE_OUTER_BOUND ( 'NONE', #54, .T. ) ;
#200 = CC_DESIGN_APPROVAL ( #302, ( #297 ) ) ;
#201 = EDGE_CURVE ( 'NONE', #104, #68, #323, .T. ) ;
#202 = CARTESIAN_POINT ( 'NONE',  ( 0.000000000000000000, 0.000000000000000000, 0.000000000000000000 ) ) ;
#203 = CARTESIAN_POINT ( 'NONE',  ( 0.000000000000000000, 0.000000000000000000, 0.000000000000000000 ) ) ;
#204 = AXIS2_PLACEMENT_3D ( 'NONE', #52, #290, #107 ) ;
#205 = CARTESIAN_POINT ( 'NONE',  ( 0.000000000000000000, 0.000000000000000000, 7.499999999999951150 ) ) ;
#206 = AXIS2_PLACEMENT_3D ( 'NONE', #62, #176, #331 ) ;
#207 = CARTESIAN_POINT ( 'NONE',  ( -2.500000000000000000, 0.000000000000000000, 707.0000000000000000 ) ) ;
#208 = DATE_TIME_ROLE ( 'creation_date' ) ;
#209 = ORIENTED_EDGE ( 'NONE', *, *, #212, .T. ) ;
#210 = PERSON_AND_ORGANIZATION ( #83, #303 ) ;
#211 = ORIENTED_EDGE ( 'NONE', *, *, #167, .T. ) ;
#212 = EDGE_CURVE ( 'NONE', #68, #186, #149, .T. ) ;
#213 = EDGE_LOOP ( 'NONE', ( #341, #102, #314, #156 ) ) ;
#214 = DIRECTION ( 'NONE',  ( 1.000000000000000000, 0.000000000000000000, 0.000000000000000000 ) ) ;
#215 = ORIENTED_EDGE ( 'NONE', *, *, #201, .F. ) ;
#216 = LINE ( 'NONE', #12, #329 ) ;
#217 = ORIENTED_EDGE ( 'NONE', *, *, #276, .T. ) ;
#218 = CIRCLE ( 'NONE', #230, 2.500000000000000000 ) ;
#219 = SECURITY_CLASSIFICATION ( '', '', #138 ) ;
#220 = PERSON_AND_ORGANIZATION_ROLE ( 'design_supplier' ) ;
#221 = FACE_BOUND ( 'NONE', #97, .T. ) ;
#222 = DIRECTION ( 'NONE',  ( -1.000000000000000000, 0.000000000000000000, 0.000000000000000000 ) ) ;
#223 = CARTESIAN_POINT ( 'NONE',  ( 0.000000000000000000, 0.000000000000000000, 7.000000000000000000 ) ) ;
#224 = AXIS2_PLACEMENT_3D ( 'NONE', #173, #267, #32 ) ;
#225 = DATE_AND_TIME ( #258, #22 ) ;
#226 = DIRECTION ( 'NONE',  ( 1.000000000000000000, 0.000000000000000000, -0.000000000000000000 ) ) ;
#227 = COORDINATED_UNIVERSAL_TIME_OFFSET ( 1, 0, .AHEAD. ) ;
#228 = DIRECTION ( 'NONE',  ( 0.000000000000000000, 0.000000000000000000, -1.000000000000000000 ) ) ;
#229 = CYLINDRICAL_SURFACE ( 'NONE', #206, 2.500000000000000000 ) ;
#230 = AXIS2_PLACEMENT_3D ( 'NONE', #202, #113, #58 ) ;
#231 = PLANE ( 'NONE',  #66 ) ;
#232 = CARTESIAN_POINT ( 'NONE',  ( 2.500000000000000000, 3.061616997868382648E-16, 0.000000000000000000 ) ) ;
#233 = CARTESIAN_POINT ( 'NONE',  ( -10.00000000000000000, 0.000000000000000000, 7.000000000000000000 ) ) ;
#234 = CIRCLE ( 'NONE', #315, 6.500000000000000888 ) ;
#235 = CC_DESIGN_DATE_AND_TIME_ASSIGNMENT ( #225, #23, ( #219 ) ) ;
#236 = VECTOR ( 'NONE', #118, 1000.000000000000000 ) ;
#237 = DIRECTION ( 'NONE',  ( -0.000000000000000000, -0.000000000000000000, -1.000000000000000000 ) ) ;
#238 = AXIS2_PLACEMENT_3D ( 'NONE', #203, #266, #185 ) ;
#239 = CALENDAR_DATE ( 2022, 8, 7 ) ;
#240 = ORIENTED_EDGE ( 'NONE', *, *, #196, .T. ) ;
#241 = EDGE_CURVE ( 'NONE', #10, #161, #262, .T. ) ;
#242 = DIRECTION ( 'NONE',  ( 1.000000000000000000, 0.000000000000000000, 0.000000000000000000 ) ) ;
#243 = ORIENTED_EDGE ( 'NONE', *, *, #212, .F. ) ;
#244 = PERSON_AND_ORGANIZATION_ROLE ( 'creator' ) ;
#245 = EDGE_LOOP ( 'NONE', ( #249, #209, #257, #77 ) ) ;
#246 = PERSON_AND_ORGANIZATION ( #83, #303 ) ;
#247 = EDGE_LOOP ( 'NONE', ( #243, #217, #70, #85 ) ) ;
#248 =( NAMED_UNIT ( * ) PLANE_ANGLE_UNIT ( ) SI_UNIT ( $, .RADIAN. ) );
#249 = ORIENTED_EDGE ( 'NONE', *, *, #201, .T. ) ;
#250 = AXIS2_PLACEMENT_3D ( 'NONE', #21, #78, #226 ) ;
#251 = APPROVAL_STATUS ( 'not_yet_approved' ) ;
#252 = ADVANCED_BREP_SHAPE_REPRESENTATION ( '5a56', ( #144, #381 ), #152 ) ;
#253 = DIRECTION ( 'NONE',  ( 1.000000000000000000, 0.000000000000000000, 0.000000000000000000 ) ) ;
#254 = CC_DESIGN_APPROVAL ( #61, ( #219 ) ) ;
#255 = CALENDAR_DATE ( 2022, 8, 7 ) ;
#256 = AXIS2_PLACEMENT_3D ( 'NONE', #205, #333, #304 ) ;
#257 = ORIENTED_EDGE ( 'NONE', *, *, #120, .T. ) ;
#258 = CALENDAR_DATE ( 2022, 8, 7 ) ;
#259 = CC_DESIGN_PERSON_AND_ORGANIZATION_ASSIGNMENT ( #246, #244, ( #332 ) ) ;
#260 = CYLINDRICAL_SURFACE ( 'NONE', #51, 2.500000000000000000 ) ;
#261 = DIRECTION ( 'NONE',  ( 0.000000000000000000, -1.000000000000000000, 0.000000000000000000 ) ) ;
#262 = CIRCLE ( 'NONE', #95, 10.00000000000000000 ) ;
#263 = APPROVAL_ROLE ( '' ) ;
#264 = DIRECTION ( 'NONE',  ( -1.000000000000000000, 0.000000000000000000, 0.000000000000000000 ) ) ;
#265 = ADVANCED_FACE ( 'NONE', ( #268 ), #363, .T. ) ;
#266 = DIRECTION ( 'NONE',  ( 0.000000000000000000, 0.000000000000000000, 1.000000000000000000 ) ) ;
#267 = DIRECTION ( 'NONE',  ( 0.000000000000000000, 0.000000000000000000, 1.000000000000000000 ) ) ;
#268 = FACE_OUTER_BOUND ( 'NONE', #184, .T. ) ;
#269 = CC_DESIGN_APPROVAL ( #373, ( #332 ) ) ;
#270 = FACE_BOUND ( 'NONE', #181, .T. ) ;
#271 = CC_DESIGN_PERSON_AND_ORGANIZATION_ASSIGNMENT ( #109, #220, ( #297 ) ) ;
#272 = DIRECTION ( 'NONE',  ( 0.000000000000000000, 0.000000000000000000, -1.000000000000000000 ) ) ;
#273 = UNCERTAINTY_MEASURE_WITH_UNIT (LENGTH_MEASURE( 1.000000000000000082E-05 ), #72, 'distance_accuracy_value', 'NONE');
#274 = DIRECTION ( 'NONE',  ( 1.000000000000000000, 0.000000000000000000, 0.000000000000000000 ) ) ;
#275 = CIRCLE ( 'NONE', #238, 10.00000000000000000 ) ;
#276 = EDGE_CURVE ( 'NONE', #68, #104, #366, .T. ) ;
#277 = DIRECTION ( 'NONE',  ( 0.000000000000000000, 0.000000000000000000, 1.000000000000000000 ) ) ;
#278 = ORIENTED_EDGE ( 'NONE', *, *, #182, .F. ) ;
#279 = FACE_OUTER_BOUND ( 'NONE', #48, .T. ) ;
#280 = ORIENTED_EDGE ( 'NONE', *, *, #357, .F. ) ;
#281 = CIRCLE ( 'NONE', #359, 0.5000000000000004441 ) ;
#282 = APPROVAL_DATE_TIME ( #121, #373 ) ;
#283 = PRODUCT ( '5a56', '5a56', '', ( #39 ) ) ;
#284 = ORIENTED_EDGE ( 'NONE', *, *, #157, .T. ) ;
#285 = CARTESIAN_POINT ( 'NONE',  ( 10.00000000000000000, 1.224646799147353256E-15, 0.000000000000000000 ) ) ;
#286 = ORIENTED_EDGE ( 'NONE', *, *, #53, .T. ) ;
#287 = EDGE_CURVE ( 'NONE', #317, #190, #275, .T. ) ;
#288 = PERSON_AND_ORGANIZATION ( #83, #303 ) ;
#289 = ORIENTED_EDGE ( 'NONE', *, *, #357, .T. ) ;
#290 = DIRECTION ( 'NONE',  ( 0.000000000000000000, 0.000000000000000000, 1.000000000000000000 ) ) ;
#291 = ADVANCED_FACE ( 'NONE', ( #46 ), #313, .T. ) ;
#292 = COORDINATED_UNIVERSAL_TIME_OFFSET ( 1, 0, .AHEAD. ) ;
#293 = DIRECTION ( 'NONE',  ( 1.000000000000000000, 0.000000000000000000, 0.000000000000000000 ) ) ;
#294 = CYLINDRICAL_SURFACE ( 'NONE', #136, 10.00000000000000000 ) ;
#295 = APPROVAL_DATE_TIME ( #28, #302 ) ;
#296 = CARTESIAN_POINT ( 'NONE',  ( -6.000000000000000888, 0.000000000000000000, 707.0000000000000000 ) ) ;
#297 = PRODUCT_DEFINITION_FORMATION_WITH_SPECIFIED_SOURCE ( 'LIBOVOLNÝ', '', #283, .NOT_KNOWN. ) ;
#298 = LINE ( 'NONE', #207, #236 ) ;
#299 = CARTESIAN_POINT ( 'NONE',  ( 2.500000000000000000, 3.061616997868382648E-16, 707.0000000000000000 ) ) ;
#300 = CLOSED_SHELL ( 'NONE', ( #8, #128, #265, #31, #348, #140, #36, #291, #3, #11, #162 ) ) ;
#301 = CARTESIAN_POINT ( 'NONE',  ( 0.000000000000000000, 0.000000000000000000, 707.0000000000000000 ) ) ;
#302 = APPROVAL ( #178, 'NEURÈENÝ' ) ;
#303 = ORGANIZATION ( 'NEURÈENÝ', 'NEURÈENÝ', '' ) ;
#304 = DIRECTION ( 'NONE',  ( 1.000000000000000000, 0.000000000000000000, 0.000000000000000000 ) ) ;
#305 = LINE ( 'NONE', #114, #47 ) ;
#306 = CARTESIAN_POINT ( 'NONE',  ( -6.500000000000000888, 7.960204194457796463E-16, 6.999999999999975131 ) ) ;
#307 = DIRECTION ( 'NONE',  ( 0.000000000000000000, 0.000000000000000000, 1.000000000000000000 ) ) ;
#308 = AXIS2_PLACEMENT_3D ( 'NONE', #153, #307, #242 ) ;
#309 = ORIENTED_EDGE ( 'NONE', *, *, #196, .F. ) ;
#310 = CIRCLE ( 'NONE', #361, 0.5000000000000004441 ) ;
#311 = DIRECTION ( 'NONE',  ( -0.000000000000000000, -0.000000000000000000, -1.000000000000000000 ) ) ;
#312 = ORIENTED_EDGE ( 'NONE', *, *, #53, .F. ) ;
#313 = CYLINDRICAL_SURFACE ( 'NONE', #158, 6.000000000000000888 ) ;
#314 = ORIENTED_EDGE ( 'NONE', *, *, #287, .T. ) ;
#315 = AXIS2_PLACEMENT_3D ( 'NONE', #1, #378, #293 ) ;
#316 = EDGE_CURVE ( 'NONE', #15, #98, #362, .T. ) ;
#317 = VERTEX_POINT ( 'NONE', #285 ) ;
#318 = CIRCLE ( 'NONE', #308, 10.00000000000000000 ) ;
#319 = ORIENTED_EDGE ( 'NONE', *, *, #316, .T. ) ;
#320 = DIRECTION ( 'NONE',  ( 1.000000000000000000, 0.000000000000000000, -0.000000000000000000 ) ) ;
#321 = EDGE_CURVE ( 'NONE', #190, #317, #318, .T. ) ;
#322 = FACE_OUTER_BOUND ( 'NONE', #134, .T. ) ;
#323 = CIRCLE ( 'NONE', #334, 2.500000000000000000 ) ;
#324 = DIRECTION ( 'NONE',  ( 0.000000000000000000, 0.000000000000000000, 1.000000000000000000 ) ) ;
#325 = DATE_AND_TIME ( #255, #148 ) ;
#326 = LINE ( 'NONE', #296, #71 ) ;
#327 = FACE_OUTER_BOUND ( 'NONE', #103, .T. ) ;
#328 = DESIGN_CONTEXT ( 'detailed design', #188, 'design' ) ;
#329 = VECTOR ( 'NONE', #311, 1000.000000000000000 ) ;
#330 = CARTESIAN_POINT ( 'NONE',  ( 0.000000000000000000, 0.000000000000000000, 7.000000000000000000 ) ) ;
#331 = DIRECTION ( 'NONE',  ( -1.000000000000000000, 0.000000000000000000, 0.000000000000000000 ) ) ;
#332 = PRODUCT_DEFINITION ( 'NEZNÁMÝ', '', #297, #328 ) ;
#333 = DIRECTION ( 'NONE',  ( 0.000000000000000000, 0.000000000000000000, 1.000000000000000000 ) ) ;
#334 = AXIS2_PLACEMENT_3D ( 'NONE', #301, #91, #150 ) ;
#335 = DIRECTION ( 'NONE',  ( 1.000000000000000000, 0.000000000000000000, 0.000000000000000000 ) ) ;
#336 = CC_DESIGN_DATE_AND_TIME_ASSIGNMENT ( #364, #208, ( #332 ) ) ;
#337 = DIRECTION ( 'NONE',  ( -1.000000000000000000, 0.000000000000000000, 0.000000000000000000 ) ) ;
#338 = EDGE_LOOP ( 'NONE', ( #365, #370 ) ) ;
#339 = APPLICATION_PROTOCOL_DEFINITION ( 'international standard', 'config_control_design', 1994, #188 ) ;
#340 = VERTEX_POINT ( 'NONE', #306 ) ;
#341 = ORIENTED_EDGE ( 'NONE', *, *, #241, .F. ) ;
#342 = ORIENTED_EDGE ( 'NONE', *, *, #18, .F. ) ;
#343 = CIRCLE ( 'NONE', #174, 10.00000000000000000 ) ;
#344 = CARTESIAN_POINT ( 'NONE',  ( 0.000000000000000000, 0.000000000000000000, 707.0000000000000000 ) ) ;
#345 = ORIENTED_EDGE ( 'NONE', *, *, #92, .F. ) ;
#346 = APPROVAL_PERSON_ORGANIZATION ( #64, #302, #194 ) ;
#347 = APPROVAL_DATE_TIME ( #325, #61 ) ;
#348 = ADVANCED_FACE ( 'NONE', ( #279 ), #129, .T. ) ;
#349 = FACE_BOUND ( 'NONE', #55, .T. ) ;
#350 = CARTESIAN_POINT ( 'NONE',  ( 6.000000000000000888, 7.347880794884120722E-16, 707.0000000000000000 ) ) ;
#351 = DIRECTION ( 'NONE',  ( -0.000000000000000000, -0.000000000000000000, -1.000000000000000000 ) ) ;
#352 = COORDINATED_UNIVERSAL_TIME_OFFSET ( 1, 0, .AHEAD. ) ;
#353 = CARTESIAN_POINT ( 'NONE',  ( -6.000000000000000888, 0.000000000000000000, 707.0000000000000000 ) ) ;
#354 = CARTESIAN_POINT ( 'NONE',  ( 2.500000000000000000, 3.061616997868382648E-16, 707.0000000000000000 ) ) ;
#355 = DIRECTION ( 'NONE',  ( 1.224646799147353207E-16, 1.000000000000000000, -0.000000000000000000 ) ) ;
#356 = DIRECTION ( 'NONE',  ( 1.000000000000000000, 0.000000000000000000, -0.000000000000000000 ) ) ;
#357 = EDGE_CURVE ( 'NONE', #98, #100, #216, .T. ) ;
#358 = DIRECTION ( 'NONE',  ( 0.000000000000000000, 0.000000000000000000, 1.000000000000000000 ) ) ;
#359 = AXIS2_PLACEMENT_3D ( 'NONE', #195, #261, #228 ) ;
#360 = CARTESIAN_POINT ( 'NONE',  ( -2.500000000000000000, 0.000000000000000000, 0.000000000000000000 ) ) ;
#361 = AXIS2_PLACEMENT_3D ( 'NONE', #90, #355, #116 ) ;
#362 = CIRCLE ( 'NONE', #9, 6.000000000000000888 ) ;
#363 = CYLINDRICAL_SURFACE ( 'NONE', #179, 6.000000000000000888 ) ;
#364 = DATE_AND_TIME ( #239, #193 ) ;
#365 = ORIENTED_EDGE ( 'NONE', *, *, #321, .F. ) ;
#366 = CIRCLE ( 'NONE', #88, 2.500000000000000000 ) ;
#367 = AXIS2_PLACEMENT_3D ( 'NONE', #330, #237, #60 ) ;
#368 = ORIENTED_EDGE ( 'NONE', *, *, #172, .T. ) ;
#369 = CC_DESIGN_PERSON_AND_ORGANIZATION_ASSIGNMENT ( #210, #177, ( #283 ) ) ;
#370 = ORIENTED_EDGE ( 'NONE', *, *, #287, .F. ) ;
#371 =( NAMED_UNIT ( * ) SI_UNIT ( $, .STERADIAN. ) SOLID_ANGLE_UNIT ( ) );
#372 = ORIENTED_EDGE ( 'NONE', *, *, #80, .F. ) ;
#373 = APPROVAL ( #180, 'NEURÈENÝ' ) ;
#374 = CARTESIAN_POINT ( 'NONE',  ( 0.000000000000000000, 0.000000000000000000, 7.499999999999951150 ) ) ;
#375 = APPROVAL_PERSON_ORGANIZATION ( #67, #373, #155 ) ;
#376 = CIRCLE ( 'NONE', #89, 2.500000000000000000 ) ;
#377 = CARTESIAN_POINT ( 'NONE',  ( -6.000000000000000888, 0.000000000000000000, 7.499999999999951150 ) ) ;
#378 = DIRECTION ( 'NONE',  ( -0.000000000000000000, -0.000000000000000000, -1.000000000000000000 ) ) ;
#379 = CALENDAR_DATE ( 2022, 8, 7 ) ;
#380 = ORIENTED_EDGE ( 'NONE', *, *, #106, .T. ) ;
#381 = AXIS2_PLACEMENT_3D ( 'NONE', #151, #277, #274 ) ;
ENDSEC;
END-ISO-10303-21;
