ISO-10303-21;
HEADER;
FILE_DESCRIPTION (( 'STEP AP203' ),
    '1' );
FILE_NAME ('0cf5.STEP',
    '2022-07-08T14:10:48',
    ( '' ),
    ( '' ),
    'SwSTEP 2.0',
    'SolidWorks 2019',
    '' );
FILE_SCHEMA (( 'CONFIG_CONTROL_DESIGN' ));
ENDSEC;

DATA;
#1 = CARTESIAN_POINT ( 'NONE',  ( 0.000000000000000000, 0.000000000000000000, 0.000000000000000000 ) ) ;
#2 = LINE ( 'NONE', #202, #372 ) ;
#3 = CC_DESIGN_SECURITY_CLASSIFICATION ( #299, ( #101 ) ) ;
#4 = CARTESIAN_POINT ( 'NONE',  ( 0.000000000000000000, 0.000000000000000000, 807.0000000000000000 ) ) ;
#5 = DIRECTION ( 'NONE',  ( 0.000000000000000000, 0.000000000000000000, 1.000000000000000000 ) ) ;
#6 = PERSON_AND_ORGANIZATION ( #121, #196 ) ;
#7 = APPROVAL ( #185, 'NEURÈENÝ' ) ;
#8 = AXIS2_PLACEMENT_3D ( 'NONE', #236, #141, #143 ) ;
#9 = APPLICATION_CONTEXT ( 'configuration controlled 3d designs of mechanical parts and assemblies' ) ;
#10 = CARTESIAN_POINT ( 'NONE',  ( 0.000000000000000000, 0.000000000000000000, 807.0000000000000000 ) ) ;
#11 = CALENDAR_DATE ( 2022, 8, 7 ) ;
#12 = VERTEX_POINT ( 'NONE', #241 ) ;
#13 = DIRECTION ( 'NONE',  ( 1.000000000000000000, 0.000000000000000000, 0.000000000000000000 ) ) ;
#14 = VERTEX_POINT ( 'NONE', #59 ) ;
#15 = VERTEX_POINT ( 'NONE', #259 ) ;
#16 = PLANE ( 'NONE',  #298 ) ;
#17 = DIRECTION ( 'NONE',  ( 0.000000000000000000, 0.000000000000000000, 1.000000000000000000 ) ) ;
#18 = LINE ( 'NONE', #135, #33 ) ;
#19 = CIRCLE ( 'NONE', #128, 8.000000000000000000 ) ;
#20 = VERTEX_POINT ( 'NONE', #146 ) ;
#21 = LOCAL_TIME ( 16, 10, 48.00000000000000000, #332 ) ;
#22 = CARTESIAN_POINT ( 'NONE',  ( 0.000000000000000000, 0.000000000000000000, 7.000000000000000000 ) ) ;
#23 = DIRECTION ( 'NONE',  ( 1.000000000000000000, 0.000000000000000000, 0.000000000000000000 ) ) ;
#24 = CIRCLE ( 'NONE', #260, 11.00000000000000000 ) ;
#25 =( GEOMETRIC_REPRESENTATION_CONTEXT ( 3 ) GLOBAL_UNCERTAINTY_ASSIGNED_CONTEXT ( ( #148 ) ) GLOBAL_UNIT_ASSIGNED_CONTEXT ( ( #199, #313, #28 ) ) REPRESENTATION_CONTEXT ( 'NONE', 'WORKASPACE' ) );
#26 = EDGE_CURVE ( 'NONE', #366, #347, #150, .T. ) ;
#27 = ORIENTED_EDGE ( 'NONE', *, *, #212, .F. ) ;
#28 =( NAMED_UNIT ( * ) SI_UNIT ( $, .STERADIAN. ) SOLID_ANGLE_UNIT ( ) );
#29 = EDGE_CURVE ( 'NONE', #159, #15, #2, .T. ) ;
#30 = DATE_AND_TIME ( #60, #77 ) ;
#31 = DIRECTION ( 'NONE',  ( -0.000000000000000000, -0.000000000000000000, -1.000000000000000000 ) ) ;
#32 = CIRCLE ( 'NONE', #343, 8.699999999999999289 ) ;
#33 = VECTOR ( 'NONE', #378, 1000.000000000000000 ) ;
#34 = CARTESIAN_POINT ( 'NONE',  ( 0.000000000000000000, 0.000000000000000000, 7.700000000000040146 ) ) ;
#35 = FACE_OUTER_BOUND ( 'NONE', #321, .T. ) ;
#36 = DATE_AND_TIME ( #303, #109 ) ;
#37 = DIRECTION ( 'NONE',  ( 1.000000000000000000, 0.000000000000000000, 0.000000000000000000 ) ) ;
#38 = APPROVAL_ROLE ( '' ) ;
#39 = CIRCLE ( 'NONE', #194, 8.699999999999999289 ) ;
#40 = PERSON_AND_ORGANIZATION_ROLE ( 'creator' ) ;
#41 = ORIENTED_EDGE ( 'NONE', *, *, #370, .T. ) ;
#42 = CARTESIAN_POINT ( 'NONE',  ( 0.000000000000000000, 0.000000000000000000, 7.000000000000000000 ) ) ;
#43 = ORIENTED_EDGE ( 'NONE', *, *, #71, .T. ) ;
#44 = AXIS2_PLACEMENT_3D ( 'NONE', #184, #161, #221 ) ;
#45 = AXIS2_PLACEMENT_3D ( 'NONE', #1, #5, #23 ) ;
#46 = DIRECTION ( 'NONE',  ( 0.000000000000000000, 0.000000000000000000, 1.000000000000000000 ) ) ;
#47 = ORIENTED_EDGE ( 'NONE', *, *, #85, .F. ) ;
#48 = CARTESIAN_POINT ( 'NONE',  ( 0.000000000000000000, 0.000000000000000000, 7.700000000000040146 ) ) ;
#49 = VERTEX_POINT ( 'NONE', #177 ) ;
#50 = DIRECTION ( 'NONE',  ( 0.000000000000000000, 0.000000000000000000, -1.000000000000000000 ) ) ;
#51 = CARTESIAN_POINT ( 'NONE',  ( 0.000000000000000000, 0.000000000000000000, 0.000000000000000000 ) ) ;
#52 = EDGE_CURVE ( 'NONE', #154, #49, #302, .T. ) ;
#53 = AXIS2_PLACEMENT_3D ( 'NONE', #371, #286, #106 ) ;
#54 = APPROVAL ( #328, 'NEURÈENÝ' ) ;
#55 = DIRECTION ( 'NONE',  ( 0.000000000000000000, -1.000000000000000000, 0.000000000000000000 ) ) ;
#56 = APPLICATION_PROTOCOL_DEFINITION ( 'international standard', 'config_control_design', 1994, #118 ) ;
#57 = ORIENTED_EDGE ( 'NONE', *, *, #133, .F. ) ;
#58 = AXIS2_PLACEMENT_3D ( 'NONE', #4, #239, #268 ) ;
#59 = CARTESIAN_POINT ( 'NONE',  ( 11.00000000000000000, 1.347111479062088405E-15, 7.000000000000000000 ) ) ;
#60 = CALENDAR_DATE ( 2022, 8, 7 ) ;
#61 = ORIENTED_EDGE ( 'NONE', *, *, #85, .T. ) ;
#62 = CARTESIAN_POINT ( 'NONE',  ( 0.000000000000000000, 0.000000000000000000, 7.000000000000000000 ) ) ;
#63 = CARTESIAN_POINT ( 'NONE',  ( 0.000000000000000000, 0.000000000000000000, 807.0000000000000000 ) ) ;
#64 = AXIS2_PLACEMENT_3D ( 'NONE', #79, #359, #362 ) ;
#65 = APPROVAL_PERSON_ORGANIZATION ( #354, #54, #210 ) ;
#66 = PERSON_AND_ORGANIZATION_ROLE ( 'classification_officer' ) ;
#67 = PERSON_AND_ORGANIZATION_ROLE ( 'design_supplier' ) ;
#68 = EDGE_LOOP ( 'NONE', ( #320, #47 ) ) ;
#69 = CALENDAR_DATE ( 2022, 8, 7 ) ;
#70 = EDGE_LOOP ( 'NONE', ( #335, #355 ) ) ;
#71 = EDGE_CURVE ( 'NONE', #327, #49, #325, .T. ) ;
#72 = ORIENTED_EDGE ( 'NONE', *, *, #348, .F. ) ;
#73 = ORIENTED_EDGE ( 'NONE', *, *, #134, .T. ) ;
#74 = DESIGN_CONTEXT ( 'detailed design', #118, 'design' ) ;
#75 = DIRECTION ( 'NONE',  ( 0.000000000000000000, 0.000000000000000000, -1.000000000000000000 ) ) ;
#76 = CARTESIAN_POINT ( 'NONE',  ( -8.699999999999999289, 1.065442715258197248E-15, 7.000000000000020428 ) ) ;
#77 = LOCAL_TIME ( 16, 10, 48.00000000000000000, #92 ) ;
#78 = DIRECTION ( 'NONE',  ( 0.000000000000000000, 0.000000000000000000, 1.000000000000000000 ) ) ;
#79 = CARTESIAN_POINT ( 'NONE',  ( 0.000000000000000000, 0.000000000000000000, 807.0000000000000000 ) ) ;
#80 = LINE ( 'NONE', #168, #144 ) ;
#81 = DIRECTION ( 'NONE',  ( -1.000000000000000000, 0.000000000000000000, 0.000000000000000000 ) ) ;
#82 = CC_DESIGN_DATE_AND_TIME_ASSIGNMENT ( #250, #363, ( #299 ) ) ;
#83 = AXIS2_PLACEMENT_3D ( 'NONE', #173, #350, #296 ) ;
#84 = ADVANCED_FACE ( 'NONE', ( #230 ), #342, .T. ) ;
#85 = EDGE_CURVE ( 'NONE', #12, #308, #254, .T. ) ;
#86 = ORIENTED_EDGE ( 'NONE', *, *, #142, .F. ) ;
#87 = DIRECTION ( 'NONE',  ( 1.000000000000000000, 0.000000000000000000, 0.000000000000000000 ) ) ;
#88 = ADVANCED_FACE ( 'NONE', ( #274 ), #309, .F. ) ;
#89 = ORIENTED_EDGE ( 'NONE', *, *, #276, .T. ) ;
#90 = APPROVAL_DATE_TIME ( #36, #182 ) ;
#91 = ORIENTED_EDGE ( 'NONE', *, *, #26, .F. ) ;
#92 = COORDINATED_UNIVERSAL_TIME_OFFSET ( 1, 0, .AHEAD. ) ;
#93 = PLANE ( 'NONE',  #352 ) ;
#94 = DIRECTION ( 'NONE',  ( -0.000000000000000000, -0.000000000000000000, -1.000000000000000000 ) ) ;
#95 = CLOSED_SHELL ( 'NONE', ( #88, #319, #84, #110, #242, #326, #156, #127, #280, #119, #263 ) ) ;
#96 = DATE_AND_TIME ( #11, #267 ) ;
#97 = ORIENTED_EDGE ( 'NONE', *, *, #212, .T. ) ;
#98 = COORDINATED_UNIVERSAL_TIME_OFFSET ( 1, 0, .AHEAD. ) ;
#99 = ORIENTED_EDGE ( 'NONE', *, *, #179, .T. ) ;
#100 = AXIS2_PLACEMENT_3D ( 'NONE', #165, #17, #256 ) ;
#101 = PRODUCT_DEFINITION_FORMATION_WITH_SPECIFIED_SOURCE ( 'LIBOVOLNÝ', '', #338, .NOT_KNOWN. ) ;
#102 = ORIENTED_EDGE ( 'NONE', *, *, #115, .F. ) ;
#103 = DIRECTION ( 'NONE',  ( -1.000000000000000000, 1.224646799147353207E-16, 0.000000000000000000 ) ) ;
#104 = EDGE_LOOP ( 'NONE', ( #188, #41, #317, #314 ) ) ;
#105 = DIRECTION ( 'NONE',  ( -0.000000000000000000, -0.000000000000000000, -1.000000000000000000 ) ) ;
#106 = DIRECTION ( 'NONE',  ( 1.000000000000000000, 0.000000000000000000, 0.000000000000000000 ) ) ;
#107 = CYLINDRICAL_SURFACE ( 'NONE', #231, 11.00000000000000000 ) ;
#108 = CIRCLE ( 'NONE', #53, 6.000000000000000888 ) ;
#109 = LOCAL_TIME ( 16, 10, 48.00000000000000000, #98 ) ;
#110 = ADVANCED_FACE ( 'NONE', ( #300 ), #273, .T. ) ;
#111 = CC_DESIGN_PERSON_AND_ORGANIZATION_ASSIGNMENT ( #149, #40, ( #101 ) ) ;
#112 = PERSON_AND_ORGANIZATION ( #121, #196 ) ;
#113 = ORIENTED_EDGE ( 'NONE', *, *, #133, .T. ) ;
#114 = AXIS2_PLACEMENT_3D ( 'NONE', #284, #375, #257 ) ;
#115 = EDGE_CURVE ( 'NONE', #14, #351, #246, .T. ) ;
#116 = FACE_BOUND ( 'NONE', #68, .T. ) ;
#117 = FACE_OUTER_BOUND ( 'NONE', #126, .T. ) ;
#118 = APPLICATION_CONTEXT ( 'configuration controlled 3d designs of mechanical parts and assemblies' ) ;
#119 = ADVANCED_FACE ( 'NONE', ( #35 ), #237, .F. ) ;
#120 = PERSON_AND_ORGANIZATION_ROLE ( 'creator' ) ;
#121 = PERSON ( 'NEURÈENÝ', 'NEURÈENÝ', 'NEURÈENÝ', ('NEURÈENÝ'), ('NEURÈENÝ'), ('NEURÈENÝ') ) ;
#122 = AXIS2_PLACEMENT_3D ( 'NONE', #195, #243, #322 ) ;
#123 = APPROVAL_DATE_TIME ( #96, #7 ) ;
#124 = DIRECTION ( 'NONE',  ( 1.000000000000000000, 0.000000000000000000, 0.000000000000000000 ) ) ;
#125 = ORIENTED_EDGE ( 'NONE', *, *, #272, .F. ) ;
#126 = EDGE_LOOP ( 'NONE', ( #279, #373, #43, #131 ) ) ;
#127 = ADVANCED_FACE ( 'NONE', ( #117 ), #275, .T. ) ;
#128 = AXIS2_PLACEMENT_3D ( 'NONE', #153, #361, #37 ) ;
#129 = DIRECTION ( 'NONE',  ( -0.000000000000000000, -0.000000000000000000, -1.000000000000000000 ) ) ;
#130 = DIRECTION ( 'NONE',  ( 0.000000000000000000, 0.000000000000000000, 1.000000000000000000 ) ) ;
#131 = ORIENTED_EDGE ( 'NONE', *, *, #358, .T. ) ;
#132 = DIRECTION ( 'NONE',  ( 0.000000000000000000, 0.000000000000000000, 1.000000000000000000 ) ) ;
#133 = EDGE_CURVE ( 'NONE', #12, #347, #80, .T. ) ;
#134 = EDGE_CURVE ( 'NONE', #308, #12, #108, .T. ) ;
#135 = CARTESIAN_POINT ( 'NONE',  ( 8.000000000000000000, 9.797174393178825657E-16, 807.0000000000000000 ) ) ;
#136 = ORIENTED_EDGE ( 'NONE', *, *, #179, .F. ) ;
#137 = DIRECTION ( 'NONE',  ( -0.000000000000000000, -0.000000000000000000, -1.000000000000000000 ) ) ;
#138 = AXIS2_PLACEMENT_3D ( 'NONE', #10, #137, #198 ) ;
#139 = CC_DESIGN_PERSON_AND_ORGANIZATION_ASSIGNMENT ( #112, #297, ( #338 ) ) ;
#140 = DIRECTION ( 'NONE',  ( -0.000000000000000000, -0.000000000000000000, -1.000000000000000000 ) ) ;
#141 = DIRECTION ( 'NONE',  ( 0.000000000000000000, 0.000000000000000000, 1.000000000000000000 ) ) ;
#142 = EDGE_CURVE ( 'NONE', #20, #167, #32, .T. ) ;
#143 = DIRECTION ( 'NONE',  ( 1.000000000000000000, 0.000000000000000000, 0.000000000000000000 ) ) ;
#144 = VECTOR ( 'NONE', #50, 1000.000000000000000 ) ;
#145 = APPROVAL_PERSON_ORGANIZATION ( #152, #7, #219 ) ;
#146 = CARTESIAN_POINT ( 'NONE',  ( 8.699999999999999289, 0.000000000000000000, 7.000000000000020428 ) ) ;
#147 = PERSON_AND_ORGANIZATION ( #121, #196 ) ;
#148 = UNCERTAINTY_MEASURE_WITH_UNIT (LENGTH_MEASURE( 1.000000000000000082E-05 ), #199, 'distance_accuracy_value', 'NONE');
#149 = PERSON_AND_ORGANIZATION ( #121, #196 ) ;
#150 = CIRCLE ( 'NONE', #329, 6.000000000000000888 ) ;
#151 = DIRECTION ( 'NONE',  ( 1.000000000000000000, 0.000000000000000000, 0.000000000000000000 ) ) ;
#152 = PERSON_AND_ORGANIZATION ( #121, #196 ) ;
#153 = CARTESIAN_POINT ( 'NONE',  ( 0.000000000000000000, 0.000000000000000000, 807.0000000000000000 ) ) ;
#154 = VERTEX_POINT ( 'NONE', #374 ) ;
#155 = EDGE_CURVE ( 'NONE', #49, #167, #176, .T. ) ;
#156 = ADVANCED_FACE ( 'NONE', ( #289, #312 ), #191, .F. ) ;
#157 = CARTESIAN_POINT ( 'NONE',  ( 11.00000000000000000, 1.347111479062088405E-15, 7.000000000000000000 ) ) ;
#158 = COORDINATED_UNIVERSAL_TIME_OFFSET ( 1, 0, .AHEAD. ) ;
#159 = VERTEX_POINT ( 'NONE', #227 ) ;
#160 = VECTOR ( 'NONE', #213, 1000.000000000000000 ) ;
#161 = DIRECTION ( 'NONE',  ( 0.000000000000000000, 0.000000000000000000, -1.000000000000000000 ) ) ;
#162 = ORIENTED_EDGE ( 'NONE', *, *, #115, .T. ) ;
#163 = LOCAL_TIME ( 16, 10, 48.00000000000000000, #271 ) ;
#164 = CIRCLE ( 'NONE', #215, 0.7000000000000000666 ) ;
#165 = CARTESIAN_POINT ( 'NONE',  ( 0.000000000000000000, 0.000000000000000000, 0.000000000000000000 ) ) ;
#166 = DIRECTION ( 'NONE',  ( 1.000000000000000000, 0.000000000000000000, 0.000000000000000000 ) ) ;
#167 = VERTEX_POINT ( 'NONE', #76 ) ;
#168 = CARTESIAN_POINT ( 'NONE',  ( 6.000000000000000888, 7.347880794884120722E-16, 807.0000000000000000 ) ) ;
#169 = DIRECTION ( 'NONE',  ( 1.000000000000000000, 0.000000000000000000, 0.000000000000000000 ) ) ;
#170 = ORIENTED_EDGE ( 'NONE', *, *, #348, .T. ) ;
#171 = DIRECTION ( 'NONE',  ( 0.000000000000000000, 0.000000000000000000, -1.000000000000000000 ) ) ;
#172 = CIRCLE ( 'NONE', #224, 11.00000000000000000 ) ;
#173 = CARTESIAN_POINT ( 'NONE',  ( 0.000000000000000000, 0.000000000000000000, 807.0000000000000000 ) ) ;
#174 = APPLICATION_PROTOCOL_DEFINITION ( 'international standard', 'config_control_design', 1994, #9 ) ;
#175 = EDGE_LOOP ( 'NONE', ( #27, #72 ) ) ;
#176 = CIRCLE ( 'NONE', #266, 0.6999999999999992895 ) ;
#177 = CARTESIAN_POINT ( 'NONE',  ( -8.000000000000000000, 0.000000000000000000, 7.700000000000040146 ) ) ;
#178 = SHAPE_DEFINITION_REPRESENTATION ( #311, #368 ) ;
#179 = EDGE_CURVE ( 'NONE', #159, #14, #379, .T. ) ;
#180 = CIRCLE ( 'NONE', #114, 6.000000000000000888 ) ;
#181 = DIRECTION ( 'NONE',  ( -1.000000000000000000, 0.000000000000000000, 0.000000000000000000 ) ) ;
#182 = APPROVAL ( #269, 'NEURÈENÝ' ) ;
#183 = ORIENTED_EDGE ( 'NONE', *, *, #339, .F. ) ;
#184 = CARTESIAN_POINT ( 'NONE',  ( 0.000000000000000000, 0.000000000000000000, 807.0000000000000000 ) ) ;
#185 = APPROVAL_STATUS ( 'not_yet_approved' ) ;
#186 = AXIS2_PLACEMENT_3D ( 'NONE', #232, #46, #166 ) ;
#187 = CARTESIAN_POINT ( 'NONE',  ( -8.699999999999999289, 1.065442715258197248E-15, 7.700000000000040146 ) ) ;
#188 = ORIENTED_EDGE ( 'NONE', *, *, #228, .F. ) ;
#189 = FACE_OUTER_BOUND ( 'NONE', #209, .T. ) ;
#190 = MANIFOLD_SOLID_BREP ( 'Odebrat vysunutím3', #95 ) ;
#191 = PLANE ( 'NONE',  #100 ) ;
#192 = CARTESIAN_POINT ( 'NONE',  ( 0.000000000000000000, 0.000000000000000000, 0.000000000000000000 ) ) ;
#193 = EDGE_LOOP ( 'NONE', ( #270, #220 ) ) ;
#194 = AXIS2_PLACEMENT_3D ( 'NONE', #22, #31, #13 ) ;
#195 = CARTESIAN_POINT ( 'NONE',  ( 0.000000000000000000, 0.000000000000000000, 7.000000000000000000 ) ) ;
#196 = ORGANIZATION ( 'NEURÈENÝ', 'NEURÈENÝ', '' ) ;
#197 = DIRECTION ( 'NONE',  ( 1.000000000000000000, 0.000000000000000000, 0.000000000000000000 ) ) ;
#198 = DIRECTION ( 'NONE',  ( -1.000000000000000000, 0.000000000000000000, 0.000000000000000000 ) ) ;
#199 =( LENGTH_UNIT ( ) NAMED_UNIT ( * ) SI_UNIT ( .MILLI., .METRE. ) );
#200 = EDGE_LOOP ( 'NONE', ( #206, #162, #170, #340 ) ) ;
#201 = CARTESIAN_POINT ( 'NONE',  ( 8.699999999999999289, 0.000000000000000000, 7.700000000000040146 ) ) ;
#202 = CARTESIAN_POINT ( 'NONE',  ( -11.00000000000000000, 0.000000000000000000, 7.000000000000000000 ) ) ;
#203 = AXIS2_PLACEMENT_3D ( 'NONE', #377, #132, #87 ) ;
#204 = AXIS2_PLACEMENT_3D ( 'NONE', #48, #344, #169 ) ;
#205 = EDGE_CURVE ( 'NONE', #154, #20, #164, .T. ) ;
#206 = ORIENTED_EDGE ( 'NONE', *, *, #276, .F. ) ;
#207 = CIRCLE ( 'NONE', #8, 11.00000000000000000 ) ;
#208 = AXIS2_PLACEMENT_3D ( 'NONE', #34, #247, #306 ) ;
#209 = EDGE_LOOP ( 'NONE', ( #223, #211, #86, #365 ) ) ;
#210 = APPROVAL_ROLE ( '' ) ;
#211 = ORIENTED_EDGE ( 'NONE', *, *, #155, .T. ) ;
#212 = EDGE_CURVE ( 'NONE', #15, #351, #207, .T. ) ;
#213 = DIRECTION ( 'NONE',  ( -0.000000000000000000, -0.000000000000000000, -1.000000000000000000 ) ) ;
#214 = DATE_TIME_ROLE ( 'creation_date' ) ;
#215 = AXIS2_PLACEMENT_3D ( 'NONE', #201, #55, #171 ) ;
#216 = DIRECTION ( 'NONE',  ( 1.000000000000000000, 0.000000000000000000, -0.000000000000000000 ) ) ;
#217 = CIRCLE ( 'NONE', #204, 8.000000000000000000 ) ;
#218 = APPROVAL_DATE_TIME ( #30, #54 ) ;
#219 = APPROVAL_ROLE ( '' ) ;
#220 = ORIENTED_EDGE ( 'NONE', *, *, #228, .T. ) ;
#221 = DIRECTION ( 'NONE',  ( -1.000000000000000000, 0.000000000000000000, 0.000000000000000000 ) ) ;
#222 = CARTESIAN_POINT ( 'NONE',  ( 11.00000000000000000, 1.347111479062088405E-15, 0.000000000000000000 ) ) ;
#223 = ORIENTED_EDGE ( 'NONE', *, *, #358, .F. ) ;
#224 = AXIS2_PLACEMENT_3D ( 'NONE', #192, #78, #197 ) ;
#225 = ORIENTED_EDGE ( 'NONE', *, *, #29, .T. ) ;
#226 = CARTESIAN_POINT ( 'NONE',  ( -6.000000000000000888, 0.000000000000000000, 807.0000000000000000 ) ) ;
#227 = CARTESIAN_POINT ( 'NONE',  ( -11.00000000000000000, 0.000000000000000000, 7.000000000000000000 ) ) ;
#228 = EDGE_CURVE ( 'NONE', #345, #327, #292, .T. ) ;
#229 = CC_DESIGN_DATE_AND_TIME_ASSIGNMENT ( #310, #214, ( #324 ) ) ;
#230 = FACE_OUTER_BOUND ( 'NONE', #104, .T. ) ;
#231 = AXIS2_PLACEMENT_3D ( 'NONE', #240, #235, #81 ) ;
#232 = CARTESIAN_POINT ( 'NONE',  ( 0.000000000000000000, 0.000000000000000000, 7.700000000000040146 ) ) ;
#233 = ORIENTED_EDGE ( 'NONE', *, *, #331, .F. ) ;
#234 = DIRECTION ( 'NONE',  ( -0.000000000000000000, -0.000000000000000000, -1.000000000000000000 ) ) ;
#235 = DIRECTION ( 'NONE',  ( -0.000000000000000000, -0.000000000000000000, -1.000000000000000000 ) ) ;
#236 = CARTESIAN_POINT ( 'NONE',  ( 0.000000000000000000, 0.000000000000000000, 0.000000000000000000 ) ) ;
#237 = TOROIDAL_SURFACE ( 'NONE', #208, 8.699999999999999289, 0.6999999999999999556 ) ;
#238 = CC_DESIGN_APPROVAL ( #7, ( #101 ) ) ;
#239 = DIRECTION ( 'NONE',  ( 0.000000000000000000, 0.000000000000000000, 1.000000000000000000 ) ) ;
#240 = CARTESIAN_POINT ( 'NONE',  ( 0.000000000000000000, 0.000000000000000000, 7.000000000000000000 ) ) ;
#241 = CARTESIAN_POINT ( 'NONE',  ( 6.000000000000000888, 7.347880794884120722E-16, 807.0000000000000000 ) ) ;
#242 = ADVANCED_FACE ( 'NONE', ( #264 ), #107, .T. ) ;
#243 = DIRECTION ( 'NONE',  ( 0.000000000000000000, 0.000000000000000000, 1.000000000000000000 ) ) ;
#244 = ORIENTED_EDGE ( 'NONE', *, *, #205, .T. ) ;
#245 = CALENDAR_DATE ( 2022, 8, 7 ) ;
#246 = LINE ( 'NONE', #157, #160 ) ;
#247 = DIRECTION ( 'NONE',  ( 0.000000000000000000, 0.000000000000000000, 1.000000000000000000 ) ) ;
#248 = TOROIDAL_SURFACE ( 'NONE', #186, 8.699999999999999289, 0.6999999999999999556 ) ;
#249 = CC_DESIGN_APPROVAL ( #182, ( #324 ) ) ;
#250 = DATE_AND_TIME ( #245, #163 ) ;
#251 = PRODUCT_RELATED_PRODUCT_CATEGORY ( 'detail', '', ( #338 ) ) ;
#252 = EDGE_LOOP ( 'NONE', ( #73, #113, #333, #183 ) ) ;
#253 = ORIENTED_EDGE ( 'NONE', *, *, #26, .T. ) ;
#254 = CIRCLE ( 'NONE', #381, 6.000000000000000888 ) ;
#255 = DIRECTION ( 'NONE',  ( 1.000000000000000000, 0.000000000000000000, -0.000000000000000000 ) ) ;
#256 = DIRECTION ( 'NONE',  ( 1.000000000000000000, 0.000000000000000000, -0.000000000000000000 ) ) ;
#257 = DIRECTION ( 'NONE',  ( 1.000000000000000000, 0.000000000000000000, 0.000000000000000000 ) ) ;
#258 = CARTESIAN_POINT ( 'NONE',  ( 8.000000000000000000, 9.797174393178825657E-16, 807.0000000000000000 ) ) ;
#259 = CARTESIAN_POINT ( 'NONE',  ( -11.00000000000000000, 0.000000000000000000, 0.000000000000000000 ) ) ;
#260 = AXIS2_PLACEMENT_3D ( 'NONE', #307, #301, #151 ) ;
#261 = CARTESIAN_POINT ( 'NONE',  ( -8.000000000000000000, 0.000000000000000000, 807.0000000000000000 ) ) ;
#262 = DIRECTION ( 'NONE',  ( 1.000000000000000000, 0.000000000000000000, 0.000000000000000000 ) ) ;
#263 = ADVANCED_FACE ( 'NONE', ( #349 ), #323, .F. ) ;
#264 = FACE_OUTER_BOUND ( 'NONE', #278, .T. ) ;
#265 = CC_DESIGN_PERSON_AND_ORGANIZATION_ASSIGNMENT ( #6, #67, ( #101 ) ) ;
#266 = AXIS2_PLACEMENT_3D ( 'NONE', #187, #315, #103 ) ;
#267 = LOCAL_TIME ( 16, 10, 48.00000000000000000, #158 ) ;
#268 = DIRECTION ( 'NONE',  ( 1.000000000000000000, 0.000000000000000000, 0.000000000000000000 ) ) ;
#269 = APPROVAL_STATUS ( 'not_yet_approved' ) ;
#270 = ORIENTED_EDGE ( 'NONE', *, *, #290, .T. ) ;
#271 = COORDINATED_UNIVERSAL_TIME_OFFSET ( 1, 0, .AHEAD. ) ;
#272 = EDGE_CURVE ( 'NONE', #167, #20, #39, .T. ) ;
#273 = CYLINDRICAL_SURFACE ( 'NONE', #318, 11.00000000000000000 ) ;
#274 = FACE_OUTER_BOUND ( 'NONE', #252, .T. ) ;
#275 = CYLINDRICAL_SURFACE ( 'NONE', #138, 8.000000000000000000 ) ;
#276 = EDGE_CURVE ( 'NONE', #14, #159, #24, .T. ) ;
#277 = PERSON_AND_ORGANIZATION ( #121, #196 ) ;
#278 = EDGE_LOOP ( 'NONE', ( #102, #136, #225, #97 ) ) ;
#279 = ORIENTED_EDGE ( 'NONE', *, *, #370, .F. ) ;
#280 = ADVANCED_FACE ( 'NONE', ( #116, #357 ), #93, .T. ) ;
#281 = FACE_BOUND ( 'NONE', #70, .T. ) ;
#282 = VECTOR ( 'NONE', #105, 1000.000000000000000 ) ;
#283 = CC_DESIGN_APPROVAL ( #54, ( #299 ) ) ;
#284 = CARTESIAN_POINT ( 'NONE',  ( 0.000000000000000000, 0.000000000000000000, 0.000000000000000000 ) ) ;
#285 = ORIENTED_EDGE ( 'NONE', *, *, #339, .T. ) ;
#286 = DIRECTION ( 'NONE',  ( 0.000000000000000000, 0.000000000000000000, 1.000000000000000000 ) ) ;
#287 = CARTESIAN_POINT ( 'NONE',  ( -6.000000000000000888, 0.000000000000000000, 0.000000000000000000 ) ) ;
#288 = CARTESIAN_POINT ( 'NONE',  ( -8.000000000000000000, 0.000000000000000000, 807.0000000000000000 ) ) ;
#289 = FACE_BOUND ( 'NONE', #353, .T. ) ;
#290 = EDGE_CURVE ( 'NONE', #327, #345, #19, .T. ) ;
#291 = LINE ( 'NONE', #226, #334 ) ;
#292 = CIRCLE ( 'NONE', #58, 8.000000000000000000 ) ;
#293 = APPROVAL_PERSON_ORGANIZATION ( #147, #182, #38 ) ;
#294 = MECHANICAL_CONTEXT ( 'NONE', #9, 'mechanical' ) ;
#295 = CC_DESIGN_PERSON_AND_ORGANIZATION_ASSIGNMENT ( #330, #66, ( #299 ) ) ;
#296 = DIRECTION ( 'NONE',  ( -1.000000000000000000, 0.000000000000000000, 0.000000000000000000 ) ) ;
#297 = PERSON_AND_ORGANIZATION_ROLE ( 'design_owner' ) ;
#298 = AXIS2_PLACEMENT_3D ( 'NONE', #42, #130, #255 ) ;
#299 = SECURITY_CLASSIFICATION ( '', '', #360 ) ;
#300 = FACE_OUTER_BOUND ( 'NONE', #200, .T. ) ;
#301 = DIRECTION ( 'NONE',  ( 0.000000000000000000, 0.000000000000000000, 1.000000000000000000 ) ) ;
#302 = CIRCLE ( 'NONE', #203, 8.000000000000000000 ) ;
#303 = CALENDAR_DATE ( 2022, 8, 7 ) ;
#304 = DIRECTION ( 'NONE',  ( 0.000000000000000000, 0.000000000000000000, 1.000000000000000000 ) ) ;
#305 = CARTESIAN_POINT ( 'NONE',  ( 0.000000000000000000, 0.000000000000000000, 807.0000000000000000 ) ) ;
#306 = DIRECTION ( 'NONE',  ( 1.000000000000000000, 0.000000000000000000, 0.000000000000000000 ) ) ;
#307 = CARTESIAN_POINT ( 'NONE',  ( 0.000000000000000000, 0.000000000000000000, 7.000000000000000000 ) ) ;
#308 = VERTEX_POINT ( 'NONE', #364 ) ;
#309 = CYLINDRICAL_SURFACE ( 'NONE', #44, 6.000000000000000888 ) ;
#310 = DATE_AND_TIME ( #69, #21 ) ;
#311 = PRODUCT_DEFINITION_SHAPE ( 'NONE', 'NONE',  #324 ) ;
#312 = FACE_OUTER_BOUND ( 'NONE', #175, .T. ) ;
#313 =( NAMED_UNIT ( * ) PLANE_ANGLE_UNIT ( ) SI_UNIT ( $, .RADIAN. ) );
#314 = ORIENTED_EDGE ( 'NONE', *, *, #71, .F. ) ;
#315 = DIRECTION ( 'NONE',  ( 1.224646799147353207E-16, 1.000000000000000000, -0.000000000000000000 ) ) ;
#316 = FACE_OUTER_BOUND ( 'NONE', #337, .T. ) ;
#317 = ORIENTED_EDGE ( 'NONE', *, *, #52, .T. ) ;
#318 = AXIS2_PLACEMENT_3D ( 'NONE', #62, #94, #181 ) ;
#319 = ADVANCED_FACE ( 'NONE', ( #189 ), #248, .F. ) ;
#320 = ORIENTED_EDGE ( 'NONE', *, *, #134, .F. ) ;
#321 = EDGE_LOOP ( 'NONE', ( #376, #380, #244, #125 ) ) ;
#322 = DIRECTION ( 'NONE',  ( 1.000000000000000000, 0.000000000000000000, 0.000000000000000000 ) ) ;
#323 = CYLINDRICAL_SURFACE ( 'NONE', #83, 6.000000000000000888 ) ;
#324 = PRODUCT_DEFINITION ( 'NEZNÁMÝ', '', #101, #74 ) ;
#325 = LINE ( 'NONE', #288, #282 ) ;
#326 = ADVANCED_FACE ( 'NONE', ( #281, #316 ), #16, .T. ) ;
#327 = VERTEX_POINT ( 'NONE', #261 ) ;
#328 = APPROVAL_STATUS ( 'not_yet_approved' ) ;
#329 = AXIS2_PLACEMENT_3D ( 'NONE', #51, #140, #262 ) ;
#330 = PERSON_AND_ORGANIZATION ( #121, #196 ) ;
#331 = EDGE_CURVE ( 'NONE', #347, #366, #180, .T. ) ;
#332 = COORDINATED_UNIVERSAL_TIME_OFFSET ( 1, 0, .AHEAD. ) ;
#333 = ORIENTED_EDGE ( 'NONE', *, *, #331, .T. ) ;
#334 = VECTOR ( 'NONE', #75, 1000.000000000000000 ) ;
#335 = ORIENTED_EDGE ( 'NONE', *, *, #142, .T. ) ;
#336 = DIRECTION ( 'NONE',  ( 1.000000000000000000, 0.000000000000000000, 0.000000000000000000 ) ) ;
#337 = EDGE_LOOP ( 'NONE', ( #99, #89 ) ) ;
#338 = PRODUCT ( '0cf5', '0cf5', '', ( #294 ) ) ;
#339 = EDGE_CURVE ( 'NONE', #308, #366, #291, .T. ) ;
#340 = ORIENTED_EDGE ( 'NONE', *, *, #29, .F. ) ;
#341 = CARTESIAN_POINT ( 'NONE',  ( 6.000000000000000888, 7.347880794884120722E-16, 0.000000000000000000 ) ) ;
#342 = CYLINDRICAL_SURFACE ( 'NONE', #64, 8.000000000000000000 ) ;
#343 = AXIS2_PLACEMENT_3D ( 'NONE', #346, #129, #336 ) ;
#344 = DIRECTION ( 'NONE',  ( 0.000000000000000000, 0.000000000000000000, 1.000000000000000000 ) ) ;
#345 = VERTEX_POINT ( 'NONE', #258 ) ;
#346 = CARTESIAN_POINT ( 'NONE',  ( 0.000000000000000000, 0.000000000000000000, 7.000000000000000000 ) ) ;
#347 = VERTEX_POINT ( 'NONE', #341 ) ;
#348 = EDGE_CURVE ( 'NONE', #351, #15, #172, .T. ) ;
#349 = FACE_OUTER_BOUND ( 'NONE', #369, .T. ) ;
#350 = DIRECTION ( 'NONE',  ( 0.000000000000000000, 0.000000000000000000, -1.000000000000000000 ) ) ;
#351 = VERTEX_POINT ( 'NONE', #222 ) ;
#352 = AXIS2_PLACEMENT_3D ( 'NONE', #63, #304, #216 ) ;
#353 = EDGE_LOOP ( 'NONE', ( #91, #233 ) ) ;
#354 = PERSON_AND_ORGANIZATION ( #121, #196 ) ;
#355 = ORIENTED_EDGE ( 'NONE', *, *, #272, .T. ) ;
#356 = CC_DESIGN_PERSON_AND_ORGANIZATION_ASSIGNMENT ( #277, #120, ( #324 ) ) ;
#357 = FACE_OUTER_BOUND ( 'NONE', #193, .T. ) ;
#358 = EDGE_CURVE ( 'NONE', #49, #154, #217, .T. ) ;
#359 = DIRECTION ( 'NONE',  ( -0.000000000000000000, -0.000000000000000000, -1.000000000000000000 ) ) ;
#360 = SECURITY_CLASSIFICATION_LEVEL ( 'unclassified' ) ;
#361 = DIRECTION ( 'NONE',  ( 0.000000000000000000, 0.000000000000000000, 1.000000000000000000 ) ) ;
#362 = DIRECTION ( 'NONE',  ( -1.000000000000000000, 0.000000000000000000, 0.000000000000000000 ) ) ;
#363 = DATE_TIME_ROLE ( 'classification_date' ) ;
#364 = CARTESIAN_POINT ( 'NONE',  ( -6.000000000000000888, 0.000000000000000000, 807.0000000000000000 ) ) ;
#365 = ORIENTED_EDGE ( 'NONE', *, *, #205, .F. ) ;
#366 = VERTEX_POINT ( 'NONE', #287 ) ;
#367 = DIRECTION ( 'NONE',  ( 0.000000000000000000, 0.000000000000000000, 1.000000000000000000 ) ) ;
#368 = ADVANCED_BREP_SHAPE_REPRESENTATION ( '0cf5', ( #190, #45 ), #25 ) ;
#369 = EDGE_LOOP ( 'NONE', ( #57, #61, #285, #253 ) ) ;
#370 = EDGE_CURVE ( 'NONE', #345, #154, #18, .T. ) ;
#371 = CARTESIAN_POINT ( 'NONE',  ( 0.000000000000000000, 0.000000000000000000, 807.0000000000000000 ) ) ;
#372 = VECTOR ( 'NONE', #234, 1000.000000000000000 ) ;
#373 = ORIENTED_EDGE ( 'NONE', *, *, #290, .F. ) ;
#374 = CARTESIAN_POINT ( 'NONE',  ( 8.000000000000000000, 9.797174393178825657E-16, 7.700000000000040146 ) ) ;
#375 = DIRECTION ( 'NONE',  ( -0.000000000000000000, -0.000000000000000000, -1.000000000000000000 ) ) ;
#376 = ORIENTED_EDGE ( 'NONE', *, *, #155, .F. ) ;
#377 = CARTESIAN_POINT ( 'NONE',  ( 0.000000000000000000, 0.000000000000000000, 7.700000000000040146 ) ) ;
#378 = DIRECTION ( 'NONE',  ( -0.000000000000000000, -0.000000000000000000, -1.000000000000000000 ) ) ;
#379 = CIRCLE ( 'NONE', #122, 11.00000000000000000 ) ;
#380 = ORIENTED_EDGE ( 'NONE', *, *, #52, .F. ) ;
#381 = AXIS2_PLACEMENT_3D ( 'NONE', #305, #367, #124 ) ;
ENDSEC;
END-ISO-10303-21;
