ISO-10303-21;
HEADER;
FILE_DESCRIPTION (( 'STEP AP203' ),
    '1' );
FILE_NAME ('fabd.STEP',
    '2022-07-08T14:57:36',
    ( '' ),
    ( '' ),
    'SwSTEP 2.0',
    'SolidWorks 2019',
    '' );
FILE_SCHEMA (( 'CONFIG_CONTROL_DESIGN' ));
ENDSEC;

DATA;
#1 = CARTESIAN_POINT ( 'NONE',  ( 0.000000000000000000, 0.000000000000000000, 0.000000000000000000 ) ) ;
#2 = DATE_AND_TIME ( #58, #187 ) ;
#3 = DIRECTION ( 'NONE',  ( 0.000000000000000000, 0.000000000000000000, 1.000000000000000000 ) ) ;
#4 = CC_DESIGN_SECURITY_CLASSIFICATION ( #360, ( #34 ) ) ;
#5 = DIRECTION ( 'NONE',  ( -1.000000000000000000, 0.000000000000000000, 0.000000000000000000 ) ) ;
#6 = APPLICATION_CONTEXT ( 'configuration controlled 3d designs of mechanical parts and assemblies' ) ;
#7 = DIRECTION ( 'NONE',  ( 1.000000000000000000, 0.000000000000000000, 0.000000000000000000 ) ) ;
#8 = DIRECTION ( 'NONE',  ( 0.000000000000000000, 0.000000000000000000, 1.000000000000000000 ) ) ;
#9 = AXIS2_PLACEMENT_3D ( 'NONE', #328, #295, #299 ) ;
#10 = COORDINATED_UNIVERSAL_TIME_OFFSET ( 1, 0, .AHEAD. ) ;
#11 = DIRECTION ( 'NONE',  ( 1.000000000000000000, 0.000000000000000000, 0.000000000000000000 ) ) ;
#12 = ORIENTED_EDGE ( 'NONE', *, *, #88, .F. ) ;
#13 = CARTESIAN_POINT ( 'NONE',  ( 5.000000000000000000, 6.123233995736766282E-16, 280.0000000000000000 ) ) ;
#14 = CIRCLE ( 'NONE', #271, 8.000000000000000000 ) ;
#15 = DIRECTION ( 'NONE',  ( 0.000000000000000000, -1.000000000000000000, 0.000000000000000000 ) ) ;
#16 = VERTEX_POINT ( 'NONE', #213 ) ;
#17 = ORIENTED_EDGE ( 'NONE', *, *, #57, .T. ) ;
#18 = AXIS2_PLACEMENT_3D ( 'NONE', #194, #128, #276 ) ;
#19 = DIRECTION ( 'NONE',  ( -1.000000000000000000, 0.000000000000000000, 0.000000000000000000 ) ) ;
#20 = ORIENTED_EDGE ( 'NONE', *, *, #242, .F. ) ;
#21 = DIRECTION ( 'NONE',  ( 1.000000000000000000, 0.000000000000000000, 0.000000000000000000 ) ) ;
#22 = EDGE_LOOP ( 'NONE', ( #243, #284, #344, #134 ) ) ;
#23 = APPROVAL_ROLE ( '' ) ;
#24 = FACE_OUTER_BOUND ( 'NONE', #202, .T. ) ;
#25 = AXIS2_PLACEMENT_3D ( 'NONE', #364, #305, #359 ) ;
#26 = PERSON_AND_ORGANIZATION_ROLE ( 'design_owner' ) ;
#27 = DIRECTION ( 'NONE',  ( 0.000000000000000000, 0.000000000000000000, 1.000000000000000000 ) ) ;
#28 = DIRECTION ( 'NONE',  ( 0.000000000000000000, 0.000000000000000000, 1.000000000000000000 ) ) ;
#29 = COORDINATED_UNIVERSAL_TIME_OFFSET ( 1, 0, .AHEAD. ) ;
#30 = FACE_BOUND ( 'NONE', #249, .T. ) ;
#31 = PERSON_AND_ORGANIZATION_ROLE ( 'classification_officer' ) ;
#32 = CARTESIAN_POINT ( 'NONE',  ( -3.000000000000000444, 0.000000000000000000, 280.0000000000000000 ) ) ;
#33 = AXIS2_PLACEMENT_3D ( 'NONE', #285, #309, #372 ) ;
#34 = PRODUCT_DEFINITION_FORMATION_WITH_SPECIFIED_SOURCE ( 'LIBOVOLNÝ', '', #70, .NOT_KNOWN. ) ;
#35 = CYLINDRICAL_SURFACE ( 'NONE', #353, 5.000000000000000000 ) ;
#36 = DIRECTION ( 'NONE',  ( 1.000000000000000000, 0.000000000000000000, 0.000000000000000000 ) ) ;
#37 = APPROVAL ( #121, 'NEURÈENÝ' ) ;
#38 = PLANE ( 'NONE',  #68 ) ;
#39 = CARTESIAN_POINT ( 'NONE',  ( -5.000000000000000000, 0.000000000000000000, 280.0000000000000000 ) ) ;
#40 = ORIENTED_EDGE ( 'NONE', *, *, #322, .F. ) ;
#41 = APPROVAL_DATE_TIME ( #304, #217 ) ;
#42 = LINE ( 'NONE', #155, #338 ) ;
#43 = CYLINDRICAL_SURFACE ( 'NONE', #201, 8.000000000000000000 ) ;
#44 = ADVANCED_FACE ( 'NONE', ( #354 ), #238, .T. ) ;
#45 = CARTESIAN_POINT ( 'NONE',  ( 5.500000000000000000, 0.000000000000000000, 5.500000000000005329 ) ) ;
#46 = EDGE_LOOP ( 'NONE', ( #261, #255, #228, #258 ) ) ;
#47 = CYLINDRICAL_SURFACE ( 'NONE', #33, 5.000000000000000000 ) ;
#48 = ADVANCED_FACE ( 'NONE', ( #24 ), #35, .T. ) ;
#49 = ORIENTED_EDGE ( 'NONE', *, *, #212, .T. ) ;
#50 =( NAMED_UNIT ( * ) SI_UNIT ( $, .STERADIAN. ) SOLID_ANGLE_UNIT ( ) );
#51 = ORIENTED_EDGE ( 'NONE', *, *, #252, .F. ) ;
#52 = VECTOR ( 'NONE', #125, 1000.000000000000000 ) ;
#53 = DESIGN_CONTEXT ( 'detailed design', #314, 'design' ) ;
#54 = CC_DESIGN_APPROVAL ( #37, ( #34 ) ) ;
#55 = APPROVAL_DATE_TIME ( #211, #37 ) ;
#56 = VERTEX_POINT ( 'NONE', #32 ) ;
#57 = EDGE_CURVE ( 'NONE', #288, #318, #345, .T. ) ;
#58 = CALENDAR_DATE ( 2022, 8, 7 ) ;
#59 = CYLINDRICAL_SURFACE ( 'NONE', #85, 3.000000000000000444 ) ;
#60 = DIRECTION ( 'NONE',  ( 0.000000000000000000, 0.000000000000000000, 1.000000000000000000 ) ) ;
#61 = AXIS2_PLACEMENT_3D ( 'NONE', #184, #357, #207 ) ;
#62 = COORDINATED_UNIVERSAL_TIME_OFFSET ( 1, 0, .AHEAD. ) ;
#63 = LOCAL_TIME ( 16, 57, 36.00000000000000000, #123 ) ;
#64 = FACE_OUTER_BOUND ( 'NONE', #102, .T. ) ;
#65 = APPROVAL_STATUS ( 'not_yet_approved' ) ;
#66 = DIRECTION ( 'NONE',  ( 1.000000000000000000, 0.000000000000000000, 0.000000000000000000 ) ) ;
#67 = DIRECTION ( 'NONE',  ( -1.000000000000000000, 0.000000000000000000, 0.000000000000000000 ) ) ;
#68 = AXIS2_PLACEMENT_3D ( 'NONE', #257, #341, #82 ) ;
#69 = CARTESIAN_POINT ( 'NONE',  ( -8.000000000000000000, 0.000000000000000000, 0.000000000000000000 ) ) ;
#70 = PRODUCT ( 'fabd', 'fabd', '', ( #270 ) ) ;
#71 = CIRCLE ( 'NONE', #277, 3.000000000000000444 ) ;
#72 = ORIENTED_EDGE ( 'NONE', *, *, #275, .T. ) ;
#73 = LINE ( 'NONE', #39, #208 ) ;
#74 = CARTESIAN_POINT ( 'NONE',  ( -3.000000000000000444, 0.000000000000000000, 280.0000000000000000 ) ) ;
#75 = CARTESIAN_POINT ( 'NONE',  ( 0.000000000000000000, 0.000000000000000000, 0.000000000000000000 ) ) ;
#76 = CARTESIAN_POINT ( 'NONE',  ( 5.000000000000000000, 6.123233995736766282E-16, 5.500000000000005329 ) ) ;
#77 = CIRCLE ( 'NONE', #282, 3.000000000000000444 ) ;
#78 = PERSON ( 'NEURÈENÝ', 'NEURÈENÝ', 'NEURÈENÝ', ('NEURÈENÝ'), ('NEURÈENÝ'), ('NEURÈENÝ') ) ;
#79 = EDGE_CURVE ( 'NONE', #302, #16, #319, .T. ) ;
#80 = CARTESIAN_POINT ( 'NONE',  ( 0.000000000000000000, 0.000000000000000000, 280.0000000000000000 ) ) ;
#81 = ORIENTED_EDGE ( 'NONE', *, *, #138, .T. ) ;
#82 = DIRECTION ( 'NONE',  ( 1.000000000000000000, 0.000000000000000000, -0.000000000000000000 ) ) ;
#83 = VERTEX_POINT ( 'NONE', #272 ) ;
#84 = VERTEX_POINT ( 'NONE', #142 ) ;
#85 = AXIS2_PLACEMENT_3D ( 'NONE', #124, #153, #5 ) ;
#86 = APPROVAL_DATE_TIME ( #2, #221 ) ;
#87 = ORIENTED_EDGE ( 'NONE', *, *, #233, .T. ) ;
#88 = EDGE_CURVE ( 'NONE', #313, #189, #377, .T. ) ;
#89 = APPROVAL_ROLE ( '' ) ;
#90 = CARTESIAN_POINT ( 'NONE',  ( -8.000000000000000000, 0.000000000000000000, 5.000000000000000000 ) ) ;
#91 = VECTOR ( 'NONE', #132, 1000.000000000000000 ) ;
#92 = DATE_AND_TIME ( #352, #63 ) ;
#93 = CC_DESIGN_DATE_AND_TIME_ASSIGNMENT ( #378, #118, ( #360 ) ) ;
#94 = DIRECTION ( 'NONE',  ( -0.000000000000000000, -0.000000000000000000, -1.000000000000000000 ) ) ;
#95 = APPLICATION_PROTOCOL_DEFINITION ( 'international standard', 'config_control_design', 1994, #314 ) ;
#96 = DIRECTION ( 'NONE',  ( -0.000000000000000000, -0.000000000000000000, -1.000000000000000000 ) ) ;
#97 = ORIENTED_EDGE ( 'NONE', *, *, #212, .F. ) ;
#98 = DIRECTION ( 'NONE',  ( 1.000000000000000000, 0.000000000000000000, 0.000000000000000000 ) ) ;
#99 = EDGE_CURVE ( 'NONE', #302, #362, #148, .T. ) ;
#100 = AXIS2_PLACEMENT_3D ( 'NONE', #274, #127, #236 ) ;
#101 = DIRECTION ( 'NONE',  ( 1.000000000000000000, 0.000000000000000000, -0.000000000000000000 ) ) ;
#102 = EDGE_LOOP ( 'NONE', ( #335, #136, #126, #20 ) ) ;
#103 = AXIS2_PLACEMENT_3D ( 'NONE', #80, #107, #343 ) ;
#104 = EDGE_CURVE ( 'NONE', #189, #288, #185, .T. ) ;
#105 = LOCAL_TIME ( 16, 57, 36.00000000000000000, #62 ) ;
#106 = CARTESIAN_POINT ( 'NONE',  ( 0.000000000000000000, 0.000000000000000000, 280.0000000000000000 ) ) ;
#107 = DIRECTION ( 'NONE',  ( 0.000000000000000000, 0.000000000000000000, -1.000000000000000000 ) ) ;
#108 = CARTESIAN_POINT ( 'NONE',  ( 3.000000000000000444, 3.673940397442060361E-16, 280.0000000000000000 ) ) ;
#109 = TOROIDAL_SURFACE ( 'NONE', #365, 5.500000000000000000, 0.5000000000000000000 ) ;
#110 = ORIENTED_EDGE ( 'NONE', *, *, #138, .F. ) ;
#111 = DIRECTION ( 'NONE',  ( 1.000000000000000000, 0.000000000000000000, 0.000000000000000000 ) ) ;
#112 = ORIENTED_EDGE ( 'NONE', *, *, #337, .F. ) ;
#113 = LINE ( 'NONE', #108, #91 ) ;
#114 = EDGE_LOOP ( 'NONE', ( #110, #321 ) ) ;
#115 = ADVANCED_FACE ( 'NONE', ( #150 ), #59, .F. ) ;
#116 = ORIENTED_EDGE ( 'NONE', *, *, #99, .F. ) ;
#117 = AXIS2_PLACEMENT_3D ( 'NONE', #244, #327, #66 ) ;
#118 = DATE_TIME_ROLE ( 'classification_date' ) ;
#119 = PLANE ( 'NONE',  #196 ) ;
#120 = EDGE_CURVE ( 'NONE', #84, #83, #77, .T. ) ;
#121 = APPROVAL_STATUS ( 'not_yet_approved' ) ;
#122 = EDGE_CURVE ( 'NONE', #339, #56, #224, .T. ) ;
#123 = COORDINATED_UNIVERSAL_TIME_OFFSET ( 1, 0, .AHEAD. ) ;
#124 = CARTESIAN_POINT ( 'NONE',  ( 0.000000000000000000, 0.000000000000000000, 280.0000000000000000 ) ) ;
#125 = DIRECTION ( 'NONE',  ( -0.000000000000000000, -0.000000000000000000, -1.000000000000000000 ) ) ;
#126 = ORIENTED_EDGE ( 'NONE', *, *, #297, .T. ) ;
#127 = DIRECTION ( 'NONE',  ( 0.000000000000000000, 0.000000000000000000, 1.000000000000000000 ) ) ;
#128 = DIRECTION ( 'NONE',  ( 0.000000000000000000, 0.000000000000000000, 1.000000000000000000 ) ) ;
#129 = DIRECTION ( 'NONE',  ( 0.000000000000000000, 0.000000000000000000, -1.000000000000000000 ) ) ;
#130 = AXIS2_PLACEMENT_3D ( 'NONE', #149, #96, #98 ) ;
#131 = EDGE_LOOP ( 'NONE', ( #51, #342, #262, #17 ) ) ;
#132 = DIRECTION ( 'NONE',  ( 0.000000000000000000, 0.000000000000000000, -1.000000000000000000 ) ) ;
#133 = CIRCLE ( 'NONE', #287, 5.500000000000000000 ) ;
#134 = ORIENTED_EDGE ( 'NONE', *, *, #297, .F. ) ;
#135 = CIRCLE ( 'NONE', #130, 3.000000000000000444 ) ;
#136 = ORIENTED_EDGE ( 'NONE', *, *, #281, .F. ) ;
#137 = ORIENTED_EDGE ( 'NONE', *, *, #337, .T. ) ;
#138 = EDGE_CURVE ( 'NONE', #83, #84, #135, .T. ) ;
#139 = PERSON_AND_ORGANIZATION ( #78, #151 ) ;
#140 = ORIENTED_EDGE ( 'NONE', *, *, #122, .F. ) ;
#141 = PERSON_AND_ORGANIZATION ( #78, #151 ) ;
#142 = CARTESIAN_POINT ( 'NONE',  ( 3.000000000000000444, 3.673940397442060361E-16, 0.000000000000000000 ) ) ;
#143 = CIRCLE ( 'NONE', #334, 0.5000000000000004441 ) ;
#144 = LOCAL_TIME ( 16, 57, 36.00000000000000000, #10 ) ;
#145 = PERSON_AND_ORGANIZATION ( #78, #151 ) ;
#146 = DIRECTION ( 'NONE',  ( 1.000000000000000000, 0.000000000000000000, 0.000000000000000000 ) ) ;
#147 = PRODUCT_RELATED_PRODUCT_CATEGORY ( 'detail', '', ( #70 ) ) ;
#148 = LINE ( 'NONE', #348, #52 ) ;
#149 = CARTESIAN_POINT ( 'NONE',  ( 0.000000000000000000, 0.000000000000000000, 0.000000000000000000 ) ) ;
#150 = FACE_OUTER_BOUND ( 'NONE', #165, .T. ) ;
#151 = ORGANIZATION ( 'NEURÈENÝ', 'NEURÈENÝ', '' ) ;
#152 = ADVANCED_BREP_SHAPE_REPRESENTATION ( 'fabd', ( #259, #219 ), #174 ) ;
#153 = DIRECTION ( 'NONE',  ( 0.000000000000000000, 0.000000000000000000, -1.000000000000000000 ) ) ;
#154 = ADVANCED_FACE ( 'NONE', ( #181, #186 ), #119, .T. ) ;
#155 = CARTESIAN_POINT ( 'NONE',  ( 8.000000000000000000, 9.797174393178825657E-16, 5.000000000000000000 ) ) ;
#156 = CARTESIAN_POINT ( 'NONE',  ( -8.000000000000000000, 0.000000000000000000, 5.000000000000000000 ) ) ;
#157 = CALENDAR_DATE ( 2022, 8, 7 ) ;
#158 = DIRECTION ( 'NONE',  ( -0.000000000000000000, -0.000000000000000000, -1.000000000000000000 ) ) ;
#159 = FACE_OUTER_BOUND ( 'NONE', #215, .T. ) ;
#160 = CIRCLE ( 'NONE', #371, 5.500000000000000000 ) ;
#161 = APPROVAL_PERSON_ORGANIZATION ( #235, #217, #89 ) ;
#162 = DIRECTION ( 'NONE',  ( 1.000000000000000000, 0.000000000000000000, 0.000000000000000000 ) ) ;
#163 = DIRECTION ( 'NONE',  ( 0.000000000000000000, 0.000000000000000000, 1.000000000000000000 ) ) ;
#164 = EDGE_CURVE ( 'NONE', #323, #362, #310, .T. ) ;
#165 = EDGE_LOOP ( 'NONE', ( #112, #316, #203, #81 ) ) ;
#166 = PLANE ( 'NONE',  #191 ) ;
#167 = FACE_OUTER_BOUND ( 'NONE', #22, .T. ) ;
#168 = VECTOR ( 'NONE', #129, 1000.000000000000000 ) ;
#169 = DIRECTION ( 'NONE',  ( 1.000000000000000000, 0.000000000000000000, 0.000000000000000000 ) ) ;
#170 = EDGE_LOOP ( 'NONE', ( #49, #198 ) ) ;
#171 = CYLINDRICAL_SURFACE ( 'NONE', #103, 3.000000000000000444 ) ;
#172 = VERTEX_POINT ( 'NONE', #267 ) ;
#173 = AXIS2_PLACEMENT_3D ( 'NONE', #265, #94, #326 ) ;
#174 =( GEOMETRIC_REPRESENTATION_CONTEXT ( 3 ) GLOBAL_UNCERTAINTY_ASSIGNED_CONTEXT ( ( #260 ) ) GLOBAL_UNIT_ASSIGNED_CONTEXT ( ( #312, #340, #50 ) ) REPRESENTATION_CONTEXT ( 'NONE', 'WORKASPACE' ) );
#175 = CARTESIAN_POINT ( 'NONE',  ( 0.000000000000000000, 0.000000000000000000, 5.000000000000000000 ) ) ;
#176 = ORIENTED_EDGE ( 'NONE', *, *, #252, .T. ) ;
#177 = ADVANCED_FACE ( 'NONE', ( #64 ), #109, .F. ) ;
#178 = ORIENTED_EDGE ( 'NONE', *, *, #120, .T. ) ;
#179 = PERSON_AND_ORGANIZATION_ROLE ( 'creator' ) ;
#180 = PERSON_AND_ORGANIZATION ( #78, #151 ) ;
#181 = FACE_BOUND ( 'NONE', #376, .T. ) ;
#182 = AXIS2_PLACEMENT_3D ( 'NONE', #320, #253, #111 ) ;
#183 = PERSON_AND_ORGANIZATION_ROLE ( 'design_supplier' ) ;
#184 = CARTESIAN_POINT ( 'NONE',  ( 0.000000000000000000, 0.000000000000000000, 5.500000000000005329 ) ) ;
#185 = LINE ( 'NONE', #90, #294 ) ;
#186 = FACE_OUTER_BOUND ( 'NONE', #170, .T. ) ;
#187 = LOCAL_TIME ( 16, 57, 36.00000000000000000, #29 ) ;
#188 = ADVANCED_FACE ( 'NONE', ( #30, #193 ), #166, .T. ) ;
#189 = VERTEX_POINT ( 'NONE', #156 ) ;
#190 = EDGE_CURVE ( 'NONE', #56, #339, #71, .T. ) ;
#191 = AXIS2_PLACEMENT_3D ( 'NONE', #332, #163, #101 ) ;
#192 = DIRECTION ( 'NONE',  ( -0.000000000000000000, -0.000000000000000000, -1.000000000000000000 ) ) ;
#193 = FACE_OUTER_BOUND ( 'NONE', #375, .T. ) ;
#194 = CARTESIAN_POINT ( 'NONE',  ( 0.000000000000000000, 0.000000000000000000, 5.500000000000005329 ) ) ;
#195 = FACE_OUTER_BOUND ( 'NONE', #46, .T. ) ;
#196 = AXIS2_PLACEMENT_3D ( 'NONE', #205, #28, #301 ) ;
#197 = ORIENTED_EDGE ( 'NONE', *, *, #242, .T. ) ;
#198 = ORIENTED_EDGE ( 'NONE', *, *, #79, .T. ) ;
#199 = CC_DESIGN_PERSON_AND_ORGANIZATION_ASSIGNMENT ( #145, #179, ( #245 ) ) ;
#200 = ORIENTED_EDGE ( 'NONE', *, *, #190, .F. ) ;
#201 = AXIS2_PLACEMENT_3D ( 'NONE', #278, #158, #19 ) ;
#202 = EDGE_LOOP ( 'NONE', ( #116, #97, #72, #373 ) ) ;
#203 = ORIENTED_EDGE ( 'NONE', *, *, #204, .T. ) ;
#204 = EDGE_CURVE ( 'NONE', #56, #83, #367, .T. ) ;
#205 = CARTESIAN_POINT ( 'NONE',  ( 0.000000000000000000, 0.000000000000000000, 280.0000000000000000 ) ) ;
#206 = PERSON_AND_ORGANIZATION_ROLE ( 'creator' ) ;
#207 = DIRECTION ( 'NONE',  ( 1.000000000000000000, 0.000000000000000000, 0.000000000000000000 ) ) ;
#208 = VECTOR ( 'NONE', #331, 1000.000000000000000 ) ;
#209 = SECURITY_CLASSIFICATION_LEVEL ( 'unclassified' ) ;
#210 = DIRECTION ( 'NONE',  ( -0.000000000000000000, -0.000000000000000000, -1.000000000000000000 ) ) ;
#211 = DATE_AND_TIME ( #237, #105 ) ;
#212 = EDGE_CURVE ( 'NONE', #16, #302, #325, .T. ) ;
#213 = CARTESIAN_POINT ( 'NONE',  ( -5.000000000000000000, 0.000000000000000000, 280.0000000000000000 ) ) ;
#214 = EDGE_CURVE ( 'NONE', #323, #172, #216, .T. ) ;
#215 = EDGE_LOOP ( 'NONE', ( #225, #40 ) ) ;
#216 = CIRCLE ( 'NONE', #25, 0.5000000000000004441 ) ;
#217 = APPROVAL ( #347, 'NEURÈENÝ' ) ;
#218 = DIRECTION ( 'NONE',  ( 0.000000000000000000, 0.000000000000000000, 1.000000000000000000 ) ) ;
#219 = AXIS2_PLACEMENT_3D ( 'NONE', #241, #381, #21 ) ;
#220 = ORIENTED_EDGE ( 'NONE', *, *, #104, .F. ) ;
#221 = APPROVAL ( #65, 'NEURÈENÝ' ) ;
#222 = CARTESIAN_POINT ( 'NONE',  ( 8.000000000000000000, 9.797174393178825657E-16, 5.000000000000000000 ) ) ;
#223 = CARTESIAN_POINT ( 'NONE',  ( 3.000000000000000444, 3.673940397442060361E-16, 280.0000000000000000 ) ) ;
#224 = CIRCLE ( 'NONE', #100, 3.000000000000000444 ) ;
#225 = ORIENTED_EDGE ( 'NONE', *, *, #57, .F. ) ;
#226 = ADVANCED_FACE ( 'NONE', ( #307, #159 ), #38, .F. ) ;
#227 = CARTESIAN_POINT ( 'NONE',  ( 5.500000000000000000, 0.000000000000000000, 5.000000000000002665 ) ) ;
#228 = ORIENTED_EDGE ( 'NONE', *, *, #281, .T. ) ;
#229 = FACE_OUTER_BOUND ( 'NONE', #292, .T. ) ;
#230 = ORIENTED_EDGE ( 'NONE', *, *, #322, .T. ) ;
#231 = COORDINATED_UNIVERSAL_TIME_OFFSET ( 1, 0, .AHEAD. ) ;
#232 = CC_DESIGN_APPROVAL ( #221, ( #245 ) ) ;
#233 = EDGE_CURVE ( 'NONE', #189, #313, #14, .T. ) ;
#234 = ORIENTED_EDGE ( 'NONE', *, *, #88, .T. ) ;
#235 = PERSON_AND_ORGANIZATION ( #78, #151 ) ;
#236 = DIRECTION ( 'NONE',  ( 1.000000000000000000, 0.000000000000000000, 0.000000000000000000 ) ) ;
#237 = CALENDAR_DATE ( 2022, 8, 7 ) ;
#238 = CYLINDRICAL_SURFACE ( 'NONE', #173, 8.000000000000000000 ) ;
#239 = CARTESIAN_POINT ( 'NONE',  ( 0.000000000000000000, 0.000000000000000000, 280.0000000000000000 ) ) ;
#240 = AXIS2_PLACEMENT_3D ( 'NONE', #75, #251, #317 ) ;
#241 = CARTESIAN_POINT ( 'NONE',  ( 0.000000000000000000, 0.000000000000000000, 0.000000000000000000 ) ) ;
#242 = EDGE_CURVE ( 'NONE', #172, #370, #160, .T. ) ;
#243 = ORIENTED_EDGE ( 'NONE', *, *, #164, .F. ) ;
#244 = CARTESIAN_POINT ( 'NONE',  ( 0.000000000000000000, 0.000000000000000000, 5.000000000000000000 ) ) ;
#245 = PRODUCT_DEFINITION ( 'NEZNÁMÝ', '', #34, #53 ) ;
#246 = LOCAL_TIME ( 16, 57, 36.00000000000000000, #231 ) ;
#247 = SHAPE_DEFINITION_REPRESENTATION ( #308, #152 ) ;
#248 = CARTESIAN_POINT ( 'NONE',  ( 0.000000000000000000, 0.000000000000000000, 5.000000000000000000 ) ) ;
#249 = EDGE_LOOP ( 'NONE', ( #289, #197 ) ) ;
#250 = APPROVAL_PERSON_ORGANIZATION ( #296, #221, #23 ) ;
#251 = DIRECTION ( 'NONE',  ( 0.000000000000000000, 0.000000000000000000, 1.000000000000000000 ) ) ;
#252 = EDGE_CURVE ( 'NONE', #313, #318, #42, .T. ) ;
#253 = DIRECTION ( 'NONE',  ( 0.000000000000000000, 0.000000000000000000, 1.000000000000000000 ) ) ;
#254 = DIRECTION ( 'NONE',  ( 0.000000000000000000, 0.000000000000000000, -1.000000000000000000 ) ) ;
#255 = ORIENTED_EDGE ( 'NONE', *, *, #99, .T. ) ;
#256 = CIRCLE ( 'NONE', #240, 8.000000000000000000 ) ;
#257 = CARTESIAN_POINT ( 'NONE',  ( 0.000000000000000000, 0.000000000000000000, 0.000000000000000000 ) ) ;
#258 = ORIENTED_EDGE ( 'NONE', *, *, #275, .F. ) ;
#259 = MANIFOLD_SOLID_BREP ( 'Odebrat vysunutím3', #333 ) ;
#260 = UNCERTAINTY_MEASURE_WITH_UNIT (LENGTH_MEASURE( 1.000000000000000082E-05 ), #312, 'distance_accuracy_value', 'NONE');
#261 = ORIENTED_EDGE ( 'NONE', *, *, #79, .F. ) ;
#262 = ORIENTED_EDGE ( 'NONE', *, *, #104, .T. ) ;
#263 = CALENDAR_DATE ( 2022, 8, 7 ) ;
#264 = AXIS2_PLACEMENT_3D ( 'NONE', #106, #218, #330 ) ;
#265 = CARTESIAN_POINT ( 'NONE',  ( 0.000000000000000000, 0.000000000000000000, 5.000000000000000000 ) ) ;
#266 = PERSON_AND_ORGANIZATION ( #78, #151 ) ;
#267 = CARTESIAN_POINT ( 'NONE',  ( -5.500000000000000000, 6.735557395310442023E-16, 5.000000000000002665 ) ) ;
#268 = CARTESIAN_POINT ( 'NONE',  ( 0.000000000000000000, 0.000000000000000000, 5.500000000000005329 ) ) ;
#269 = CC_DESIGN_DATE_AND_TIME_ASSIGNMENT ( #92, #291, ( #245 ) ) ;
#270 = MECHANICAL_CONTEXT ( 'NONE', #6, 'mechanical' ) ;
#271 = AXIS2_PLACEMENT_3D ( 'NONE', #175, #27, #146 ) ;
#272 = CARTESIAN_POINT ( 'NONE',  ( -3.000000000000000444, 0.000000000000000000, 0.000000000000000000 ) ) ;
#273 = CC_DESIGN_APPROVAL ( #217, ( #360 ) ) ;
#274 = CARTESIAN_POINT ( 'NONE',  ( 0.000000000000000000, 0.000000000000000000, 280.0000000000000000 ) ) ;
#275 = EDGE_CURVE ( 'NONE', #16, #323, #73, .T. ) ;
#276 = DIRECTION ( 'NONE',  ( 1.000000000000000000, 0.000000000000000000, 0.000000000000000000 ) ) ;
#277 = AXIS2_PLACEMENT_3D ( 'NONE', #279, #8, #11 ) ;
#278 = CARTESIAN_POINT ( 'NONE',  ( 0.000000000000000000, 0.000000000000000000, 5.000000000000000000 ) ) ;
#279 = CARTESIAN_POINT ( 'NONE',  ( 0.000000000000000000, 0.000000000000000000, 280.0000000000000000 ) ) ;
#280 = ORIENTED_EDGE ( 'NONE', *, *, #190, .T. ) ;
#281 = EDGE_CURVE ( 'NONE', #362, #323, #300, .T. ) ;
#282 = AXIS2_PLACEMENT_3D ( 'NONE', #1, #351, #355 ) ;
#283 = CC_DESIGN_PERSON_AND_ORGANIZATION_ASSIGNMENT ( #139, #31, ( #360 ) ) ;
#284 = ORIENTED_EDGE ( 'NONE', *, *, #214, .T. ) ;
#285 = CARTESIAN_POINT ( 'NONE',  ( 0.000000000000000000, 0.000000000000000000, 280.0000000000000000 ) ) ;
#286 = EDGE_LOOP ( 'NONE', ( #12, #176, #230, #220 ) ) ;
#287 = AXIS2_PLACEMENT_3D ( 'NONE', #374, #336, #169 ) ;
#288 = VERTEX_POINT ( 'NONE', #69 ) ;
#289 = ORIENTED_EDGE ( 'NONE', *, *, #356, .T. ) ;
#290 = ADVANCED_FACE ( 'NONE', ( #306 ), #43, .T. ) ;
#291 = DATE_TIME_ROLE ( 'creation_date' ) ;
#292 = EDGE_LOOP ( 'NONE', ( #280, #137, #178, #346 ) ) ;
#293 = APPROVAL_ROLE ( '' ) ;
#294 = VECTOR ( 'NONE', #380, 1000.000000000000000 ) ;
#295 = DIRECTION ( 'NONE',  ( 0.000000000000000000, 0.000000000000000000, 1.000000000000000000 ) ) ;
#296 = PERSON_AND_ORGANIZATION ( #78, #151 ) ;
#297 = EDGE_CURVE ( 'NONE', #362, #370, #143, .T. ) ;
#298 = APPLICATION_PROTOCOL_DEFINITION ( 'international standard', 'config_control_design', 1994, #6 ) ;
#299 = DIRECTION ( 'NONE',  ( 1.000000000000000000, 0.000000000000000000, 0.000000000000000000 ) ) ;
#300 = CIRCLE ( 'NONE', #18, 5.000000000000000000 ) ;
#301 = DIRECTION ( 'NONE',  ( 1.000000000000000000, 0.000000000000000000, -0.000000000000000000 ) ) ;
#302 = VERTEX_POINT ( 'NONE', #13 ) ;
#303 = CC_DESIGN_PERSON_AND_ORGANIZATION_ASSIGNMENT ( #180, #26, ( #70 ) ) ;
#304 = DATE_AND_TIME ( #157, #144 ) ;
#305 = DIRECTION ( 'NONE',  ( 1.224646799147353207E-16, 1.000000000000000000, -0.000000000000000000 ) ) ;
#306 = FACE_OUTER_BOUND ( 'NONE', #131, .T. ) ;
#307 = FACE_BOUND ( 'NONE', #114, .T. ) ;
#308 = PRODUCT_DEFINITION_SHAPE ( 'NONE', 'NONE',  #245 ) ;
#309 = DIRECTION ( 'NONE',  ( -0.000000000000000000, -0.000000000000000000, -1.000000000000000000 ) ) ;
#310 = CIRCLE ( 'NONE', #61, 5.000000000000000000 ) ;
#311 = CC_DESIGN_PERSON_AND_ORGANIZATION_ASSIGNMENT ( #141, #183, ( #34 ) ) ;
#312 =( LENGTH_UNIT ( ) NAMED_UNIT ( * ) SI_UNIT ( .MILLI., .METRE. ) );
#313 = VERTEX_POINT ( 'NONE', #222 ) ;
#314 = APPLICATION_CONTEXT ( 'configuration controlled 3d designs of mechanical parts and assemblies' ) ;
#315 = CARTESIAN_POINT ( 'NONE',  ( -5.000000000000000000, 0.000000000000000000, 5.500000000000005329 ) ) ;
#316 = ORIENTED_EDGE ( 'NONE', *, *, #122, .T. ) ;
#317 = DIRECTION ( 'NONE',  ( 1.000000000000000000, 0.000000000000000000, 0.000000000000000000 ) ) ;
#318 = VERTEX_POINT ( 'NONE', #369 ) ;
#319 = CIRCLE ( 'NONE', #329, 5.000000000000000000 ) ;
#320 = CARTESIAN_POINT ( 'NONE',  ( 0.000000000000000000, 0.000000000000000000, 5.500000000000005329 ) ) ;
#321 = ORIENTED_EDGE ( 'NONE', *, *, #120, .F. ) ;
#322 = EDGE_CURVE ( 'NONE', #318, #288, #256, .T. ) ;
#323 = VERTEX_POINT ( 'NONE', #315 ) ;
#324 = CARTESIAN_POINT ( 'NONE',  ( 0.000000000000000000, 0.000000000000000000, 280.0000000000000000 ) ) ;
#325 = CIRCLE ( 'NONE', #264, 5.000000000000000000 ) ;
#326 = DIRECTION ( 'NONE',  ( -1.000000000000000000, 0.000000000000000000, 0.000000000000000000 ) ) ;
#327 = DIRECTION ( 'NONE',  ( 0.000000000000000000, 0.000000000000000000, 1.000000000000000000 ) ) ;
#328 = CARTESIAN_POINT ( 'NONE',  ( 0.000000000000000000, 0.000000000000000000, 0.000000000000000000 ) ) ;
#329 = AXIS2_PLACEMENT_3D ( 'NONE', #239, #60, #7 ) ;
#330 = DIRECTION ( 'NONE',  ( 1.000000000000000000, 0.000000000000000000, 0.000000000000000000 ) ) ;
#331 = DIRECTION ( 'NONE',  ( -0.000000000000000000, -0.000000000000000000, -1.000000000000000000 ) ) ;
#332 = CARTESIAN_POINT ( 'NONE',  ( 0.000000000000000000, 0.000000000000000000, 5.000000000000000000 ) ) ;
#333 = CLOSED_SHELL ( 'NONE', ( #349, #368, #361, #44, #290, #188, #226, #48, #154, #177, #115 ) ) ;
#334 = AXIS2_PLACEMENT_3D ( 'NONE', #45, #15, #254 ) ;
#335 = ORIENTED_EDGE ( 'NONE', *, *, #214, .F. ) ;
#336 = DIRECTION ( 'NONE',  ( -0.000000000000000000, -0.000000000000000000, -1.000000000000000000 ) ) ;
#337 = EDGE_CURVE ( 'NONE', #339, #84, #113, .T. ) ;
#338 = VECTOR ( 'NONE', #363, 1000.000000000000000 ) ;
#339 = VERTEX_POINT ( 'NONE', #223 ) ;
#340 =( NAMED_UNIT ( * ) PLANE_ANGLE_UNIT ( ) SI_UNIT ( $, .RADIAN. ) );
#341 = DIRECTION ( 'NONE',  ( 0.000000000000000000, 0.000000000000000000, 1.000000000000000000 ) ) ;
#342 = ORIENTED_EDGE ( 'NONE', *, *, #233, .F. ) ;
#343 = DIRECTION ( 'NONE',  ( -1.000000000000000000, 0.000000000000000000, 0.000000000000000000 ) ) ;
#344 = ORIENTED_EDGE ( 'NONE', *, *, #356, .F. ) ;
#345 = CIRCLE ( 'NONE', #9, 8.000000000000000000 ) ;
#346 = ORIENTED_EDGE ( 'NONE', *, *, #204, .F. ) ;
#347 = APPROVAL_STATUS ( 'not_yet_approved' ) ;
#348 = CARTESIAN_POINT ( 'NONE',  ( 5.000000000000000000, 6.123233995736766282E-16, 280.0000000000000000 ) ) ;
#349 = ADVANCED_FACE ( 'NONE', ( #229 ), #171, .F. ) ;
#350 = PERSON_AND_ORGANIZATION ( #78, #151 ) ;
#351 = DIRECTION ( 'NONE',  ( -0.000000000000000000, -0.000000000000000000, -1.000000000000000000 ) ) ;
#352 = CALENDAR_DATE ( 2022, 8, 7 ) ;
#353 = AXIS2_PLACEMENT_3D ( 'NONE', #324, #210, #67 ) ;
#354 = FACE_OUTER_BOUND ( 'NONE', #286, .T. ) ;
#355 = DIRECTION ( 'NONE',  ( 1.000000000000000000, 0.000000000000000000, 0.000000000000000000 ) ) ;
#356 = EDGE_CURVE ( 'NONE', #370, #172, #133, .T. ) ;
#357 = DIRECTION ( 'NONE',  ( 0.000000000000000000, 0.000000000000000000, 1.000000000000000000 ) ) ;
#358 = TOROIDAL_SURFACE ( 'NONE', #182, 5.500000000000000000, 0.5000000000000000000 ) ;
#359 = DIRECTION ( 'NONE',  ( -1.000000000000000000, 1.224646799147351482E-16, 0.000000000000000000 ) ) ;
#360 = SECURITY_CLASSIFICATION ( '', '', #209 ) ;
#361 = ADVANCED_FACE ( 'NONE', ( #195 ), #47, .T. ) ;
#362 = VERTEX_POINT ( 'NONE', #76 ) ;
#363 = DIRECTION ( 'NONE',  ( -0.000000000000000000, -0.000000000000000000, -1.000000000000000000 ) ) ;
#364 = CARTESIAN_POINT ( 'NONE',  ( -5.500000000000000000, 6.735557395310442023E-16, 5.500000000000005329 ) ) ;
#365 = AXIS2_PLACEMENT_3D ( 'NONE', #268, #3, #36 ) ;
#366 = APPROVAL_PERSON_ORGANIZATION ( #266, #37, #293 ) ;
#367 = LINE ( 'NONE', #74, #168 ) ;
#368 = ADVANCED_FACE ( 'NONE', ( #167 ), #358, .F. ) ;
#369 = CARTESIAN_POINT ( 'NONE',  ( 8.000000000000000000, 9.797174393178825657E-16, 0.000000000000000000 ) ) ;
#370 = VERTEX_POINT ( 'NONE', #227 ) ;
#371 = AXIS2_PLACEMENT_3D ( 'NONE', #248, #192, #162 ) ;
#372 = DIRECTION ( 'NONE',  ( -1.000000000000000000, 0.000000000000000000, 0.000000000000000000 ) ) ;
#373 = ORIENTED_EDGE ( 'NONE', *, *, #164, .T. ) ;
#374 = CARTESIAN_POINT ( 'NONE',  ( 0.000000000000000000, 0.000000000000000000, 5.000000000000000000 ) ) ;
#375 = EDGE_LOOP ( 'NONE', ( #87, #234 ) ) ;
#376 = EDGE_LOOP ( 'NONE', ( #200, #140 ) ) ;
#377 = CIRCLE ( 'NONE', #117, 8.000000000000000000 ) ;
#378 = DATE_AND_TIME ( #263, #246 ) ;
#379 = CC_DESIGN_PERSON_AND_ORGANIZATION_ASSIGNMENT ( #350, #206, ( #34 ) ) ;
#380 = DIRECTION ( 'NONE',  ( -0.000000000000000000, -0.000000000000000000, -1.000000000000000000 ) ) ;
#381 = DIRECTION ( 'NONE',  ( 0.000000000000000000, 0.000000000000000000, 1.000000000000000000 ) ) ;
ENDSEC;
END-ISO-10303-21;
