ISO-10303-21;
HEADER;
FILE_DESCRIPTION (( 'STEP AP203' ),
    '1' );
FILE_NAME ('3bb6.STEP',
    '2022-07-08T14:58:20',
    ( '' ),
    ( '' ),
    'SwSTEP 2.0',
    'SolidWorks 2019',
    '' );
FILE_SCHEMA (( 'CONFIG_CONTROL_DESIGN' ));
ENDSEC;

DATA;
#1 = EDGE_CURVE ( 'NONE', #312, #350, #4, .T. ) ;
#2 = DIRECTION ( 'NONE',  ( -0.000000000000000000, -0.000000000000000000, -1.000000000000000000 ) ) ;
#3 = CALENDAR_DATE ( 2022, 8, 7 ) ;
#4 = CIRCLE ( 'NONE', #356, 8.000000000000000000 ) ;
#5 = CC_DESIGN_APPROVAL ( #227, ( #343 ) ) ;
#6 = APPROVAL_ROLE ( '' ) ;
#7 = CARTESIAN_POINT ( 'NONE',  ( -3.000000000000000444, 0.000000000000000000, 165.0000000000000000 ) ) ;
#8 = CALENDAR_DATE ( 2022, 8, 7 ) ;
#9 = ORIENTED_EDGE ( 'NONE', *, *, #336, .F. ) ;
#10 = APPROVAL_ROLE ( '' ) ;
#11 = ORIENTED_EDGE ( 'NONE', *, *, #1, .T. ) ;
#12 = CIRCLE ( 'NONE', #210, 5.000000000000000000 ) ;
#13 = EDGE_LOOP ( 'NONE', ( #338, #276, #379, #300 ) ) ;
#14 = CARTESIAN_POINT ( 'NONE',  ( -8.000000000000000000, 0.000000000000000000, 0.000000000000000000 ) ) ;
#15 = CARTESIAN_POINT ( 'NONE',  ( 3.000000000000000444, 3.673940397442060361E-16, 165.0000000000000000 ) ) ;
#16 = AXIS2_PLACEMENT_3D ( 'NONE', #326, #127, #118 ) ;
#17 = CARTESIAN_POINT ( 'NONE',  ( 5.500000000000000000, 0.000000000000000000, 5.000000000000002665 ) ) ;
#18 = CARTESIAN_POINT ( 'NONE',  ( 0.000000000000000000, 0.000000000000000000, 0.000000000000000000 ) ) ;
#19 = ORIENTED_EDGE ( 'NONE', *, *, #290, .F. ) ;
#20 = ADVANCED_FACE ( 'NONE', ( #172, #297 ), #65, .T. ) ;
#21 = PERSON_AND_ORGANIZATION ( #255, #270 ) ;
#22 = CARTESIAN_POINT ( 'NONE',  ( 0.000000000000000000, 0.000000000000000000, 0.000000000000000000 ) ) ;
#23 = ORIENTED_EDGE ( 'NONE', *, *, #258, .T. ) ;
#24 = DIRECTION ( 'NONE',  ( 1.000000000000000000, 0.000000000000000000, 0.000000000000000000 ) ) ;
#25 = EDGE_CURVE ( 'NONE', #344, #165, #243, .T. ) ;
#26 = ORIENTED_EDGE ( 'NONE', *, *, #36, .T. ) ;
#27 = ADVANCED_FACE ( 'NONE', ( #224 ), #264, .T. ) ;
#28 = ORIENTED_EDGE ( 'NONE', *, *, #331, .T. ) ;
#29 = DIRECTION ( 'NONE',  ( 1.000000000000000000, 0.000000000000000000, 0.000000000000000000 ) ) ;
#30 = DIRECTION ( 'NONE',  ( 0.000000000000000000, 0.000000000000000000, 1.000000000000000000 ) ) ;
#31 = CIRCLE ( 'NONE', #87, 8.000000000000000000 ) ;
#32 = CARTESIAN_POINT ( 'NONE',  ( -5.000000000000000000, 0.000000000000000000, 165.0000000000000000 ) ) ;
#33 = ADVANCED_FACE ( 'NONE', ( #60, #175 ), #296, .T. ) ;
#34 = DATE_TIME_ROLE ( 'creation_date' ) ;
#35 = DIRECTION ( 'NONE',  ( 0.000000000000000000, 0.000000000000000000, 1.000000000000000000 ) ) ;
#36 = EDGE_CURVE ( 'NONE', #218, #314, #52, .T. ) ;
#37 = CARTESIAN_POINT ( 'NONE',  ( 0.000000000000000000, 0.000000000000000000, 165.0000000000000000 ) ) ;
#38 = AXIS2_PLACEMENT_3D ( 'NONE', #368, #69, #160 ) ;
#39 = CC_DESIGN_SECURITY_CLASSIFICATION ( #343, ( #108 ) ) ;
#40 = AXIS2_PLACEMENT_3D ( 'NONE', #129, #238, #97 ) ;
#41 = LINE ( 'NONE', #15, #317 ) ;
#42 = CARTESIAN_POINT ( 'NONE',  ( 0.000000000000000000, 0.000000000000000000, 165.0000000000000000 ) ) ;
#43 = AXIS2_PLACEMENT_3D ( 'NONE', #280, #184, #101 ) ;
#44 = DIRECTION ( 'NONE',  ( 1.000000000000000000, 0.000000000000000000, 0.000000000000000000 ) ) ;
#45 = VERTEX_POINT ( 'NONE', #7 ) ;
#46 = FACE_BOUND ( 'NONE', #197, .T. ) ;
#47 = ORIENTED_EDGE ( 'NONE', *, *, #246, .F. ) ;
#48 = EDGE_CURVE ( 'NONE', #350, #285, #233, .T. ) ;
#49 = CC_DESIGN_DATE_AND_TIME_ASSIGNMENT ( #358, #120, ( #343 ) ) ;
#50 = CARTESIAN_POINT ( 'NONE',  ( 0.000000000000000000, 0.000000000000000000, 165.0000000000000000 ) ) ;
#51 = CARTESIAN_POINT ( 'NONE',  ( -3.000000000000000444, 0.000000000000000000, 0.000000000000000000 ) ) ;
#52 = CIRCLE ( 'NONE', #251, 3.000000000000000444 ) ;
#53 = VERTEX_POINT ( 'NONE', #32 ) ;
#54 = CARTESIAN_POINT ( 'NONE',  ( 5.000000000000000000, 6.123233995736766282E-16, 5.500000000000005329 ) ) ;
#55 = EDGE_LOOP ( 'NONE', ( #194, #138, #220, #311 ) ) ;
#56 = DIRECTION ( 'NONE',  ( 1.224646799147353207E-16, 1.000000000000000000, -0.000000000000000000 ) ) ;
#57 = FACE_OUTER_BOUND ( 'NONE', #189, .T. ) ;
#58 = CC_DESIGN_APPROVAL ( #193, ( #77 ) ) ;
#59 = EDGE_CURVE ( 'NONE', #53, #165, #205, .T. ) ;
#60 = FACE_BOUND ( 'NONE', #215, .T. ) ;
#61 = PERSON_AND_ORGANIZATION_ROLE ( 'creator' ) ;
#62 = CARTESIAN_POINT ( 'NONE',  ( -5.000000000000000000, 0.000000000000000000, 165.0000000000000000 ) ) ;
#63 = VECTOR ( 'NONE', #92, 1000.000000000000000 ) ;
#64 = CARTESIAN_POINT ( 'NONE',  ( 5.000000000000000000, 6.123233995736766282E-16, 165.0000000000000000 ) ) ;
#65 = PLANE ( 'NONE',  #168 ) ;
#66 = CARTESIAN_POINT ( 'NONE',  ( -5.000000000000000000, 0.000000000000000000, 5.500000000000005329 ) ) ;
#67 = AXIS2_PLACEMENT_3D ( 'NONE', #50, #147, #24 ) ;
#68 = CC_DESIGN_PERSON_AND_ORGANIZATION_ASSIGNMENT ( #232, #323, ( #108 ) ) ;
#69 = DIRECTION ( 'NONE',  ( 0.000000000000000000, 0.000000000000000000, 1.000000000000000000 ) ) ;
#70 = DIRECTION ( 'NONE',  ( 0.000000000000000000, 0.000000000000000000, -1.000000000000000000 ) ) ;
#71 = ORIENTED_EDGE ( 'NONE', *, *, #304, .F. ) ;
#72 = DIRECTION ( 'NONE',  ( 1.000000000000000000, 0.000000000000000000, 0.000000000000000000 ) ) ;
#73 = ORIENTED_EDGE ( 'NONE', *, *, #304, .T. ) ;
#74 = AXIS2_PLACEMENT_3D ( 'NONE', #22, #380, #29 ) ;
#75 = DIRECTION ( 'NONE',  ( 1.000000000000000000, 0.000000000000000000, 0.000000000000000000 ) ) ;
#76 = ORIENTED_EDGE ( 'NONE', *, *, #198, .T. ) ;
#77 = PRODUCT_DEFINITION ( 'NEZNÁMÝ', '', #108, #316 ) ;
#78 = CARTESIAN_POINT ( 'NONE',  ( -5.500000000000000000, 6.735557395310442023E-16, 5.000000000000002665 ) ) ;
#79 = ORIENTED_EDGE ( 'NONE', *, *, #331, .F. ) ;
#80 = CYLINDRICAL_SURFACE ( 'NONE', #334, 3.000000000000000444 ) ;
#81 = EDGE_LOOP ( 'NONE', ( #279, #178 ) ) ;
#82 = FACE_OUTER_BOUND ( 'NONE', #248, .T. ) ;
#83 = DIRECTION ( 'NONE',  ( 1.000000000000000000, 0.000000000000000000, 0.000000000000000000 ) ) ;
#84 =( NAMED_UNIT ( * ) PLANE_ANGLE_UNIT ( ) SI_UNIT ( $, .RADIAN. ) );
#85 = VERTEX_POINT ( 'NONE', #64 ) ;
#86 = MECHANICAL_CONTEXT ( 'NONE', #102, 'mechanical' ) ;
#87 = AXIS2_PLACEMENT_3D ( 'NONE', #158, #134, #44 ) ;
#88 = ADVANCED_BREP_SHAPE_REPRESENTATION ( '3bb6', ( #131, #74 ), #117 ) ;
#89 = CALENDAR_DATE ( 2022, 8, 7 ) ;
#90 = EDGE_CURVE ( 'NONE', #285, #340, #283, .T. ) ;
#91 = PERSON_AND_ORGANIZATION ( #255, #270 ) ;
#92 = DIRECTION ( 'NONE',  ( -0.000000000000000000, -0.000000000000000000, -1.000000000000000000 ) ) ;
#93 = APPROVAL_DATE_TIME ( #357, #249 ) ;
#94 = ORIENTED_EDGE ( 'NONE', *, *, #95, .F. ) ;
#95 = EDGE_CURVE ( 'NONE', #192, #45, #161, .T. ) ;
#96 = SECURITY_CLASSIFICATION_LEVEL ( 'unclassified' ) ;
#97 = DIRECTION ( 'NONE',  ( 1.000000000000000000, 0.000000000000000000, 0.000000000000000000 ) ) ;
#98 = DIRECTION ( 'NONE',  ( 0.000000000000000000, 0.000000000000000000, -1.000000000000000000 ) ) ;
#99 = TOROIDAL_SURFACE ( 'NONE', #115, 5.500000000000000000, 0.5000000000000000000 ) ;
#100 = CC_DESIGN_PERSON_AND_ORGANIZATION_ASSIGNMENT ( #126, #124, ( #108 ) ) ;
#101 = DIRECTION ( 'NONE',  ( -1.000000000000000000, 0.000000000000000000, 0.000000000000000000 ) ) ;
#102 = APPLICATION_CONTEXT ( 'configuration controlled 3d designs of mechanical parts and assemblies' ) ;
#103 = CARTESIAN_POINT ( 'NONE',  ( 3.000000000000000444, 3.673940397442060361E-16, 0.000000000000000000 ) ) ;
#104 = ORIENTED_EDGE ( 'NONE', *, *, #254, .T. ) ;
#105 = ADVANCED_FACE ( 'NONE', ( #207 ), #330, .T. ) ;
#106 = CARTESIAN_POINT ( 'NONE',  ( 3.000000000000000444, 3.673940397442060361E-16, 165.0000000000000000 ) ) ;
#107 = VERTEX_POINT ( 'NONE', #17 ) ;
#108 = PRODUCT_DEFINITION_FORMATION_WITH_SPECIFIED_SOURCE ( 'LIBOVOLNÝ', '', #274, .NOT_KNOWN. ) ;
#109 = APPLICATION_CONTEXT ( 'configuration controlled 3d designs of mechanical parts and assemblies' ) ;
#110 = DIRECTION ( 'NONE',  ( 0.000000000000000000, 0.000000000000000000, 1.000000000000000000 ) ) ;
#111 = ORIENTED_EDGE ( 'NONE', *, *, #254, .F. ) ;
#112 = CARTESIAN_POINT ( 'NONE',  ( 0.000000000000000000, 0.000000000000000000, 165.0000000000000000 ) ) ;
#113 = CC_DESIGN_PERSON_AND_ORGANIZATION_ASSIGNMENT ( #91, #148, ( #343 ) ) ;
#114 = PLANE ( 'NONE',  #284 ) ;
#115 = AXIS2_PLACEMENT_3D ( 'NONE', #332, #306, #208 ) ;
#116 = DIRECTION ( 'NONE',  ( -1.000000000000000000, 0.000000000000000000, 0.000000000000000000 ) ) ;
#117 =( GEOMETRIC_REPRESENTATION_CONTEXT ( 3 ) GLOBAL_UNCERTAINTY_ASSIGNED_CONTEXT ( ( #144 ) ) GLOBAL_UNIT_ASSIGNED_CONTEXT ( ( #353, #84, #119 ) ) REPRESENTATION_CONTEXT ( 'NONE', 'WORKASPACE' ) );
#118 = DIRECTION ( 'NONE',  ( 1.000000000000000000, 0.000000000000000000, 0.000000000000000000 ) ) ;
#119 =( NAMED_UNIT ( * ) SI_UNIT ( $, .STERADIAN. ) SOLID_ANGLE_UNIT ( ) );
#120 = DATE_TIME_ROLE ( 'classification_date' ) ;
#121 = CIRCLE ( 'NONE', #182, 8.000000000000000000 ) ;
#122 = APPROVAL_PERSON_ORGANIZATION ( #202, #249, #6 ) ;
#123 = AXIS2_PLACEMENT_3D ( 'NONE', #212, #272, #132 ) ;
#124 = PERSON_AND_ORGANIZATION_ROLE ( 'creator' ) ;
#125 = DIRECTION ( 'NONE',  ( 1.000000000000000000, 0.000000000000000000, -0.000000000000000000 ) ) ;
#126 = PERSON_AND_ORGANIZATION ( #255, #270 ) ;
#127 = DIRECTION ( 'NONE',  ( 0.000000000000000000, 0.000000000000000000, 1.000000000000000000 ) ) ;
#128 = COORDINATED_UNIVERSAL_TIME_OFFSET ( 1, 0, .AHEAD. ) ;
#129 = CARTESIAN_POINT ( 'NONE',  ( 0.000000000000000000, 0.000000000000000000, 165.0000000000000000 ) ) ;
#130 = DIRECTION ( 'NONE',  ( 1.000000000000000000, 0.000000000000000000, 0.000000000000000000 ) ) ;
#131 = MANIFOLD_SOLID_BREP ( 'Odebrat vysunutím3', #222 ) ;
#132 = DIRECTION ( 'NONE',  ( 1.000000000000000000, 0.000000000000000000, 0.000000000000000000 ) ) ;
#133 = DIRECTION ( 'NONE',  ( 0.000000000000000000, 0.000000000000000000, 1.000000000000000000 ) ) ;
#134 = DIRECTION ( 'NONE',  ( 0.000000000000000000, 0.000000000000000000, 1.000000000000000000 ) ) ;
#135 = ORIENTED_EDGE ( 'NONE', *, *, #203, .F. ) ;
#136 = CARTESIAN_POINT ( 'NONE',  ( 5.500000000000000000, 0.000000000000000000, 5.500000000000005329 ) ) ;
#137 = ORIENTED_EDGE ( 'NONE', *, *, #256, .F. ) ;
#138 = ORIENTED_EDGE ( 'NONE', *, *, #198, .F. ) ;
#139 = AXIS2_PLACEMENT_3D ( 'NONE', #42, #70, #185 ) ;
#140 = ORIENTED_EDGE ( 'NONE', *, *, #235, .T. ) ;
#141 = CARTESIAN_POINT ( 'NONE',  ( -8.000000000000000000, 0.000000000000000000, 5.000000000000000000 ) ) ;
#142 = ORIENTED_EDGE ( 'NONE', *, *, #258, .F. ) ;
#143 = DIRECTION ( 'NONE',  ( 0.000000000000000000, 0.000000000000000000, 1.000000000000000000 ) ) ;
#144 = UNCERTAINTY_MEASURE_WITH_UNIT (LENGTH_MEASURE( 1.000000000000000082E-05 ), #353, 'distance_accuracy_value', 'NONE');
#145 = ORIENTED_EDGE ( 'NONE', *, *, #59, .F. ) ;
#146 = AXIS2_PLACEMENT_3D ( 'NONE', #273, #242, #213 ) ;
#147 = DIRECTION ( 'NONE',  ( 0.000000000000000000, 0.000000000000000000, 1.000000000000000000 ) ) ;
#148 = PERSON_AND_ORGANIZATION_ROLE ( 'classification_officer' ) ;
#149 = CC_DESIGN_PERSON_AND_ORGANIZATION_ASSIGNMENT ( #253, #322, ( #274 ) ) ;
#150 = COORDINATED_UNIVERSAL_TIME_OFFSET ( 1, 0, .AHEAD. ) ;
#151 = VECTOR ( 'NONE', #275, 1000.000000000000000 ) ;
#152 = CARTESIAN_POINT ( 'NONE',  ( 0.000000000000000000, 0.000000000000000000, 0.000000000000000000 ) ) ;
#153 = COORDINATED_UNIVERSAL_TIME_OFFSET ( 1, 0, .AHEAD. ) ;
#154 = DIRECTION ( 'NONE',  ( 1.000000000000000000, 0.000000000000000000, -0.000000000000000000 ) ) ;
#155 = DIRECTION ( 'NONE',  ( 1.000000000000000000, 0.000000000000000000, 0.000000000000000000 ) ) ;
#156 = DIRECTION ( 'NONE',  ( -0.000000000000000000, -0.000000000000000000, -1.000000000000000000 ) ) ;
#157 = CIRCLE ( 'NONE', #67, 3.000000000000000444 ) ;
#158 = CARTESIAN_POINT ( 'NONE',  ( 0.000000000000000000, 0.000000000000000000, 5.000000000000000000 ) ) ;
#159 = DIRECTION ( 'NONE',  ( -0.000000000000000000, -0.000000000000000000, -1.000000000000000000 ) ) ;
#160 = DIRECTION ( 'NONE',  ( 1.000000000000000000, 0.000000000000000000, 0.000000000000000000 ) ) ;
#161 = CIRCLE ( 'NONE', #40, 3.000000000000000444 ) ;
#162 = FACE_OUTER_BOUND ( 'NONE', #55, .T. ) ;
#163 = ORIENTED_EDGE ( 'NONE', *, *, #278, .F. ) ;
#164 = FACE_OUTER_BOUND ( 'NONE', #81, .T. ) ;
#165 = VERTEX_POINT ( 'NONE', #66 ) ;
#166 = DIRECTION ( 'NONE',  ( 1.000000000000000000, 0.000000000000000000, 0.000000000000000000 ) ) ;
#167 = ORIENTED_EDGE ( 'NONE', *, *, #241, .T. ) ;
#168 = AXIS2_PLACEMENT_3D ( 'NONE', #206, #180, #125 ) ;
#169 = CARTESIAN_POINT ( 'NONE',  ( -5.500000000000000000, 6.735557395310442023E-16, 5.500000000000005329 ) ) ;
#170 = EDGE_LOOP ( 'NONE', ( #23, #11 ) ) ;
#171 = DIRECTION ( 'NONE',  ( -1.000000000000000000, 1.224646799147351482E-16, 0.000000000000000000 ) ) ;
#172 = FACE_BOUND ( 'NONE', #373, .T. ) ;
#173 = APPLICATION_PROTOCOL_DEFINITION ( 'international standard', 'config_control_design', 1994, #109 ) ;
#174 = DATE_AND_TIME ( #226, #309 ) ;
#175 = FACE_OUTER_BOUND ( 'NONE', #170, .T. ) ;
#176 = ADVANCED_FACE ( 'NONE', ( #245 ), #99, .F. ) ;
#177 = DATE_AND_TIME ( #8, #183 ) ;
#178 = ORIENTED_EDGE ( 'NONE', *, *, #265, .F. ) ;
#179 = CARTESIAN_POINT ( 'NONE',  ( 0.000000000000000000, 0.000000000000000000, 5.000000000000000000 ) ) ;
#180 = DIRECTION ( 'NONE',  ( 0.000000000000000000, 0.000000000000000000, 1.000000000000000000 ) ) ;
#181 = LINE ( 'NONE', #302, #286 ) ;
#182 = AXIS2_PLACEMENT_3D ( 'NONE', #18, #209, #75 ) ;
#183 = LOCAL_TIME ( 16, 58, 20.00000000000000000, #230 ) ;
#184 = DIRECTION ( 'NONE',  ( -0.000000000000000000, -0.000000000000000000, -1.000000000000000000 ) ) ;
#185 = DIRECTION ( 'NONE',  ( -1.000000000000000000, 0.000000000000000000, 0.000000000000000000 ) ) ;
#186 = ORIENTED_EDGE ( 'NONE', *, *, #278, .T. ) ;
#187 = DIRECTION ( 'NONE',  ( -0.000000000000000000, -0.000000000000000000, -1.000000000000000000 ) ) ;
#188 = AXIS2_PLACEMENT_3D ( 'NONE', #216, #2, #288 ) ;
#189 = EDGE_LOOP ( 'NONE', ( #137, #142, #259, #347 ) ) ;
#190 = DIRECTION ( 'NONE',  ( 1.000000000000000000, 0.000000000000000000, 0.000000000000000000 ) ) ;
#191 = ORIENTED_EDGE ( 'NONE', *, *, #336, .T. ) ;
#192 = VERTEX_POINT ( 'NONE', #106 ) ;
#193 = APPROVAL ( #378, 'NEURÈENÝ' ) ;
#194 = ORIENTED_EDGE ( 'NONE', *, *, #361, .F. ) ;
#195 = CIRCLE ( 'NONE', #123, 5.500000000000000000 ) ;
#196 = VECTOR ( 'NONE', #345, 1000.000000000000000 ) ;
#197 = EDGE_LOOP ( 'NONE', ( #111, #377 ) ) ;
#198 = EDGE_CURVE ( 'NONE', #53, #85, #303, .T. ) ;
#199 = CYLINDRICAL_SURFACE ( 'NONE', #188, 8.000000000000000000 ) ;
#200 = DIRECTION ( 'NONE',  ( -1.000000000000000000, 0.000000000000000000, 0.000000000000000000 ) ) ;
#201 = APPROVAL_PERSON_ORGANIZATION ( #236, #227, #10 ) ;
#202 = PERSON_AND_ORGANIZATION ( #255, #270 ) ;
#203 = EDGE_CURVE ( 'NONE', #192, #218, #41, .T. ) ;
#204 = APPROVAL_STATUS ( 'not_yet_approved' ) ;
#205 = LINE ( 'NONE', #62, #327 ) ;
#206 = CARTESIAN_POINT ( 'NONE',  ( 0.000000000000000000, 0.000000000000000000, 165.0000000000000000 ) ) ;
#207 = FACE_OUTER_BOUND ( 'NONE', #267, .T. ) ;
#208 = DIRECTION ( 'NONE',  ( 1.000000000000000000, 0.000000000000000000, 0.000000000000000000 ) ) ;
#209 = DIRECTION ( 'NONE',  ( 0.000000000000000000, 0.000000000000000000, 1.000000000000000000 ) ) ;
#210 = AXIS2_PLACEMENT_3D ( 'NONE', #351, #143, #166 ) ;
#211 = CYLINDRICAL_SURFACE ( 'NONE', #43, 5.000000000000000000 ) ;
#212 = CARTESIAN_POINT ( 'NONE',  ( 0.000000000000000000, 0.000000000000000000, 5.000000000000000000 ) ) ;
#213 = DIRECTION ( 'NONE',  ( 1.000000000000000000, 0.000000000000000000, 0.000000000000000000 ) ) ;
#214 = AXIS2_PLACEMENT_3D ( 'NONE', #169, #56, #171 ) ;
#215 = EDGE_LOOP ( 'NONE', ( #167, #371 ) ) ;
#216 = CARTESIAN_POINT ( 'NONE',  ( 0.000000000000000000, 0.000000000000000000, 5.000000000000000000 ) ) ;
#217 = CC_DESIGN_DATE_AND_TIME_ASSIGNMENT ( #174, #34, ( #77 ) ) ;
#218 = VERTEX_POINT ( 'NONE', #103 ) ;
#219 = COORDINATED_UNIVERSAL_TIME_OFFSET ( 1, 0, .AHEAD. ) ;
#220 = ORIENTED_EDGE ( 'NONE', *, *, #59, .T. ) ;
#221 = ADVANCED_FACE ( 'NONE', ( #162 ), #211, .T. ) ;
#222 = CLOSED_SHELL ( 'NONE', ( #262, #176, #105, #27, #324, #33, #293, #221, #20, #287, #295 ) ) ;
#223 = CARTESIAN_POINT ( 'NONE',  ( 8.000000000000000000, 9.797174393178825657E-16, 5.000000000000000000 ) ) ;
#224 = FACE_OUTER_BOUND ( 'NONE', #13, .T. ) ;
#225 = CARTESIAN_POINT ( 'NONE',  ( 5.000000000000000000, 6.123233995736766282E-16, 165.0000000000000000 ) ) ;
#226 = CALENDAR_DATE ( 2022, 8, 7 ) ;
#227 = APPROVAL ( #204, 'NEURÈENÝ' ) ;
#228 = AXIS2_PLACEMENT_3D ( 'NONE', #299, #35, #155 ) ;
#229 = CC_DESIGN_APPROVAL ( #249, ( #108 ) ) ;
#230 = COORDINATED_UNIVERSAL_TIME_OFFSET ( 1, 0, .AHEAD. ) ;
#231 = AXIS2_PLACEMENT_3D ( 'NONE', #179, #30, #154 ) ;
#232 = PERSON_AND_ORGANIZATION ( #255, #270 ) ;
#233 = LINE ( 'NONE', #359, #63 ) ;
#234 = DIRECTION ( 'NONE',  ( -0.000000000000000000, -0.000000000000000000, -1.000000000000000000 ) ) ;
#235 = EDGE_CURVE ( 'NONE', #45, #314, #181, .T. ) ;
#236 = PERSON_AND_ORGANIZATION ( #255, #270 ) ;
#237 = CIRCLE ( 'NONE', #301, 5.500000000000000000 ) ;
#238 = DIRECTION ( 'NONE',  ( 0.000000000000000000, 0.000000000000000000, 1.000000000000000000 ) ) ;
#239 = CARTESIAN_POINT ( 'NONE',  ( 8.000000000000000000, 9.797174393178825657E-16, 5.000000000000000000 ) ) ;
#240 = CARTESIAN_POINT ( 'NONE',  ( 0.000000000000000000, 0.000000000000000000, 0.000000000000000000 ) ) ;
#241 = EDGE_CURVE ( 'NONE', #107, #320, #195, .T. ) ;
#242 = DIRECTION ( 'NONE',  ( 0.000000000000000000, 0.000000000000000000, 1.000000000000000000 ) ) ;
#243 = CIRCLE ( 'NONE', #16, 5.000000000000000000 ) ;
#244 = LOCAL_TIME ( 16, 58, 20.00000000000000000, #219 ) ;
#245 = FACE_OUTER_BOUND ( 'NONE', #250, .T. ) ;
#246 = EDGE_CURVE ( 'NONE', #165, #344, #319, .T. ) ;
#247 = DIRECTION ( 'NONE',  ( 0.000000000000000000, -1.000000000000000000, 0.000000000000000000 ) ) ;
#248 = EDGE_LOOP ( 'NONE', ( #135, #318, #140, #104 ) ) ;
#249 = APPROVAL ( #298, 'NEURÈENÝ' ) ;
#250 = EDGE_LOOP ( 'NONE', ( #47, #28, #289, #163 ) ) ;
#251 = AXIS2_PLACEMENT_3D ( 'NONE', #152, #363, #360 ) ;
#252 = ORIENTED_EDGE ( 'NONE', *, *, #25, .T. ) ;
#253 = PERSON_AND_ORGANIZATION ( #255, #270 ) ;
#254 = EDGE_CURVE ( 'NONE', #314, #218, #369, .T. ) ;
#255 = PERSON ( 'NEURÈENÝ', 'NEURÈENÝ', 'NEURÈENÝ', ('NEURÈENÝ'), ('NEURÈENÝ'), ('NEURÈENÝ') ) ;
#256 = EDGE_CURVE ( 'NONE', #312, #340, #337, .T. ) ;
#257 = ORIENTED_EDGE ( 'NONE', *, *, #203, .T. ) ;
#258 = EDGE_CURVE ( 'NONE', #350, #312, #31, .T. ) ;
#259 = ORIENTED_EDGE ( 'NONE', *, *, #48, .T. ) ;
#260 = TOROIDAL_SURFACE ( 'NONE', #146, 5.500000000000000000, 0.5000000000000000000 ) ;
#261 = CARTESIAN_POINT ( 'NONE',  ( 0.000000000000000000, 0.000000000000000000, 0.000000000000000000 ) ) ;
#262 = ADVANCED_FACE ( 'NONE', ( #277 ), #364, .F. ) ;
#263 = AXIS2_PLACEMENT_3D ( 'NONE', #37, #156, #339 ) ;
#264 = CYLINDRICAL_SURFACE ( 'NONE', #355, 8.000000000000000000 ) ;
#265 = EDGE_CURVE ( 'NONE', #340, #285, #121, .T. ) ;
#266 = APPROVAL_DATE_TIME ( #354, #193 ) ;
#267 = EDGE_LOOP ( 'NONE', ( #71, #281, #252, #145 ) ) ;
#268 = PRODUCT_RELATED_PRODUCT_CATEGORY ( 'detail', '', ( #274 ) ) ;
#269 = DIRECTION ( 'NONE',  ( 0.000000000000000000, 0.000000000000000000, 1.000000000000000000 ) ) ;
#270 = ORGANIZATION ( 'NEURÈENÝ', 'NEURÈENÝ', '' ) ;
#271 = ORIENTED_EDGE ( 'NONE', *, *, #25, .F. ) ;
#272 = DIRECTION ( 'NONE',  ( -0.000000000000000000, -0.000000000000000000, -1.000000000000000000 ) ) ;
#273 = CARTESIAN_POINT ( 'NONE',  ( 0.000000000000000000, 0.000000000000000000, 5.500000000000005329 ) ) ;
#274 = PRODUCT ( '3bb6', '3bb6', '', ( #86 ) ) ;
#275 = DIRECTION ( 'NONE',  ( -0.000000000000000000, -0.000000000000000000, -1.000000000000000000 ) ) ;
#276 = ORIENTED_EDGE ( 'NONE', *, *, #256, .T. ) ;
#277 = FACE_OUTER_BOUND ( 'NONE', #346, .T. ) ;
#278 = EDGE_CURVE ( 'NONE', #344, #107, #333, .T. ) ;
#279 = ORIENTED_EDGE ( 'NONE', *, *, #90, .F. ) ;
#280 = CARTESIAN_POINT ( 'NONE',  ( 0.000000000000000000, 0.000000000000000000, 165.0000000000000000 ) ) ;
#281 = ORIENTED_EDGE ( 'NONE', *, *, #361, .T. ) ;
#282 = LINE ( 'NONE', #225, #196 ) ;
#283 = CIRCLE ( 'NONE', #228, 8.000000000000000000 ) ;
#284 = AXIS2_PLACEMENT_3D ( 'NONE', #261, #110, #315 ) ;
#285 = VERTEX_POINT ( 'NONE', #14 ) ;
#286 = VECTOR ( 'NONE', #305, 1000.000000000000000 ) ;
#287 = ADVANCED_FACE ( 'NONE', ( #365 ), #260, .F. ) ;
#288 = DIRECTION ( 'NONE',  ( -1.000000000000000000, 0.000000000000000000, 0.000000000000000000 ) ) ;
#289 = ORIENTED_EDGE ( 'NONE', *, *, #241, .F. ) ;
#290 = EDGE_CURVE ( 'NONE', #320, #107, #237, .T. ) ;
#291 = CARTESIAN_POINT ( 'NONE',  ( 8.000000000000000000, 9.797174393178825657E-16, 0.000000000000000000 ) ) ;
#292 = CARTESIAN_POINT ( 'NONE',  ( 0.000000000000000000, 0.000000000000000000, 5.000000000000000000 ) ) ;
#293 = ADVANCED_FACE ( 'NONE', ( #46, #164 ), #114, .F. ) ;
#294 = LOCAL_TIME ( 16, 58, 20.00000000000000000, #153 ) ;
#295 = ADVANCED_FACE ( 'NONE', ( #82 ), #80, .F. ) ;
#296 = PLANE ( 'NONE',  #231 ) ;
#297 = FACE_OUTER_BOUND ( 'NONE', #307, .T. ) ;
#298 = APPROVAL_STATUS ( 'not_yet_approved' ) ;
#299 = CARTESIAN_POINT ( 'NONE',  ( 0.000000000000000000, 0.000000000000000000, 0.000000000000000000 ) ) ;
#300 = ORIENTED_EDGE ( 'NONE', *, *, #48, .F. ) ;
#301 = AXIS2_PLACEMENT_3D ( 'NONE', #342, #159, #190 ) ;
#302 = CARTESIAN_POINT ( 'NONE',  ( -3.000000000000000444, 0.000000000000000000, 165.0000000000000000 ) ) ;
#303 = CIRCLE ( 'NONE', #38, 5.000000000000000000 ) ;
#304 = EDGE_CURVE ( 'NONE', #85, #53, #12, .T. ) ;
#305 = DIRECTION ( 'NONE',  ( 0.000000000000000000, 0.000000000000000000, -1.000000000000000000 ) ) ;
#306 = DIRECTION ( 'NONE',  ( 0.000000000000000000, 0.000000000000000000, 1.000000000000000000 ) ) ;
#307 = EDGE_LOOP ( 'NONE', ( #76, #73 ) ) ;
#308 = CARTESIAN_POINT ( 'NONE',  ( 0.000000000000000000, 0.000000000000000000, 5.500000000000005329 ) ) ;
#309 = LOCAL_TIME ( 16, 58, 20.00000000000000000, #150 ) ;
#310 = LOCAL_TIME ( 16, 58, 20.00000000000000000, #128 ) ;
#311 = ORIENTED_EDGE ( 'NONE', *, *, #246, .T. ) ;
#312 = VERTEX_POINT ( 'NONE', #223 ) ;
#313 = DIRECTION ( 'NONE',  ( 0.000000000000000000, 0.000000000000000000, -1.000000000000000000 ) ) ;
#314 = VERTEX_POINT ( 'NONE', #51 ) ;
#315 = DIRECTION ( 'NONE',  ( 1.000000000000000000, 0.000000000000000000, -0.000000000000000000 ) ) ;
#316 = DESIGN_CONTEXT ( 'detailed design', #109, 'design' ) ;
#317 = VECTOR ( 'NONE', #98, 1000.000000000000000 ) ;
#318 = ORIENTED_EDGE ( 'NONE', *, *, #95, .T. ) ;
#319 = CIRCLE ( 'NONE', #366, 5.000000000000000000 ) ;
#320 = VERTEX_POINT ( 'NONE', #78 ) ;
#321 = ORIENTED_EDGE ( 'NONE', *, *, #235, .F. ) ;
#322 = PERSON_AND_ORGANIZATION_ROLE ( 'design_owner' ) ;
#323 = PERSON_AND_ORGANIZATION_ROLE ( 'design_supplier' ) ;
#324 = ADVANCED_FACE ( 'NONE', ( #57 ), #199, .T. ) ;
#325 = SHAPE_DEFINITION_REPRESENTATION ( #341, #88 ) ;
#326 = CARTESIAN_POINT ( 'NONE',  ( 0.000000000000000000, 0.000000000000000000, 5.500000000000005329 ) ) ;
#327 = VECTOR ( 'NONE', #234, 1000.000000000000000 ) ;
#328 = DIRECTION ( 'NONE',  ( -0.000000000000000000, -0.000000000000000000, -1.000000000000000000 ) ) ;
#329 = APPROVAL_DATE_TIME ( #177, #227 ) ;
#330 = CYLINDRICAL_SURFACE ( 'NONE', #263, 5.000000000000000000 ) ;
#331 = EDGE_CURVE ( 'NONE', #165, #320, #367, .T. ) ;
#332 = CARTESIAN_POINT ( 'NONE',  ( 0.000000000000000000, 0.000000000000000000, 5.500000000000005329 ) ) ;
#333 = CIRCLE ( 'NONE', #349, 0.5000000000000004441 ) ;
#334 = AXIS2_PLACEMENT_3D ( 'NONE', #112, #313, #116 ) ;
#335 = AXIS2_PLACEMENT_3D ( 'NONE', #240, #187, #130 ) ;
#336 = EDGE_CURVE ( 'NONE', #45, #192, #157, .T. ) ;
#337 = LINE ( 'NONE', #239, #151 ) ;
#338 = ORIENTED_EDGE ( 'NONE', *, *, #1, .F. ) ;
#339 = DIRECTION ( 'NONE',  ( -1.000000000000000000, 0.000000000000000000, 0.000000000000000000 ) ) ;
#340 = VERTEX_POINT ( 'NONE', #291 ) ;
#341 = PRODUCT_DEFINITION_SHAPE ( 'NONE', 'NONE',  #77 ) ;
#342 = CARTESIAN_POINT ( 'NONE',  ( 0.000000000000000000, 0.000000000000000000, 5.000000000000000000 ) ) ;
#343 = SECURITY_CLASSIFICATION ( '', '', #96 ) ;
#344 = VERTEX_POINT ( 'NONE', #54 ) ;
#345 = DIRECTION ( 'NONE',  ( -0.000000000000000000, -0.000000000000000000, -1.000000000000000000 ) ) ;
#346 = EDGE_LOOP ( 'NONE', ( #191, #257, #26, #321 ) ) ;
#347 = ORIENTED_EDGE ( 'NONE', *, *, #90, .T. ) ;
#348 = CALENDAR_DATE ( 2022, 8, 7 ) ;
#349 = AXIS2_PLACEMENT_3D ( 'NONE', #136, #247, #372 ) ;
#350 = VERTEX_POINT ( 'NONE', #141 ) ;
#351 = CARTESIAN_POINT ( 'NONE',  ( 0.000000000000000000, 0.000000000000000000, 165.0000000000000000 ) ) ;
#352 = CARTESIAN_POINT ( 'NONE',  ( 0.000000000000000000, 0.000000000000000000, 5.000000000000000000 ) ) ;
#353 =( LENGTH_UNIT ( ) NAMED_UNIT ( * ) SI_UNIT ( .MILLI., .METRE. ) );
#354 = DATE_AND_TIME ( #348, #244 ) ;
#355 = AXIS2_PLACEMENT_3D ( 'NONE', #352, #328, #200 ) ;
#356 = AXIS2_PLACEMENT_3D ( 'NONE', #292, #269, #83 ) ;
#357 = DATE_AND_TIME ( #3, #310 ) ;
#358 = DATE_AND_TIME ( #89, #294 ) ;
#359 = CARTESIAN_POINT ( 'NONE',  ( -8.000000000000000000, 0.000000000000000000, 5.000000000000000000 ) ) ;
#360 = DIRECTION ( 'NONE',  ( 1.000000000000000000, 0.000000000000000000, 0.000000000000000000 ) ) ;
#361 = EDGE_CURVE ( 'NONE', #85, #344, #282, .T. ) ;
#362 = PERSON_AND_ORGANIZATION ( #255, #270 ) ;
#363 = DIRECTION ( 'NONE',  ( -0.000000000000000000, -0.000000000000000000, -1.000000000000000000 ) ) ;
#364 = CYLINDRICAL_SURFACE ( 'NONE', #139, 3.000000000000000444 ) ;
#365 = FACE_OUTER_BOUND ( 'NONE', #381, .T. ) ;
#366 = AXIS2_PLACEMENT_3D ( 'NONE', #308, #133, #72 ) ;
#367 = CIRCLE ( 'NONE', #214, 0.5000000000000004441 ) ;
#368 = CARTESIAN_POINT ( 'NONE',  ( 0.000000000000000000, 0.000000000000000000, 165.0000000000000000 ) ) ;
#369 = CIRCLE ( 'NONE', #335, 3.000000000000000444 ) ;
#370 = CC_DESIGN_PERSON_AND_ORGANIZATION_ASSIGNMENT ( #362, #61, ( #77 ) ) ;
#371 = ORIENTED_EDGE ( 'NONE', *, *, #290, .T. ) ;
#372 = DIRECTION ( 'NONE',  ( 0.000000000000000000, 0.000000000000000000, -1.000000000000000000 ) ) ;
#373 = EDGE_LOOP ( 'NONE', ( #9, #94 ) ) ;
#374 = APPROVAL_ROLE ( '' ) ;
#375 = APPROVAL_PERSON_ORGANIZATION ( #21, #193, #374 ) ;
#376 = APPLICATION_PROTOCOL_DEFINITION ( 'international standard', 'config_control_design', 1994, #102 ) ;
#377 = ORIENTED_EDGE ( 'NONE', *, *, #36, .F. ) ;
#378 = APPROVAL_STATUS ( 'not_yet_approved' ) ;
#379 = ORIENTED_EDGE ( 'NONE', *, *, #265, .T. ) ;
#380 = DIRECTION ( 'NONE',  ( 0.000000000000000000, 0.000000000000000000, 1.000000000000000000 ) ) ;
#381 = EDGE_LOOP ( 'NONE', ( #79, #271, #186, #19 ) ) ;
ENDSEC;
END-ISO-10303-21;
