ISO-10303-21;
HEADER;
FILE_DESCRIPTION (( 'STEP AP203' ),
    '1' );
FILE_NAME ('70c4.STEP',
    '2022-07-08T14:19:41',
    ( '' ),
    ( '' ),
    'SwSTEP 2.0',
    'SolidWorks 2019',
    '' );
FILE_SCHEMA (( 'CONFIG_CONTROL_DESIGN' ));
ENDSEC;

DATA;
#1 = AXIS2_PLACEMENT_3D ( 'NONE', #175, #174, #207 ) ;
#2 = EDGE_CURVE ( 'NONE', #128, #336, #325, .T. ) ;
#3 = DIRECTION ( 'NONE',  ( 0.000000000000000000, 0.000000000000000000, 1.000000000000000000 ) ) ;
#4 = DIRECTION ( 'NONE',  ( 1.000000000000000000, 0.000000000000000000, 0.000000000000000000 ) ) ;
#5 = CARTESIAN_POINT ( 'NONE',  ( -11.00000000000000000, 0.000000000000000000, 7.000000000000000000 ) ) ;
#6 = CARTESIAN_POINT ( 'NONE',  ( 0.000000000000000000, 0.000000000000000000, 0.000000000000000000 ) ) ;
#7 = EDGE_CURVE ( 'NONE', #242, #303, #215, .T. ) ;
#8 = ORIENTED_EDGE ( 'NONE', *, *, #122, .F. ) ;
#9 = PERSON_AND_ORGANIZATION ( #186, #50 ) ;
#10 = ORIENTED_EDGE ( 'NONE', *, *, #313, .F. ) ;
#11 = EDGE_CURVE ( 'NONE', #43, #250, #156, .T. ) ;
#12 = ORIENTED_EDGE ( 'NONE', *, *, #11, .F. ) ;
#13 = CC_DESIGN_SECURITY_CLASSIFICATION ( #89, ( #181 ) ) ;
#14 = DIRECTION ( 'NONE',  ( 0.000000000000000000, 0.000000000000000000, 1.000000000000000000 ) ) ;
#15 = ORIENTED_EDGE ( 'NONE', *, *, #359, .T. ) ;
#16 = APPROVAL_ROLE ( '' ) ;
#17 = ORIENTED_EDGE ( 'NONE', *, *, #11, .T. ) ;
#18 = DIRECTION ( 'NONE',  ( -0.000000000000000000, -0.000000000000000000, -1.000000000000000000 ) ) ;
#19 = CIRCLE ( 'NONE', #259, 6.000000000000000888 ) ;
#20 = APPROVAL ( #163, 'NEURÈENÝ' ) ;
#21 = CARTESIAN_POINT ( 'NONE',  ( 6.000000000000000888, 7.347880794884119736E-16, 232.0000000000000000 ) ) ;
#22 = CALENDAR_DATE ( 2022, 8, 7 ) ;
#23 = DIRECTION ( 'NONE',  ( 1.000000000000000000, 0.000000000000000000, 0.000000000000000000 ) ) ;
#24 = ORIENTED_EDGE ( 'NONE', *, *, #99, .T. ) ;
#25 = AXIS2_PLACEMENT_3D ( 'NONE', #380, #47, #321 ) ;
#26 = CIRCLE ( 'NONE', #330, 8.000000000000000000 ) ;
#27 = PERSON_AND_ORGANIZATION_ROLE ( 'creator' ) ;
#28 = CARTESIAN_POINT ( 'NONE',  ( 0.000000000000000000, 0.000000000000000000, 232.0000000000000000 ) ) ;
#29 = DIRECTION ( 'NONE',  ( -1.000000000000000000, 0.000000000000000000, 0.000000000000000000 ) ) ;
#30 = LINE ( 'NONE', #204, #265 ) ;
#31 =( GEOMETRIC_REPRESENTATION_CONTEXT ( 3 ) GLOBAL_UNCERTAINTY_ASSIGNED_CONTEXT ( ( #251 ) ) GLOBAL_UNIT_ASSIGNED_CONTEXT ( ( #132, #271, #241 ) ) REPRESENTATION_CONTEXT ( 'NONE', 'WORKASPACE' ) );
#32 = CARTESIAN_POINT ( 'NONE',  ( 0.000000000000000000, 0.000000000000000000, 7.700000000000012612 ) ) ;
#33 = FACE_BOUND ( 'NONE', #107, .T. ) ;
#34 = DIRECTION ( 'NONE',  ( 0.000000000000000000, 0.000000000000000000, 1.000000000000000000 ) ) ;
#35 = EDGE_CURVE ( 'NONE', #242, #279, #113, .T. ) ;
#36 = AXIS2_PLACEMENT_3D ( 'NONE', #197, #18, #23 ) ;
#37 = CARTESIAN_POINT ( 'NONE',  ( -6.000000000000000888, 0.000000000000000000, 232.0000000000000000 ) ) ;
#38 = FACE_BOUND ( 'NONE', #199, .T. ) ;
#39 = EDGE_LOOP ( 'NONE', ( #168, #109 ) ) ;
#40 = AXIS2_PLACEMENT_3D ( 'NONE', #289, #88, #110 ) ;
#41 = ADVANCED_FACE ( 'NONE', ( #222 ), #312, .T. ) ;
#42 = DIRECTION ( 'NONE',  ( -0.000000000000000000, -0.000000000000000000, -1.000000000000000000 ) ) ;
#43 = VERTEX_POINT ( 'NONE', #227 ) ;
#44 = CIRCLE ( 'NONE', #96, 11.00000000000000000 ) ;
#45 = ORIENTED_EDGE ( 'NONE', *, *, #340, .T. ) ;
#46 = ORIENTED_EDGE ( 'NONE', *, *, #83, .T. ) ;
#47 = DIRECTION ( 'NONE',  ( 1.224646799147353207E-16, 1.000000000000000000, -0.000000000000000000 ) ) ;
#48 = DIRECTION ( 'NONE',  ( 0.000000000000000000, 0.000000000000000000, -1.000000000000000000 ) ) ;
#49 = AXIS2_PLACEMENT_3D ( 'NONE', #267, #92, #362 ) ;
#50 = ORGANIZATION ( 'NEURÈENÝ', 'NEURÈENÝ', '' ) ;
#51 = CARTESIAN_POINT ( 'NONE',  ( 0.000000000000000000, 0.000000000000000000, 7.000000000000000000 ) ) ;
#52 = CC_DESIGN_PERSON_AND_ORGANIZATION_ASSIGNMENT ( #287, #137, ( #89 ) ) ;
#53 = AXIS2_PLACEMENT_3D ( 'NONE', #55, #201, #348 ) ;
#54 = APPROVAL_DATE_TIME ( #258, #193 ) ;
#55 = CARTESIAN_POINT ( 'NONE',  ( 0.000000000000000000, 0.000000000000000000, 7.000000000000000000 ) ) ;
#56 = DATE_AND_TIME ( #320, #124 ) ;
#57 = DIRECTION ( 'NONE',  ( 0.000000000000000000, 0.000000000000000000, 1.000000000000000000 ) ) ;
#58 = DIRECTION ( 'NONE',  ( -0.000000000000000000, -0.000000000000000000, -1.000000000000000000 ) ) ;
#59 = CARTESIAN_POINT ( 'NONE',  ( 0.000000000000000000, 0.000000000000000000, 7.000000000000000000 ) ) ;
#60 = DIRECTION ( 'NONE',  ( 0.000000000000000000, 0.000000000000000000, 1.000000000000000000 ) ) ;
#61 = CIRCLE ( 'NONE', #115, 8.699999999999999289 ) ;
#62 = CARTESIAN_POINT ( 'NONE',  ( 0.000000000000000000, 0.000000000000000000, 7.000000000000000000 ) ) ;
#63 = EDGE_CURVE ( 'NONE', #190, #220, #319, .T. ) ;
#64 = CARTESIAN_POINT ( 'NONE',  ( 6.000000000000000888, 7.347880794884119736E-16, 232.0000000000000000 ) ) ;
#65 = CALENDAR_DATE ( 2022, 8, 7 ) ;
#66 = AXIS2_PLACEMENT_3D ( 'NONE', #150, #299, #323 ) ;
#67 = ORIENTED_EDGE ( 'NONE', *, *, #2, .F. ) ;
#68 = ADVANCED_FACE ( 'NONE', ( #82 ), #116, .F. ) ;
#69 = CARTESIAN_POINT ( 'NONE',  ( 0.000000000000000000, 0.000000000000000000, 0.000000000000000000 ) ) ;
#70 = ORIENTED_EDGE ( 'NONE', *, *, #122, .T. ) ;
#71 = DIRECTION ( 'NONE',  ( 1.000000000000000000, 0.000000000000000000, 0.000000000000000000 ) ) ;
#72 = ORIENTED_EDGE ( 'NONE', *, *, #273, .F. ) ;
#73 = COORDINATED_UNIVERSAL_TIME_OFFSET ( 1, 0, .AHEAD. ) ;
#74 = APPROVAL_PERSON_ORGANIZATION ( #341, #20, #16 ) ;
#75 = ORIENTED_EDGE ( 'NONE', *, *, #2, .T. ) ;
#76 = ADVANCED_FACE ( 'NONE', ( #228 ), #80, .F. ) ;
#77 = SHAPE_DEFINITION_REPRESENTATION ( #112, #350 ) ;
#78 = ORIENTED_EDGE ( 'NONE', *, *, #7, .F. ) ;
#79 = DIRECTION ( 'NONE',  ( 0.000000000000000000, 0.000000000000000000, 1.000000000000000000 ) ) ;
#80 = TOROIDAL_SURFACE ( 'NONE', #200, 8.699999999999999289, 0.6999999999999999556 ) ;
#81 = COORDINATED_UNIVERSAL_TIME_OFFSET ( 1, 0, .AHEAD. ) ;
#82 = FACE_OUTER_BOUND ( 'NONE', #216, .T. ) ;
#83 = EDGE_CURVE ( 'NONE', #190, #43, #255, .T. ) ;
#84 = LOCAL_TIME ( 16, 19, 41.00000000000000000, #73 ) ;
#85 = COORDINATED_UNIVERSAL_TIME_OFFSET ( 1, 0, .AHEAD. ) ;
#86 = DIRECTION ( 'NONE',  ( 1.000000000000000000, 0.000000000000000000, 0.000000000000000000 ) ) ;
#87 = DIRECTION ( 'NONE',  ( -1.000000000000000000, 0.000000000000000000, 0.000000000000000000 ) ) ;
#88 = DIRECTION ( 'NONE',  ( 0.000000000000000000, 0.000000000000000000, 1.000000000000000000 ) ) ;
#89 = SECURITY_CLASSIFICATION ( '', '', #219 ) ;
#90 = ADVANCED_FACE ( 'NONE', ( #225 ), #316, .T. ) ;
#91 = CARTESIAN_POINT ( 'NONE',  ( 8.000000000000000000, 9.797174393178825657E-16, 232.0000000000000000 ) ) ;
#92 = DIRECTION ( 'NONE',  ( -0.000000000000000000, -0.000000000000000000, -1.000000000000000000 ) ) ;
#93 = CIRCLE ( 'NONE', #25, 0.6999999999999992895 ) ;
#94 = CARTESIAN_POINT ( 'NONE',  ( -6.000000000000000888, 0.000000000000000000, 0.000000000000000000 ) ) ;
#95 = EDGE_CURVE ( 'NONE', #220, #250, #93, .T. ) ;
#96 = AXIS2_PLACEMENT_3D ( 'NONE', #266, #177, #300 ) ;
#97 = FACE_OUTER_BOUND ( 'NONE', #281, .T. ) ;
#98 = DIRECTION ( 'NONE',  ( 1.000000000000000000, 0.000000000000000000, 0.000000000000000000 ) ) ;
#99 = EDGE_CURVE ( 'NONE', #246, #279, #236, .T. ) ;
#100 = DIRECTION ( 'NONE',  ( -0.000000000000000000, -0.000000000000000000, -1.000000000000000000 ) ) ;
#101 = APPROVAL_ROLE ( '' ) ;
#102 = APPLICATION_CONTEXT ( 'configuration controlled 3d designs of mechanical parts and assemblies' ) ;
#103 = ORIENTED_EDGE ( 'NONE', *, *, #83, .F. ) ;
#104 = EDGE_LOOP ( 'NONE', ( #75, #15 ) ) ;
#105 = PRODUCT ( '70c4', '70c4', '', ( #187 ) ) ;
#106 = FACE_OUTER_BOUND ( 'NONE', #39, .T. ) ;
#107 = EDGE_LOOP ( 'NONE', ( #375, #78 ) ) ;
#108 = ADVANCED_FACE ( 'NONE', ( #292 ), #138, .F. ) ;
#109 = ORIENTED_EDGE ( 'NONE', *, *, #214, .T. ) ;
#110 = DIRECTION ( 'NONE',  ( 1.000000000000000000, 0.000000000000000000, 0.000000000000000000 ) ) ;
#111 = CLOSED_SHELL ( 'NONE', ( #221, #76, #370, #41, #90, #354, #149, #208, #141, #108, #68 ) ) ;
#112 = PRODUCT_DEFINITION_SHAPE ( 'NONE', 'NONE',  #198 ) ;
#113 = LINE ( 'NONE', #21, #203 ) ;
#114 = ORIENTED_EDGE ( 'NONE', *, *, #313, .T. ) ;
#115 = AXIS2_PLACEMENT_3D ( 'NONE', #62, #42, #71 ) ;
#116 = CYLINDRICAL_SURFACE ( 'NONE', #135, 6.000000000000000888 ) ;
#117 = CARTESIAN_POINT ( 'NONE',  ( -8.000000000000000000, 0.000000000000000000, 232.0000000000000000 ) ) ;
#118 = CARTESIAN_POINT ( 'NONE',  ( 11.00000000000000000, 1.347111479062088405E-15, 7.000000000000000000 ) ) ;
#119 = CARTESIAN_POINT ( 'NONE',  ( 6.000000000000000888, 7.347880794884119736E-16, 0.000000000000000000 ) ) ;
#120 = APPLICATION_CONTEXT ( 'configuration controlled 3d designs of mechanical parts and assemblies' ) ;
#121 = PLANE ( 'NONE',  #66 ) ;
#122 = EDGE_CURVE ( 'NONE', #140, #365, #146, .T. ) ;
#123 = FACE_OUTER_BOUND ( 'NONE', #104, .T. ) ;
#124 = LOCAL_TIME ( 16, 19, 41.00000000000000000, #167 ) ;
#125 = CARTESIAN_POINT ( 'NONE',  ( 8.000000000000000000, 9.797174393178825657E-16, 7.700000000000012612 ) ) ;
#126 = DIRECTION ( 'NONE',  ( -1.000000000000000000, 0.000000000000000000, 0.000000000000000000 ) ) ;
#127 = EDGE_LOOP ( 'NONE', ( #10, #379, #70, #159 ) ) ;
#128 = VERTEX_POINT ( 'NONE', #117 ) ;
#129 = CC_DESIGN_APPROVAL ( #193, ( #89 ) ) ;
#130 = CARTESIAN_POINT ( 'NONE',  ( 0.000000000000000000, 0.000000000000000000, 232.0000000000000000 ) ) ;
#131 = EDGE_LOOP ( 'NONE', ( #374, #67, #277, #372 ) ) ;
#132 =( LENGTH_UNIT ( ) NAMED_UNIT ( * ) SI_UNIT ( .MILLI., .METRE. ) );
#133 = ORIENTED_EDGE ( 'NONE', *, *, #286, .T. ) ;
#134 = DIRECTION ( 'NONE',  ( 1.000000000000000000, 0.000000000000000000, 0.000000000000000000 ) ) ;
#135 = AXIS2_PLACEMENT_3D ( 'NONE', #28, #144, #353 ) ;
#136 = EDGE_LOOP ( 'NONE', ( #367, #342 ) ) ;
#137 = PERSON_AND_ORGANIZATION_ROLE ( 'classification_officer' ) ;
#138 = TOROIDAL_SURFACE ( 'NONE', #229, 8.699999999999999289, 0.6999999999999999556 ) ;
#139 = LOCAL_TIME ( 16, 19, 41.00000000000000000, #332 ) ;
#140 = VERTEX_POINT ( 'NONE', #5 ) ;
#141 = ADVANCED_FACE ( 'NONE', ( #33, #123 ), #293, .T. ) ;
#142 = ORIENTED_EDGE ( 'NONE', *, *, #345, .F. ) ;
#143 = CARTESIAN_POINT ( 'NONE',  ( -11.00000000000000000, 0.000000000000000000, 7.000000000000000000 ) ) ;
#144 = DIRECTION ( 'NONE',  ( 0.000000000000000000, 0.000000000000000000, -1.000000000000000000 ) ) ;
#145 = CIRCLE ( 'NONE', #361, 11.00000000000000000 ) ;
#146 = LINE ( 'NONE', #143, #301 ) ;
#147 = CARTESIAN_POINT ( 'NONE',  ( -6.000000000000000888, 0.000000000000000000, 232.0000000000000000 ) ) ;
#148 = DIRECTION ( 'NONE',  ( -0.000000000000000000, -0.000000000000000000, -1.000000000000000000 ) ) ;
#149 = ADVANCED_FACE ( 'NONE', ( #324, #326 ), #121, .F. ) ;
#150 = CARTESIAN_POINT ( 'NONE',  ( 0.000000000000000000, 0.000000000000000000, 0.000000000000000000 ) ) ;
#151 = AXIS2_PLACEMENT_3D ( 'NONE', #165, #256, #377 ) ;
#152 = FACE_OUTER_BOUND ( 'NONE', #131, .T. ) ;
#153 = VECTOR ( 'NONE', #232, 1000.000000000000000 ) ;
#154 = ORIENTED_EDGE ( 'NONE', *, *, #268, .F. ) ;
#155 = EDGE_CURVE ( 'NONE', #365, #369, #284, .T. ) ;
#156 = CIRCLE ( 'NONE', #53, 8.699999999999999289 ) ;
#157 = ORIENTED_EDGE ( 'NONE', *, *, #99, .F. ) ;
#158 = CARTESIAN_POINT ( 'NONE',  ( 0.000000000000000000, 0.000000000000000000, 232.0000000000000000 ) ) ;
#159 = ORIENTED_EDGE ( 'NONE', *, *, #155, .T. ) ;
#160 = AXIS2_PLACEMENT_3D ( 'NONE', #158, #14, #307 ) ;
#161 = DIRECTION ( 'NONE',  ( 0.000000000000000000, 0.000000000000000000, -1.000000000000000000 ) ) ;
#162 = ORIENTED_EDGE ( 'NONE', *, *, #63, .T. ) ;
#163 = APPROVAL_STATUS ( 'not_yet_approved' ) ;
#164 = EDGE_LOOP ( 'NONE', ( #308, #306, #46, #253 ) ) ;
#165 = CARTESIAN_POINT ( 'NONE',  ( 0.000000000000000000, 0.000000000000000000, 7.000000000000000000 ) ) ;
#166 = CARTESIAN_POINT ( 'NONE',  ( 0.000000000000000000, 0.000000000000000000, 7.700000000000012612 ) ) ;
#167 = COORDINATED_UNIVERSAL_TIME_OFFSET ( 1, 0, .AHEAD. ) ;
#168 = ORIENTED_EDGE ( 'NONE', *, *, #298, .T. ) ;
#169 = DIRECTION ( 'NONE',  ( 0.000000000000000000, -1.000000000000000000, 0.000000000000000000 ) ) ;
#170 = CC_DESIGN_PERSON_AND_ORGANIZATION_ASSIGNMENT ( #282, #344, ( #181 ) ) ;
#171 = AXIS2_PLACEMENT_3D ( 'NONE', #51, #288, #87 ) ;
#172 = CARTESIAN_POINT ( 'NONE',  ( 0.000000000000000000, 0.000000000000000000, 7.700000000000012612 ) ) ;
#173 = DIRECTION ( 'NONE',  ( 1.000000000000000000, 0.000000000000000000, 0.000000000000000000 ) ) ;
#174 = DIRECTION ( 'NONE',  ( 0.000000000000000000, 0.000000000000000000, 1.000000000000000000 ) ) ;
#175 = CARTESIAN_POINT ( 'NONE',  ( 0.000000000000000000, 0.000000000000000000, 7.000000000000000000 ) ) ;
#176 = DIRECTION ( 'NONE',  ( 1.000000000000000000, 0.000000000000000000, 0.000000000000000000 ) ) ;
#177 = DIRECTION ( 'NONE',  ( 0.000000000000000000, 0.000000000000000000, 1.000000000000000000 ) ) ;
#178 = CARTESIAN_POINT ( 'NONE',  ( -11.00000000000000000, 0.000000000000000000, 0.000000000000000000 ) ) ;
#179 = PRODUCT_RELATED_PRODUCT_CATEGORY ( 'detail', '', ( #105 ) ) ;
#180 = AXIS2_PLACEMENT_3D ( 'NONE', #264, #205, #238 ) ;
#181 = PRODUCT_DEFINITION_FORMATION_WITH_SPECIFIED_SOURCE ( 'LIBOVOLNÝ', '', #105, .NOT_KNOWN. ) ;
#182 = PERSON_AND_ORGANIZATION ( #186, #50 ) ;
#183 = ORIENTED_EDGE ( 'NONE', *, *, #359, .F. ) ;
#184 = ORIENTED_EDGE ( 'NONE', *, *, #214, .F. ) ;
#185 = CC_DESIGN_DATE_AND_TIME_ASSIGNMENT ( #223, #196, ( #89 ) ) ;
#186 = PERSON ( 'NEURÈENÝ', 'NEURÈENÝ', 'NEURÈENÝ', ('NEURÈENÝ'), ('NEURÈENÝ'), ('NEURÈENÝ') ) ;
#187 = MECHANICAL_CONTEXT ( 'NONE', #102, 'mechanical' ) ;
#188 = ORIENTED_EDGE ( 'NONE', *, *, #237, .T. ) ;
#189 = DIRECTION ( 'NONE',  ( 1.000000000000000000, 0.000000000000000000, -0.000000000000000000 ) ) ;
#190 = VERTEX_POINT ( 'NONE', #125 ) ;
#191 = ORIENTED_EDGE ( 'NONE', *, *, #7, .T. ) ;
#192 = DIRECTION ( 'NONE',  ( 0.000000000000000000, 0.000000000000000000, -1.000000000000000000 ) ) ;
#193 = APPROVAL ( #347, 'NEURÈENÝ' ) ;
#194 = APPROVAL_PERSON_ORGANIZATION ( #317, #193, #315 ) ;
#195 = DIRECTION ( 'NONE',  ( 1.000000000000000000, 0.000000000000000000, 0.000000000000000000 ) ) ;
#196 = DATE_TIME_ROLE ( 'classification_date' ) ;
#197 = CARTESIAN_POINT ( 'NONE',  ( 0.000000000000000000, 0.000000000000000000, 0.000000000000000000 ) ) ;
#198 = PRODUCT_DEFINITION ( 'NEZNÁMÝ', '', #181, #257 ) ;
#199 = EDGE_LOOP ( 'NONE', ( #17, #45 ) ) ;
#200 = AXIS2_PLACEMENT_3D ( 'NONE', #283, #57, #195 ) ;
#201 = DIRECTION ( 'NONE',  ( -0.000000000000000000, -0.000000000000000000, -1.000000000000000000 ) ) ;
#202 = DIRECTION ( 'NONE',  ( -0.000000000000000000, -0.000000000000000000, -1.000000000000000000 ) ) ;
#203 = VECTOR ( 'NONE', #48, 1000.000000000000000 ) ;
#204 = CARTESIAN_POINT ( 'NONE',  ( -8.000000000000000000, 0.000000000000000000, 232.0000000000000000 ) ) ;
#205 = DIRECTION ( 'NONE',  ( 0.000000000000000000, 0.000000000000000000, 1.000000000000000000 ) ) ;
#206 = AXIS2_PLACEMENT_3D ( 'NONE', #130, #100, #126 ) ;
#207 = DIRECTION ( 'NONE',  ( 1.000000000000000000, 0.000000000000000000, 0.000000000000000000 ) ) ;
#208 = ADVANCED_FACE ( 'NONE', ( #152 ), #381, .T. ) ;
#209 = PERSON_AND_ORGANIZATION_ROLE ( 'creator' ) ;
#210 = DIRECTION ( 'NONE',  ( 0.000000000000000000, 0.000000000000000000, 1.000000000000000000 ) ) ;
#211 = ORIENTED_EDGE ( 'NONE', *, *, #226, .F. ) ;
#212 = PERSON_AND_ORGANIZATION ( #186, #50 ) ;
#213 = ORIENTED_EDGE ( 'NONE', *, *, #268, .T. ) ;
#214 = EDGE_CURVE ( 'NONE', #339, #140, #263, .T. ) ;
#215 = CIRCLE ( 'NONE', #304, 6.000000000000000888 ) ;
#216 = EDGE_LOOP ( 'NONE', ( #311, #191, #218, #24 ) ) ;
#217 = APPLICATION_PROTOCOL_DEFINITION ( 'international standard', 'config_control_design', 1994, #120 ) ;
#218 = ORIENTED_EDGE ( 'NONE', *, *, #345, .T. ) ;
#219 = SECURITY_CLASSIFICATION_LEVEL ( 'unclassified' ) ;
#220 = VERTEX_POINT ( 'NONE', #294 ) ;
#221 = ADVANCED_FACE ( 'NONE', ( #97 ), #269, .F. ) ;
#222 = FACE_OUTER_BOUND ( 'NONE', #244, .T. ) ;
#223 = DATE_AND_TIME ( #252, #231 ) ;
#224 = AXIS2_PLACEMENT_3D ( 'NONE', #363, #329, #29 ) ;
#225 = FACE_OUTER_BOUND ( 'NONE', #127, .T. ) ;
#226 = EDGE_CURVE ( 'NONE', #128, #220, #30, .T. ) ;
#227 = CARTESIAN_POINT ( 'NONE',  ( 8.699999999999999289, 0.000000000000000000, 7.000000000000006217 ) ) ;
#228 = FACE_OUTER_BOUND ( 'NONE', #275, .T. ) ;
#229 = AXIS2_PLACEMENT_3D ( 'NONE', #172, #352, #86 ) ;
#230 = LINE ( 'NONE', #91, #153 ) ;
#231 = LOCAL_TIME ( 16, 19, 41.00000000000000000, #85 ) ;
#232 = DIRECTION ( 'NONE',  ( -0.000000000000000000, -0.000000000000000000, -1.000000000000000000 ) ) ;
#233 = LINE ( 'NONE', #118, #349 ) ;
#234 = AXIS2_PLACEMENT_3D ( 'NONE', #166, #79, #285 ) ;
#235 = DIRECTION ( 'NONE',  ( 0.000000000000000000, 0.000000000000000000, 1.000000000000000000 ) ) ;
#236 = CIRCLE ( 'NONE', #36, 6.000000000000000888 ) ;
#237 = EDGE_CURVE ( 'NONE', #303, #242, #309, .T. ) ;
#238 = DIRECTION ( 'NONE',  ( 1.000000000000000000, 0.000000000000000000, -0.000000000000000000 ) ) ;
#239 = ORIENTED_EDGE ( 'NONE', *, *, #35, .T. ) ;
#240 = APPROVAL ( #366, 'NEURÈENÝ' ) ;
#241 =( NAMED_UNIT ( * ) SI_UNIT ( $, .STERADIAN. ) SOLID_ANGLE_UNIT ( ) );
#242 = VERTEX_POINT ( 'NONE', #64 ) ;
#243 = VECTOR ( 'NONE', #161, 1000.000000000000000 ) ;
#244 = EDGE_LOOP ( 'NONE', ( #184, #114, #133, #8 ) ) ;
#245 = PERSON_AND_ORGANIZATION_ROLE ( 'design_owner' ) ;
#246 = VERTEX_POINT ( 'NONE', #94 ) ;
#247 = CALENDAR_DATE ( 2022, 8, 7 ) ;
#248 = ORIENTED_EDGE ( 'NONE', *, *, #95, .T. ) ;
#249 = AXIS2_PLACEMENT_3D ( 'NONE', #371, #278, #189 ) ;
#250 = VERTEX_POINT ( 'NONE', #357 ) ;
#251 = UNCERTAINTY_MEASURE_WITH_UNIT (LENGTH_MEASURE( 1.000000000000000082E-05 ), #132, 'distance_accuracy_value', 'NONE');
#252 = CALENDAR_DATE ( 2022, 8, 7 ) ;
#253 = ORIENTED_EDGE ( 'NONE', *, *, #340, .F. ) ;
#254 = CC_DESIGN_PERSON_AND_ORGANIZATION_ASSIGNMENT ( #351, #27, ( #181 ) ) ;
#255 = CIRCLE ( 'NONE', #295, 0.7000000000000000666 ) ;
#256 = DIRECTION ( 'NONE',  ( -0.000000000000000000, -0.000000000000000000, -1.000000000000000000 ) ) ;
#257 = DESIGN_CONTEXT ( 'detailed design', #120, 'design' ) ;
#258 = DATE_AND_TIME ( #22, #270 ) ;
#259 = AXIS2_PLACEMENT_3D ( 'NONE', #6, #58, #98 ) ;
#260 = DIRECTION ( 'NONE',  ( -0.000000000000000000, -0.000000000000000000, -1.000000000000000000 ) ) ;
#261 = CARTESIAN_POINT ( 'NONE',  ( 0.000000000000000000, 0.000000000000000000, 0.000000000000000000 ) ) ;
#262 = CC_DESIGN_PERSON_AND_ORGANIZATION_ASSIGNMENT ( #212, #245, ( #105 ) ) ;
#263 = CIRCLE ( 'NONE', #1, 11.00000000000000000 ) ;
#264 = CARTESIAN_POINT ( 'NONE',  ( 0.000000000000000000, 0.000000000000000000, 232.0000000000000000 ) ) ;
#265 = VECTOR ( 'NONE', #148, 1000.000000000000000 ) ;
#266 = CARTESIAN_POINT ( 'NONE',  ( 0.000000000000000000, 0.000000000000000000, 0.000000000000000000 ) ) ;
#267 = CARTESIAN_POINT ( 'NONE',  ( 0.000000000000000000, 0.000000000000000000, 232.0000000000000000 ) ) ;
#268 = EDGE_CURVE ( 'NONE', #279, #246, #19, .T. ) ;
#269 = CYLINDRICAL_SURFACE ( 'NONE', #224, 6.000000000000000888 ) ;
#270 = LOCAL_TIME ( 16, 19, 41.00000000000000000, #81 ) ;
#271 =( NAMED_UNIT ( * ) PLANE_ANGLE_UNIT ( ) SI_UNIT ( $, .RADIAN. ) );
#272 = EDGE_LOOP ( 'NONE', ( #183, #310, #162, #211 ) ) ;
#273 = EDGE_CURVE ( 'NONE', #220, #190, #26, .T. ) ;
#274 = DATE_TIME_ROLE ( 'creation_date' ) ;
#275 = EDGE_LOOP ( 'NONE', ( #72, #248, #12, #103 ) ) ;
#276 = CYLINDRICAL_SURFACE ( 'NONE', #206, 8.000000000000000000 ) ;
#277 = ORIENTED_EDGE ( 'NONE', *, *, #226, .T. ) ;
#278 = DIRECTION ( 'NONE',  ( 0.000000000000000000, 0.000000000000000000, 1.000000000000000000 ) ) ;
#279 = VERTEX_POINT ( 'NONE', #119 ) ;
#280 = DATE_AND_TIME ( #247, #84 ) ;
#281 = EDGE_LOOP ( 'NONE', ( #188, #239, #213, #142 ) ) ;
#282 = PERSON_AND_ORGANIZATION ( #186, #50 ) ;
#283 = CARTESIAN_POINT ( 'NONE',  ( 0.000000000000000000, 0.000000000000000000, 7.700000000000012612 ) ) ;
#284 = CIRCLE ( 'NONE', #335, 11.00000000000000000 ) ;
#285 = DIRECTION ( 'NONE',  ( 1.000000000000000000, 0.000000000000000000, 0.000000000000000000 ) ) ;
#286 = EDGE_CURVE ( 'NONE', #369, #365, #44, .T. ) ;
#287 = PERSON_AND_ORGANIZATION ( #186, #50 ) ;
#288 = DIRECTION ( 'NONE',  ( -0.000000000000000000, -0.000000000000000000, -1.000000000000000000 ) ) ;
#289 = CARTESIAN_POINT ( 'NONE',  ( 0.000000000000000000, 0.000000000000000000, 232.0000000000000000 ) ) ;
#290 = APPROVAL_DATE_TIME ( #56, #240 ) ;
#291 = APPROVAL_PERSON_ORGANIZATION ( #9, #240, #101 ) ;
#292 = FACE_OUTER_BOUND ( 'NONE', #164, .T. ) ;
#293 = PLANE ( 'NONE',  #180 ) ;
#294 = CARTESIAN_POINT ( 'NONE',  ( -8.000000000000000000, 0.000000000000000000, 7.700000000000012612 ) ) ;
#295 = AXIS2_PLACEMENT_3D ( 'NONE', #346, #169, #192 ) ;
#296 = DIRECTION ( 'NONE',  ( 1.000000000000000000, 0.000000000000000000, 0.000000000000000000 ) ) ;
#297 = CC_DESIGN_APPROVAL ( #20, ( #198 ) ) ;
#298 = EDGE_CURVE ( 'NONE', #140, #339, #145, .T. ) ;
#299 = DIRECTION ( 'NONE',  ( 0.000000000000000000, 0.000000000000000000, 1.000000000000000000 ) ) ;
#300 = DIRECTION ( 'NONE',  ( 1.000000000000000000, 0.000000000000000000, 0.000000000000000000 ) ) ;
#301 = VECTOR ( 'NONE', #260, 1000.000000000000000 ) ;
#302 = DATE_AND_TIME ( #65, #139 ) ;
#303 = VERTEX_POINT ( 'NONE', #147 ) ;
#304 = AXIS2_PLACEMENT_3D ( 'NONE', #376, #318, #355 ) ;
#305 = PLANE ( 'NONE',  #249 ) ;
#306 = ORIENTED_EDGE ( 'NONE', *, *, #63, .F. ) ;
#307 = DIRECTION ( 'NONE',  ( 1.000000000000000000, 0.000000000000000000, 0.000000000000000000 ) ) ;
#308 = ORIENTED_EDGE ( 'NONE', *, *, #95, .F. ) ;
#309 = CIRCLE ( 'NONE', #356, 6.000000000000000888 ) ;
#310 = ORIENTED_EDGE ( 'NONE', *, *, #328, .T. ) ;
#311 = ORIENTED_EDGE ( 'NONE', *, *, #35, .F. ) ;
#312 = CYLINDRICAL_SURFACE ( 'NONE', #151, 11.00000000000000000 ) ;
#313 = EDGE_CURVE ( 'NONE', #339, #369, #233, .T. ) ;
#314 = CIRCLE ( 'NONE', #160, 8.000000000000000000 ) ;
#315 = APPROVAL_ROLE ( '' ) ;
#316 = CYLINDRICAL_SURFACE ( 'NONE', #171, 11.00000000000000000 ) ;
#317 = PERSON_AND_ORGANIZATION ( #186, #50 ) ;
#318 = DIRECTION ( 'NONE',  ( 0.000000000000000000, 0.000000000000000000, 1.000000000000000000 ) ) ;
#319 = CIRCLE ( 'NONE', #234, 8.000000000000000000 ) ;
#320 = CALENDAR_DATE ( 2022, 8, 7 ) ;
#321 = DIRECTION ( 'NONE',  ( -1.000000000000000000, 1.224646799147353207E-16, 0.000000000000000000 ) ) ;
#322 = CC_DESIGN_PERSON_AND_ORGANIZATION_ASSIGNMENT ( #182, #209, ( #198 ) ) ;
#323 = DIRECTION ( 'NONE',  ( 1.000000000000000000, 0.000000000000000000, -0.000000000000000000 ) ) ;
#324 = FACE_BOUND ( 'NONE', #338, .T. ) ;
#325 = CIRCLE ( 'NONE', #40, 8.000000000000000000 ) ;
#326 = FACE_OUTER_BOUND ( 'NONE', #136, .T. ) ;
#327 = MANIFOLD_SOLID_BREP ( 'Odebrat vysunutím3', #111 ) ;
#328 = EDGE_CURVE ( 'NONE', #336, #190, #230, .T. ) ;
#329 = DIRECTION ( 'NONE',  ( 0.000000000000000000, 0.000000000000000000, -1.000000000000000000 ) ) ;
#330 = AXIS2_PLACEMENT_3D ( 'NONE', #32, #3, #173 ) ;
#331 = CARTESIAN_POINT ( 'NONE',  ( 0.000000000000000000, 0.000000000000000000, 232.0000000000000000 ) ) ;
#332 = COORDINATED_UNIVERSAL_TIME_OFFSET ( 1, 0, .AHEAD. ) ;
#333 = APPLICATION_PROTOCOL_DEFINITION ( 'international standard', 'config_control_design', 1994, #102 ) ;
#334 = CC_DESIGN_DATE_AND_TIME_ASSIGNMENT ( #302, #274, ( #198 ) ) ;
#335 = AXIS2_PLACEMENT_3D ( 'NONE', #261, #235, #176 ) ;
#336 = VERTEX_POINT ( 'NONE', #358 ) ;
#337 = LINE ( 'NONE', #37, #243 ) ;
#338 = EDGE_LOOP ( 'NONE', ( #157, #154 ) ) ;
#339 = VERTEX_POINT ( 'NONE', #360 ) ;
#340 = EDGE_CURVE ( 'NONE', #250, #43, #61, .T. ) ;
#341 = PERSON_AND_ORGANIZATION ( #186, #50 ) ;
#342 = ORIENTED_EDGE ( 'NONE', *, *, #286, .F. ) ;
#343 = CC_DESIGN_APPROVAL ( #240, ( #181 ) ) ;
#344 = PERSON_AND_ORGANIZATION_ROLE ( 'design_supplier' ) ;
#345 = EDGE_CURVE ( 'NONE', #303, #246, #337, .T. ) ;
#346 = CARTESIAN_POINT ( 'NONE',  ( 8.699999999999999289, 0.000000000000000000, 7.700000000000012612 ) ) ;
#347 = APPROVAL_STATUS ( 'not_yet_approved' ) ;
#348 = DIRECTION ( 'NONE',  ( 1.000000000000000000, 0.000000000000000000, 0.000000000000000000 ) ) ;
#349 = VECTOR ( 'NONE', #202, 1000.000000000000000 ) ;
#350 = ADVANCED_BREP_SHAPE_REPRESENTATION ( '70c4', ( #327, #378 ), #31 ) ;
#351 = PERSON_AND_ORGANIZATION ( #186, #50 ) ;
#352 = DIRECTION ( 'NONE',  ( 0.000000000000000000, 0.000000000000000000, 1.000000000000000000 ) ) ;
#353 = DIRECTION ( 'NONE',  ( -1.000000000000000000, 0.000000000000000000, 0.000000000000000000 ) ) ;
#354 = ADVANCED_FACE ( 'NONE', ( #38, #106 ), #305, .T. ) ;
#355 = DIRECTION ( 'NONE',  ( 1.000000000000000000, 0.000000000000000000, 0.000000000000000000 ) ) ;
#356 = AXIS2_PLACEMENT_3D ( 'NONE', #331, #60, #296 ) ;
#357 = CARTESIAN_POINT ( 'NONE',  ( -8.699999999999999289, 1.065442715258197248E-15, 7.000000000000006217 ) ) ;
#358 = CARTESIAN_POINT ( 'NONE',  ( 8.000000000000000000, 9.797174393178825657E-16, 232.0000000000000000 ) ) ;
#359 = EDGE_CURVE ( 'NONE', #336, #128, #314, .T. ) ;
#360 = CARTESIAN_POINT ( 'NONE',  ( 11.00000000000000000, 1.347111479062088405E-15, 7.000000000000000000 ) ) ;
#361 = AXIS2_PLACEMENT_3D ( 'NONE', #59, #34, #4 ) ;
#362 = DIRECTION ( 'NONE',  ( -1.000000000000000000, 0.000000000000000000, 0.000000000000000000 ) ) ;
#363 = CARTESIAN_POINT ( 'NONE',  ( 0.000000000000000000, 0.000000000000000000, 232.0000000000000000 ) ) ;
#364 = CARTESIAN_POINT ( 'NONE',  ( 11.00000000000000000, 1.347111479062088405E-15, 0.000000000000000000 ) ) ;
#365 = VERTEX_POINT ( 'NONE', #178 ) ;
#366 = APPROVAL_STATUS ( 'not_yet_approved' ) ;
#367 = ORIENTED_EDGE ( 'NONE', *, *, #155, .F. ) ;
#368 = FACE_OUTER_BOUND ( 'NONE', #272, .T. ) ;
#369 = VERTEX_POINT ( 'NONE', #364 ) ;
#370 = ADVANCED_FACE ( 'NONE', ( #368 ), #276, .T. ) ;
#371 = CARTESIAN_POINT ( 'NONE',  ( 0.000000000000000000, 0.000000000000000000, 7.000000000000000000 ) ) ;
#372 = ORIENTED_EDGE ( 'NONE', *, *, #273, .T. ) ;
#373 = APPROVAL_DATE_TIME ( #280, #20 ) ;
#374 = ORIENTED_EDGE ( 'NONE', *, *, #328, .F. ) ;
#375 = ORIENTED_EDGE ( 'NONE', *, *, #237, .F. ) ;
#376 = CARTESIAN_POINT ( 'NONE',  ( 0.000000000000000000, 0.000000000000000000, 232.0000000000000000 ) ) ;
#377 = DIRECTION ( 'NONE',  ( -1.000000000000000000, 0.000000000000000000, 0.000000000000000000 ) ) ;
#378 = AXIS2_PLACEMENT_3D ( 'NONE', #69, #210, #134 ) ;
#379 = ORIENTED_EDGE ( 'NONE', *, *, #298, .F. ) ;
#380 = CARTESIAN_POINT ( 'NONE',  ( -8.699999999999999289, 1.065442715258197248E-15, 7.700000000000012612 ) ) ;
#381 = CYLINDRICAL_SURFACE ( 'NONE', #49, 8.000000000000000000 ) ;
ENDSEC;
END-ISO-10303-21;
