ISO-10303-21;
HEADER;
FILE_DESCRIPTION (( 'STEP AP203' ),
    '1' );
FILE_NAME ('3988.STEP',
    '2022-07-08T14:38:17',
    ( '' ),
    ( '' ),
    'SwSTEP 2.0',
    'SolidWorks 2019',
    '' );
FILE_SCHEMA (( 'CONFIG_CONTROL_DESIGN' ));
ENDSEC;

DATA;
#1 = AXIS2_PLACEMENT_3D ( 'NONE', #77, #133, #53 ) ;
#2 = ORIENTED_EDGE ( 'NONE', *, *, #80, .F. ) ;
#3 = AXIS2_PLACEMENT_3D ( 'NONE', #299, #277, #72 ) ;
#4 = PERSON_AND_ORGANIZATION ( #191, #56 ) ;
#5 =( NAMED_UNIT ( * ) SI_UNIT ( $, .STERADIAN. ) SOLID_ANGLE_UNIT ( ) );
#6 = APPLICATION_CONTEXT ( 'configuration controlled 3d designs of mechanical parts and assemblies' ) ;
#7 = EDGE_CURVE ( 'NONE', #318, #146, #381, .T. ) ;
#8 = CYLINDRICAL_SURFACE ( 'NONE', #3, 4.000000000000000000 ) ;
#9 = ORIENTED_EDGE ( 'NONE', *, *, #120, .T. ) ;
#10 = AXIS2_PLACEMENT_3D ( 'NONE', #58, #118, #290 ) ;
#11 =( NAMED_UNIT ( * ) PLANE_ANGLE_UNIT ( ) SI_UNIT ( $, .RADIAN. ) );
#12 = ORIENTED_EDGE ( 'NONE', *, *, #289, .T. ) ;
#13 = EDGE_CURVE ( 'NONE', #60, #305, #315, .T. ) ;
#14 = DIRECTION ( 'NONE',  ( -0.000000000000000000, -0.000000000000000000, -1.000000000000000000 ) ) ;
#15 = DESIGN_CONTEXT ( 'detailed design', #332, 'design' ) ;
#16 = DIRECTION ( 'NONE',  ( 0.000000000000000000, -1.000000000000000000, 0.000000000000000000 ) ) ;
#17 = CIRCLE ( 'NONE', #181, 0.7000000000000000666 ) ;
#18 = AXIS2_PLACEMENT_3D ( 'NONE', #103, #215, #155 ) ;
#19 = FACE_OUTER_BOUND ( 'NONE', #30, .T. ) ;
#20 = UNCERTAINTY_MEASURE_WITH_UNIT (LENGTH_MEASURE( 1.000000000000000082E-05 ), #304, 'distance_accuracy_value', 'NONE');
#21 = PERSON_AND_ORGANIZATION ( #191, #56 ) ;
#22 = APPROVAL ( #127, 'NEURÈENÝ' ) ;
#23 = DIRECTION ( 'NONE',  ( 1.000000000000000000, 0.000000000000000000, 0.000000000000000000 ) ) ;
#24 = CARTESIAN_POINT ( 'NONE',  ( 6.000000000000000888, 7.347880794884120722E-16, 282.0000000000000000 ) ) ;
#25 = AXIS2_PLACEMENT_3D ( 'NONE', #48, #115, #340 ) ;
#26 = DIRECTION ( 'NONE',  ( -0.000000000000000000, -0.000000000000000000, -1.000000000000000000 ) ) ;
#27 = ADVANCED_FACE ( 'NONE', ( #113, #19 ), #111, .F. ) ;
#28 = DIRECTION ( 'NONE',  ( 1.000000000000000000, 0.000000000000000000, 0.000000000000000000 ) ) ;
#29 = DIRECTION ( 'NONE',  ( -1.000000000000000000, 0.000000000000000000, 0.000000000000000000 ) ) ;
#30 = EDGE_LOOP ( 'NONE', ( #228, #357 ) ) ;
#31 =( GEOMETRIC_REPRESENTATION_CONTEXT ( 3 ) GLOBAL_UNCERTAINTY_ASSIGNED_CONTEXT ( ( #20 ) ) GLOBAL_UNIT_ASSIGNED_CONTEXT ( ( #304, #11, #5 ) ) REPRESENTATION_CONTEXT ( 'NONE', 'WORKASPACE' ) );
#32 = CARTESIAN_POINT ( 'NONE',  ( 10.00000000000000000, 1.224646799147353256E-15, 0.000000000000000000 ) ) ;
#33 = LOCAL_TIME ( 16, 38, 17.00000000000000000, #355 ) ;
#34 = ORIENTED_EDGE ( 'NONE', *, *, #328, .T. ) ;
#35 = CARTESIAN_POINT ( 'NONE',  ( 0.000000000000000000, 0.000000000000000000, 0.000000000000000000 ) ) ;
#36 = ORIENTED_EDGE ( 'NONE', *, *, #184, .T. ) ;
#37 = AXIS2_PLACEMENT_3D ( 'NONE', #167, #279, #306 ) ;
#38 = CALENDAR_DATE ( 2022, 8, 7 ) ;
#39 = LOCAL_TIME ( 16, 38, 17.00000000000000000, #301 ) ;
#40 = PRODUCT_DEFINITION ( 'NEZNÁMÝ', '', #263, #15 ) ;
#41 = PERSON_AND_ORGANIZATION ( #191, #56 ) ;
#42 = ADVANCED_FACE ( 'NONE', ( #134 ), #221, .T. ) ;
#43 = ORIENTED_EDGE ( 'NONE', *, *, #308, .F. ) ;
#44 = LOCAL_TIME ( 16, 38, 17.00000000000000000, #97 ) ;
#45 = PRODUCT ( '3988', '3988', '', ( #354 ) ) ;
#46 = PERSON_AND_ORGANIZATION_ROLE ( 'classification_officer' ) ;
#47 = PLANE ( 'NONE',  #281 ) ;
#48 = CARTESIAN_POINT ( 'NONE',  ( 0.000000000000000000, 0.000000000000000000, 282.0000000000000000 ) ) ;
#49 = CIRCLE ( 'NONE', #100, 4.000000000000000000 ) ;
#50 = CARTESIAN_POINT ( 'NONE',  ( 10.00000000000000000, 1.224646799147353256E-15, 7.000000000000000000 ) ) ;
#51 = ADVANCED_FACE ( 'NONE', ( #255 ), #366, .F. ) ;
#52 = PERSON_AND_ORGANIZATION_ROLE ( 'design_supplier' ) ;
#53 = DIRECTION ( 'NONE',  ( 1.000000000000000000, 0.000000000000000000, 0.000000000000000000 ) ) ;
#54 = DIRECTION ( 'NONE',  ( -1.000000000000000000, 0.000000000000000000, 0.000000000000000000 ) ) ;
#55 = CARTESIAN_POINT ( 'NONE',  ( 0.000000000000000000, 0.000000000000000000, 7.699999999999985079 ) ) ;
#56 = ORGANIZATION ( 'NEURÈENÝ', 'NEURÈENÝ', '' ) ;
#57 = CARTESIAN_POINT ( 'NONE',  ( 0.000000000000000000, 0.000000000000000000, 7.699999999999985079 ) ) ;
#58 = CARTESIAN_POINT ( 'NONE',  ( 0.000000000000000000, 0.000000000000000000, 282.0000000000000000 ) ) ;
#59 = DIRECTION ( 'NONE',  ( 0.000000000000000000, 0.000000000000000000, -1.000000000000000000 ) ) ;
#60 = VERTEX_POINT ( 'NONE', #168 ) ;
#61 = CC_DESIGN_PERSON_AND_ORGANIZATION_ASSIGNMENT ( #68, #273, ( #263 ) ) ;
#62 = AXIS2_PLACEMENT_3D ( 'NONE', #57, #171, #314 ) ;
#63 = CARTESIAN_POINT ( 'NONE',  ( 0.000000000000000000, 0.000000000000000000, 7.699999999999985079 ) ) ;
#64 = ORIENTED_EDGE ( 'NONE', *, *, #352, .T. ) ;
#65 = APPROVAL_ROLE ( '' ) ;
#66 = AXIS2_PLACEMENT_3D ( 'NONE', #112, #367, #364 ) ;
#67 = CC_DESIGN_DATE_AND_TIME_ASSIGNMENT ( #154, #272, ( #40 ) ) ;
#68 = PERSON_AND_ORGANIZATION ( #191, #56 ) ;
#69 = MANIFOLD_SOLID_BREP ( 'Odebrat vysunutím3', #138 ) ;
#70 = ORIENTED_EDGE ( 'NONE', *, *, #308, .T. ) ;
#71 = EDGE_CURVE ( 'NONE', #160, #60, #350, .T. ) ;
#72 = DIRECTION ( 'NONE',  ( -1.000000000000000000, 0.000000000000000000, 0.000000000000000000 ) ) ;
#73 = ORIENTED_EDGE ( 'NONE', *, *, #266, .T. ) ;
#74 = COORDINATED_UNIVERSAL_TIME_OFFSET ( 1, 0, .AHEAD. ) ;
#75 = DIRECTION ( 'NONE',  ( -0.000000000000000000, -0.000000000000000000, -1.000000000000000000 ) ) ;
#76 = AXIS2_PLACEMENT_3D ( 'NONE', #343, #373, #260 ) ;
#77 = CARTESIAN_POINT ( 'NONE',  ( 0.000000000000000000, 0.000000000000000000, 7.000000000000000000 ) ) ;
#78 = CALENDAR_DATE ( 2022, 8, 7 ) ;
#79 = DIRECTION ( 'NONE',  ( -1.000000000000000000, 1.224646799147353454E-16, 0.000000000000000000 ) ) ;
#80 = EDGE_CURVE ( 'NONE', #151, #185, #49, .T. ) ;
#81 = DIRECTION ( 'NONE',  ( 0.000000000000000000, 0.000000000000000000, -1.000000000000000000 ) ) ;
#82 = AXIS2_PLACEMENT_3D ( 'NONE', #101, #213, #209 ) ;
#83 = DIRECTION ( 'NONE',  ( -1.000000000000000000, 0.000000000000000000, 0.000000000000000000 ) ) ;
#84 = ADVANCED_FACE ( 'NONE', ( #338, #311 ), #47, .T. ) ;
#85 = FACE_BOUND ( 'NONE', #142, .T. ) ;
#86 = EDGE_LOOP ( 'NONE', ( #327, #93 ) ) ;
#87 = AXIS2_PLACEMENT_3D ( 'NONE', #199, #81, #54 ) ;
#88 = PLANE ( 'NONE',  #375 ) ;
#89 = ORIENTED_EDGE ( 'NONE', *, *, #13, .T. ) ;
#90 = VECTOR ( 'NONE', #320, 1000.000000000000000 ) ;
#91 = LINE ( 'NONE', #317, #170 ) ;
#92 = DIRECTION ( 'NONE',  ( 0.000000000000000000, 0.000000000000000000, 1.000000000000000000 ) ) ;
#93 = ORIENTED_EDGE ( 'NONE', *, *, #110, .F. ) ;
#94 = CC_DESIGN_PERSON_AND_ORGANIZATION_ASSIGNMENT ( #41, #180, ( #40 ) ) ;
#95 = ORIENTED_EDGE ( 'NONE', *, *, #235, .T. ) ;
#96 = APPROVAL_PERSON_ORGANIZATION ( #253, #335, #331 ) ;
#97 = COORDINATED_UNIVERSAL_TIME_OFFSET ( 1, 0, .AHEAD. ) ;
#98 = EDGE_CURVE ( 'NONE', #318, #160, #337, .T. ) ;
#99 = DATE_AND_TIME ( #183, #33 ) ;
#100 = AXIS2_PLACEMENT_3D ( 'NONE', #222, #252, #165 ) ;
#101 = CARTESIAN_POINT ( 'NONE',  ( 0.000000000000000000, 0.000000000000000000, 7.000000000000000000 ) ) ;
#102 = ORIENTED_EDGE ( 'NONE', *, *, #289, .F. ) ;
#103 = CARTESIAN_POINT ( 'NONE',  ( 0.000000000000000000, 0.000000000000000000, 0.000000000000000000 ) ) ;
#104 = EDGE_LOOP ( 'NONE', ( #43, #278, #95, #234 ) ) ;
#105 = ORIENTED_EDGE ( 'NONE', *, *, #240, .F. ) ;
#106 = AXIS2_PLACEMENT_3D ( 'NONE', #313, #137, #136 ) ;
#107 = SECURITY_CLASSIFICATION_LEVEL ( 'unclassified' ) ;
#108 = LINE ( 'NONE', #370, #114 ) ;
#109 = CC_DESIGN_APPROVAL ( #189, ( #40 ) ) ;
#110 = EDGE_CURVE ( 'NONE', #269, #218, #236, .T. ) ;
#111 = PLANE ( 'NONE',  #37 ) ;
#112 = CARTESIAN_POINT ( 'NONE',  ( 0.000000000000000000, 0.000000000000000000, 7.000000000000000000 ) ) ;
#113 = FACE_BOUND ( 'NONE', #86, .T. ) ;
#114 = VECTOR ( 'NONE', #286, 1000.000000000000000 ) ;
#115 = DIRECTION ( 'NONE',  ( -0.000000000000000000, -0.000000000000000000, -1.000000000000000000 ) ) ;
#116 = DIRECTION ( 'NONE',  ( -1.000000000000000000, 0.000000000000000000, 0.000000000000000000 ) ) ;
#117 = ORIENTED_EDGE ( 'NONE', *, *, #7, .T. ) ;
#118 = DIRECTION ( 'NONE',  ( 0.000000000000000000, 0.000000000000000000, 1.000000000000000000 ) ) ;
#119 = CARTESIAN_POINT ( 'NONE',  ( -6.700000000000001066, 8.205133554287267548E-16, 6.999999999999992006 ) ) ;
#120 = EDGE_CURVE ( 'NONE', #305, #60, #288, .T. ) ;
#121 = EDGE_LOOP ( 'NONE', ( #360, #73, #205, #173 ) ) ;
#122 = DIRECTION ( 'NONE',  ( 1.000000000000000000, 0.000000000000000000, 0.000000000000000000 ) ) ;
#123 = ORIENTED_EDGE ( 'NONE', *, *, #110, .T. ) ;
#124 = CARTESIAN_POINT ( 'NONE',  ( 0.000000000000000000, 0.000000000000000000, 0.000000000000000000 ) ) ;
#125 = CC_DESIGN_PERSON_AND_ORGANIZATION_ASSIGNMENT ( #193, #46, ( #316 ) ) ;
#126 = CIRCLE ( 'NONE', #182, 10.00000000000000000 ) ;
#127 = APPROVAL_STATUS ( 'not_yet_approved' ) ;
#128 = APPLICATION_PROTOCOL_DEFINITION ( 'international standard', 'config_control_design', 1994, #332 ) ;
#129 = EDGE_LOOP ( 'NONE', ( #102, #219, #132, #376 ) ) ;
#130 = EDGE_LOOP ( 'NONE', ( #214, #208, #34, #12 ) ) ;
#131 = SHAPE_DEFINITION_REPRESENTATION ( #241, #233 ) ;
#132 = ORIENTED_EDGE ( 'NONE', *, *, #13, .F. ) ;
#133 = DIRECTION ( 'NONE',  ( -0.000000000000000000, -0.000000000000000000, -1.000000000000000000 ) ) ;
#134 = FACE_OUTER_BOUND ( 'NONE', #121, .T. ) ;
#135 = CIRCLE ( 'NONE', #76, 4.000000000000000000 ) ;
#136 = DIRECTION ( 'NONE',  ( 1.000000000000000000, 0.000000000000000000, 0.000000000000000000 ) ) ;
#137 = DIRECTION ( 'NONE',  ( 0.000000000000000000, 0.000000000000000000, 1.000000000000000000 ) ) ;
#138 = CLOSED_SHELL ( 'NONE', ( #372, #300, #198, #42, #294, #84, #27, #226, #254, #312, #51 ) ) ;
#139 = DIRECTION ( 'NONE',  ( 1.000000000000000000, 0.000000000000000000, 0.000000000000000000 ) ) ;
#140 = CIRCLE ( 'NONE', #10, 6.000000000000000888 ) ;
#141 = CARTESIAN_POINT ( 'NONE',  ( 0.000000000000000000, 0.000000000000000000, 7.000000000000000000 ) ) ;
#142 = EDGE_LOOP ( 'NONE', ( #2, #105 ) ) ;
#143 = DIRECTION ( 'NONE',  ( 0.000000000000000000, 0.000000000000000000, 1.000000000000000000 ) ) ;
#144 = CC_DESIGN_DATE_AND_TIME_ASSIGNMENT ( #161, #220, ( #316 ) ) ;
#145 = DIRECTION ( 'NONE',  ( -0.000000000000000000, -0.000000000000000000, -1.000000000000000000 ) ) ;
#146 = VERTEX_POINT ( 'NONE', #362 ) ;
#147 = DIRECTION ( 'NONE',  ( 1.000000000000000000, 0.000000000000000000, 0.000000000000000000 ) ) ;
#148 = EDGE_LOOP ( 'NONE', ( #361, #117 ) ) ;
#149 = DIRECTION ( 'NONE',  ( -0.000000000000000000, -0.000000000000000000, -1.000000000000000000 ) ) ;
#150 = EDGE_CURVE ( 'NONE', #321, #305, #17, .T. ) ;
#151 = VERTEX_POINT ( 'NONE', #190 ) ;
#152 = DATE_AND_TIME ( #179, #44 ) ;
#153 = TOROIDAL_SURFACE ( 'NONE', #202, 6.700000000000001066, 0.6999999999999999556 ) ;
#154 = DATE_AND_TIME ( #38, #39 ) ;
#155 = DIRECTION ( 'NONE',  ( 1.000000000000000000, 0.000000000000000000, 0.000000000000000000 ) ) ;
#156 = EDGE_CURVE ( 'NONE', #246, #203, #108, .T. ) ;
#157 = EDGE_LOOP ( 'NONE', ( #267, #70, #123, #248 ) ) ;
#158 = PERSON_AND_ORGANIZATION ( #191, #56 ) ;
#159 = CIRCLE ( 'NONE', #82, 10.00000000000000000 ) ;
#160 = VERTEX_POINT ( 'NONE', #257 ) ;
#161 = DATE_AND_TIME ( #78, #197 ) ;
#162 = DIRECTION ( 'NONE',  ( 0.000000000000000000, 0.000000000000000000, 1.000000000000000000 ) ) ;
#163 = CARTESIAN_POINT ( 'NONE',  ( 0.000000000000000000, 0.000000000000000000, 7.000000000000000000 ) ) ;
#164 = AXIS2_PLACEMENT_3D ( 'NONE', #196, #16, #336 ) ;
#165 = DIRECTION ( 'NONE',  ( 1.000000000000000000, 0.000000000000000000, 0.000000000000000000 ) ) ;
#166 = TOROIDAL_SURFACE ( 'NONE', #62, 6.700000000000001066, 0.6999999999999999556 ) ;
#167 = CARTESIAN_POINT ( 'NONE',  ( 0.000000000000000000, 0.000000000000000000, 0.000000000000000000 ) ) ;
#168 = CARTESIAN_POINT ( 'NONE',  ( 6.700000000000001066, 0.000000000000000000, 6.999999999999992006 ) ) ;
#169 = CARTESIAN_POINT ( 'NONE',  ( 0.000000000000000000, 0.000000000000000000, 282.0000000000000000 ) ) ;
#170 = VECTOR ( 'NONE', #149, 1000.000000000000000 ) ;
#171 = DIRECTION ( 'NONE',  ( 0.000000000000000000, 0.000000000000000000, 1.000000000000000000 ) ) ;
#172 = CARTESIAN_POINT ( 'NONE',  ( -10.00000000000000000, 0.000000000000000000, 0.000000000000000000 ) ) ;
#173 = ORIENTED_EDGE ( 'NONE', *, *, #156, .F. ) ;
#174 = DIRECTION ( 'NONE',  ( 1.000000000000000000, 0.000000000000000000, 0.000000000000000000 ) ) ;
#175 = EDGE_LOOP ( 'NONE', ( #244, #351, #303, #36 ) ) ;
#176 = CIRCLE ( 'NONE', #188, 4.000000000000000000 ) ;
#177 = DIRECTION ( 'NONE',  ( 0.000000000000000000, 0.000000000000000000, 1.000000000000000000 ) ) ;
#178 = EDGE_LOOP ( 'NONE', ( #264, #298, #64, #379 ) ) ;
#179 = CALENDAR_DATE ( 2022, 8, 7 ) ;
#180 = PERSON_AND_ORGANIZATION_ROLE ( 'creator' ) ;
#181 = AXIS2_PLACEMENT_3D ( 'NONE', #310, #307, #79 ) ;
#182 = AXIS2_PLACEMENT_3D ( 'NONE', #377, #302, #329 ) ;
#183 = CALENDAR_DATE ( 2022, 8, 7 ) ;
#184 = EDGE_CURVE ( 'NONE', #203, #216, #245, .T. ) ;
#185 = VERTEX_POINT ( 'NONE', #223 ) ;
#186 = APPLICATION_PROTOCOL_DEFINITION ( 'international standard', 'config_control_design', 1994, #6 ) ;
#187 = VERTEX_POINT ( 'NONE', #50 ) ;
#188 = AXIS2_PLACEMENT_3D ( 'NONE', #124, #371, #122 ) ;
#189 = APPROVAL ( #326, 'NEURÈENÝ' ) ;
#190 = CARTESIAN_POINT ( 'NONE',  ( -4.000000000000000000, 0.000000000000000000, 282.0000000000000000 ) ) ;
#191 = PERSON ( 'NEURÈENÝ', 'NEURÈENÝ', 'NEURÈENÝ', ('NEURÈENÝ'), ('NEURÈENÝ'), ('NEURÈENÝ') ) ;
#192 = FACE_OUTER_BOUND ( 'NONE', #178, .T. ) ;
#193 = PERSON_AND_ORGANIZATION ( #191, #56 ) ;
#194 = CARTESIAN_POINT ( 'NONE',  ( 0.000000000000000000, 0.000000000000000000, 0.000000000000000000 ) ) ;
#195 = APPROVAL_DATE_TIME ( #365, #335 ) ;
#196 = CARTESIAN_POINT ( 'NONE',  ( 6.700000000000001066, 0.000000000000000000, 7.699999999999985079 ) ) ;
#197 = LOCAL_TIME ( 16, 38, 17.00000000000000000, #74 ) ;
#198 = ADVANCED_FACE ( 'NONE', ( #192 ), #284, .T. ) ;
#199 = CARTESIAN_POINT ( 'NONE',  ( 0.000000000000000000, 0.000000000000000000, 282.0000000000000000 ) ) ;
#200 = CARTESIAN_POINT ( 'NONE',  ( -4.000000000000000000, 0.000000000000000000, 282.0000000000000000 ) ) ;
#201 = DIRECTION ( 'NONE',  ( -0.000000000000000000, -0.000000000000000000, -1.000000000000000000 ) ) ;
#202 = AXIS2_PLACEMENT_3D ( 'NONE', #55, #143, #174 ) ;
#203 = VERTEX_POINT ( 'NONE', #172 ) ;
#204 = LINE ( 'NONE', #232, #276 ) ;
#205 = ORIENTED_EDGE ( 'NONE', *, *, #319, .T. ) ;
#206 = AXIS2_PLACEMENT_3D ( 'NONE', #163, #225, #83 ) ;
#207 = CARTESIAN_POINT ( 'NONE',  ( 4.000000000000000000, 4.898587196589412829E-16, 0.000000000000000000 ) ) ;
#208 = ORIENTED_EDGE ( 'NONE', *, *, #217, .F. ) ;
#209 = DIRECTION ( 'NONE',  ( 1.000000000000000000, 0.000000000000000000, 0.000000000000000000 ) ) ;
#210 = PERSON_AND_ORGANIZATION ( #191, #56 ) ;
#211 = APPROVAL_DATE_TIME ( #99, #22 ) ;
#212 = AXIS2_PLACEMENT_3D ( 'NONE', #141, #201, #116 ) ;
#213 = DIRECTION ( 'NONE',  ( 0.000000000000000000, 0.000000000000000000, 1.000000000000000000 ) ) ;
#214 = ORIENTED_EDGE ( 'NONE', *, *, #98, .F. ) ;
#215 = DIRECTION ( 'NONE',  ( 0.000000000000000000, 0.000000000000000000, 1.000000000000000000 ) ) ;
#216 = VERTEX_POINT ( 'NONE', #32 ) ;
#217 = EDGE_CURVE ( 'NONE', #146, #318, #140, .T. ) ;
#218 = VERTEX_POINT ( 'NONE', #231 ) ;
#219 = ORIENTED_EDGE ( 'NONE', *, *, #150, .T. ) ;
#220 = DATE_TIME_ROLE ( 'classification_date' ) ;
#221 = CYLINDRICAL_SURFACE ( 'NONE', #206, 10.00000000000000000 ) ;
#222 = CARTESIAN_POINT ( 'NONE',  ( 0.000000000000000000, 0.000000000000000000, 282.0000000000000000 ) ) ;
#223 = CARTESIAN_POINT ( 'NONE',  ( 4.000000000000000000, 4.898587196589412829E-16, 282.0000000000000000 ) ) ;
#224 = VECTOR ( 'NONE', #145, 1000.000000000000000 ) ;
#225 = DIRECTION ( 'NONE',  ( -0.000000000000000000, -0.000000000000000000, -1.000000000000000000 ) ) ;
#226 = ADVANCED_FACE ( 'NONE', ( #265 ), #342, .T. ) ;
#227 = LINE ( 'NONE', #200, #90 ) ;
#228 = ORIENTED_EDGE ( 'NONE', *, *, #184, .F. ) ;
#229 = CYLINDRICAL_SURFACE ( 'NONE', #212, 10.00000000000000000 ) ;
#230 = CC_DESIGN_SECURITY_CLASSIFICATION ( #316, ( #263 ) ) ;
#231 = CARTESIAN_POINT ( 'NONE',  ( -4.000000000000000000, 0.000000000000000000, 0.000000000000000000 ) ) ;
#232 = CARTESIAN_POINT ( 'NONE',  ( 4.000000000000000000, 4.898587196589412829E-16, 282.0000000000000000 ) ) ;
#233 = ADVANCED_BREP_SHAPE_REPRESENTATION ( '3988', ( #69, #18 ), #31 ) ;
#234 = ORIENTED_EDGE ( 'NONE', *, *, #259, .T. ) ;
#235 = EDGE_CURVE ( 'NONE', #151, #218, #227, .T. ) ;
#236 = CIRCLE ( 'NONE', #242, 4.000000000000000000 ) ;
#237 = AXIS2_PLACEMENT_3D ( 'NONE', #194, #162, #23 ) ;
#238 = CARTESIAN_POINT ( 'NONE',  ( 0.000000000000000000, 0.000000000000000000, 7.699999999999985079 ) ) ;
#239 = APPROVAL_ROLE ( '' ) ;
#240 = EDGE_CURVE ( 'NONE', #185, #151, #135, .T. ) ;
#241 = PRODUCT_DEFINITION_SHAPE ( 'NONE', 'NONE',  #40 ) ;
#242 = AXIS2_PLACEMENT_3D ( 'NONE', #282, #75, #139 ) ;
#243 = DIRECTION ( 'NONE',  ( 1.000000000000000000, 0.000000000000000000, 0.000000000000000000 ) ) ;
#244 = ORIENTED_EDGE ( 'NONE', *, *, #266, .F. ) ;
#245 = CIRCLE ( 'NONE', #237, 10.00000000000000000 ) ;
#246 = VERTEX_POINT ( 'NONE', #262 ) ;
#247 = CC_DESIGN_PERSON_AND_ORGANIZATION_ASSIGNMENT ( #21, #52, ( #263 ) ) ;
#248 = ORIENTED_EDGE ( 'NONE', *, *, #235, .F. ) ;
#249 = CALENDAR_DATE ( 2022, 8, 7 ) ;
#250 = DIRECTION ( 'NONE',  ( 1.000000000000000000, 0.000000000000000000, -0.000000000000000000 ) ) ;
#251 = CC_DESIGN_APPROVAL ( #335, ( #316 ) ) ;
#252 = DIRECTION ( 'NONE',  ( 0.000000000000000000, 0.000000000000000000, 1.000000000000000000 ) ) ;
#253 = PERSON_AND_ORGANIZATION ( #191, #56 ) ;
#254 = ADVANCED_FACE ( 'NONE', ( #85, #380 ), #88, .T. ) ;
#255 = FACE_OUTER_BOUND ( 'NONE', #104, .T. ) ;
#256 = CARTESIAN_POINT ( 'NONE',  ( 0.000000000000000000, 0.000000000000000000, 7.000000000000000000 ) ) ;
#257 = CARTESIAN_POINT ( 'NONE',  ( 6.000000000000000888, 7.347880794884120722E-16, 7.699999999999985079 ) ) ;
#258 = CC_DESIGN_APPROVAL ( #22, ( #263 ) ) ;
#259 = EDGE_CURVE ( 'NONE', #218, #269, #176, .T. ) ;
#260 = DIRECTION ( 'NONE',  ( 1.000000000000000000, 0.000000000000000000, 0.000000000000000000 ) ) ;
#261 = CARTESIAN_POINT ( 'NONE',  ( 6.000000000000000888, 7.347880794884120722E-16, 282.0000000000000000 ) ) ;
#262 = CARTESIAN_POINT ( 'NONE',  ( -10.00000000000000000, 0.000000000000000000, 7.000000000000000000 ) ) ;
#263 = PRODUCT_DEFINITION_FORMATION_WITH_SPECIFIED_SOURCE ( 'LIBOVOLNÝ', '', #45, .NOT_KNOWN. ) ;
#264 = ORIENTED_EDGE ( 'NONE', *, *, #7, .F. ) ;
#265 = FACE_OUTER_BOUND ( 'NONE', #130, .T. ) ;
#266 = EDGE_CURVE ( 'NONE', #187, #216, #297, .T. ) ;
#267 = ORIENTED_EDGE ( 'NONE', *, *, #80, .T. ) ;
#268 = CARTESIAN_POINT ( 'NONE',  ( 0.000000000000000000, 0.000000000000000000, 282.0000000000000000 ) ) ;
#269 = VERTEX_POINT ( 'NONE', #207 ) ;
#270 = APPROVAL_DATE_TIME ( #152, #189 ) ;
#271 = APPROVAL_PERSON_ORGANIZATION ( #210, #189, #65 ) ;
#272 = DATE_TIME_ROLE ( 'creation_date' ) ;
#273 = PERSON_AND_ORGANIZATION_ROLE ( 'creator' ) ;
#274 = VECTOR ( 'NONE', #14, 1000.000000000000000 ) ;
#275 = EDGE_LOOP ( 'NONE', ( #285, #293, #344, #296 ) ) ;
#276 = VECTOR ( 'NONE', #59, 1000.000000000000000 ) ;
#277 = DIRECTION ( 'NONE',  ( 0.000000000000000000, 0.000000000000000000, -1.000000000000000000 ) ) ;
#278 = ORIENTED_EDGE ( 'NONE', *, *, #240, .T. ) ;
#279 = DIRECTION ( 'NONE',  ( 0.000000000000000000, 0.000000000000000000, 1.000000000000000000 ) ) ;
#280 = COORDINATED_UNIVERSAL_TIME_OFFSET ( 1, 0, .AHEAD. ) ;
#281 = AXIS2_PLACEMENT_3D ( 'NONE', #256, #287, #250 ) ;
#282 = CARTESIAN_POINT ( 'NONE',  ( 0.000000000000000000, 0.000000000000000000, 0.000000000000000000 ) ) ;
#283 = LOCAL_TIME ( 16, 38, 17.00000000000000000, #280 ) ;
#284 = CYLINDRICAL_SURFACE ( 'NONE', #25, 6.000000000000000888 ) ;
#285 = ORIENTED_EDGE ( 'NONE', *, *, #150, .F. ) ;
#286 = DIRECTION ( 'NONE',  ( -0.000000000000000000, -0.000000000000000000, -1.000000000000000000 ) ) ;
#287 = DIRECTION ( 'NONE',  ( 0.000000000000000000, 0.000000000000000000, 1.000000000000000000 ) ) ;
#288 = CIRCLE ( 'NONE', #1, 6.700000000000001066 ) ;
#289 = EDGE_CURVE ( 'NONE', #321, #160, #291, .T. ) ;
#290 = DIRECTION ( 'NONE',  ( 1.000000000000000000, 0.000000000000000000, 0.000000000000000000 ) ) ;
#291 = CIRCLE ( 'NONE', #346, 6.000000000000000888 ) ;
#292 = FACE_OUTER_BOUND ( 'NONE', #275, .T. ) ;
#293 = ORIENTED_EDGE ( 'NONE', *, *, #352, .F. ) ;
#294 = ADVANCED_FACE ( 'NONE', ( #374 ), #229, .T. ) ;
#295 = CARTESIAN_POINT ( 'NONE',  ( 10.00000000000000000, 1.224646799147353256E-15, 7.000000000000000000 ) ) ;
#296 = ORIENTED_EDGE ( 'NONE', *, *, #120, .F. ) ;
#297 = LINE ( 'NONE', #295, #224 ) ;
#298 = ORIENTED_EDGE ( 'NONE', *, *, #98, .T. ) ;
#299 = CARTESIAN_POINT ( 'NONE',  ( 0.000000000000000000, 0.000000000000000000, 282.0000000000000000 ) ) ;
#300 = ADVANCED_FACE ( 'NONE', ( #322 ), #166, .F. ) ;
#301 = COORDINATED_UNIVERSAL_TIME_OFFSET ( 1, 0, .AHEAD. ) ;
#302 = DIRECTION ( 'NONE',  ( 0.000000000000000000, 0.000000000000000000, 1.000000000000000000 ) ) ;
#303 = ORIENTED_EDGE ( 'NONE', *, *, #156, .T. ) ;
#304 =( LENGTH_UNIT ( ) NAMED_UNIT ( * ) SI_UNIT ( .MILLI., .METRE. ) );
#305 = VERTEX_POINT ( 'NONE', #119 ) ;
#306 = DIRECTION ( 'NONE',  ( 1.000000000000000000, 0.000000000000000000, -0.000000000000000000 ) ) ;
#307 = DIRECTION ( 'NONE',  ( 1.224646799147353207E-16, 1.000000000000000000, -0.000000000000000000 ) ) ;
#308 = EDGE_CURVE ( 'NONE', #185, #269, #204, .T. ) ;
#309 = APPROVAL_STATUS ( 'not_yet_approved' ) ;
#310 = CARTESIAN_POINT ( 'NONE',  ( -6.700000000000001066, 8.205133554287267548E-16, 7.699999999999985079 ) ) ;
#311 = FACE_OUTER_BOUND ( 'NONE', #324, .T. ) ;
#312 = ADVANCED_FACE ( 'NONE', ( #292 ), #153, .F. ) ;
#313 = CARTESIAN_POINT ( 'NONE',  ( 0.000000000000000000, 0.000000000000000000, 282.0000000000000000 ) ) ;
#314 = DIRECTION ( 'NONE',  ( 1.000000000000000000, 0.000000000000000000, 0.000000000000000000 ) ) ;
#315 = CIRCLE ( 'NONE', #66, 6.700000000000001066 ) ;
#316 = SECURITY_CLASSIFICATION ( '', '', #107 ) ;
#317 = CARTESIAN_POINT ( 'NONE',  ( -6.000000000000000888, 0.000000000000000000, 282.0000000000000000 ) ) ;
#318 = VERTEX_POINT ( 'NONE', #261 ) ;
#319 = EDGE_CURVE ( 'NONE', #216, #203, #363, .T. ) ;
#320 = DIRECTION ( 'NONE',  ( 0.000000000000000000, 0.000000000000000000, -1.000000000000000000 ) ) ;
#321 = VERTEX_POINT ( 'NONE', #349 ) ;
#322 = FACE_OUTER_BOUND ( 'NONE', #129, .T. ) ;
#323 = AXIS2_PLACEMENT_3D ( 'NONE', #35, #345, #147 ) ;
#324 = EDGE_LOOP ( 'NONE', ( #348, #330 ) ) ;
#325 = FACE_OUTER_BOUND ( 'NONE', #157, .T. ) ;
#326 = APPROVAL_STATUS ( 'not_yet_approved' ) ;
#327 = ORIENTED_EDGE ( 'NONE', *, *, #259, .F. ) ;
#328 = EDGE_CURVE ( 'NONE', #146, #321, #91, .T. ) ;
#329 = DIRECTION ( 'NONE',  ( 1.000000000000000000, 0.000000000000000000, 0.000000000000000000 ) ) ;
#330 = ORIENTED_EDGE ( 'NONE', *, *, #341, .T. ) ;
#331 = APPROVAL_ROLE ( '' ) ;
#332 = APPLICATION_CONTEXT ( 'configuration controlled 3d designs of mechanical parts and assemblies' ) ;
#333 = EDGE_LOOP ( 'NONE', ( #89, #9 ) ) ;
#334 = AXIS2_PLACEMENT_3D ( 'NONE', #238, #356, #243 ) ;
#335 = APPROVAL ( #309, 'NEURÈENÝ' ) ;
#336 = DIRECTION ( 'NONE',  ( 0.000000000000000000, 0.000000000000000000, -1.000000000000000000 ) ) ;
#337 = LINE ( 'NONE', #24, #274 ) ;
#338 = FACE_BOUND ( 'NONE', #333, .T. ) ;
#339 = AXIS2_PLACEMENT_3D ( 'NONE', #268, #26, #29 ) ;
#340 = DIRECTION ( 'NONE',  ( -1.000000000000000000, 0.000000000000000000, 0.000000000000000000 ) ) ;
#341 = EDGE_CURVE ( 'NONE', #187, #246, #126, .T. ) ;
#342 = CYLINDRICAL_SURFACE ( 'NONE', #339, 6.000000000000000888 ) ;
#343 = CARTESIAN_POINT ( 'NONE',  ( 0.000000000000000000, 0.000000000000000000, 282.0000000000000000 ) ) ;
#344 = ORIENTED_EDGE ( 'NONE', *, *, #71, .T. ) ;
#345 = DIRECTION ( 'NONE',  ( 0.000000000000000000, 0.000000000000000000, 1.000000000000000000 ) ) ;
#346 = AXIS2_PLACEMENT_3D ( 'NONE', #63, #177, #28 ) ;
#347 = DIRECTION ( 'NONE',  ( 1.000000000000000000, 0.000000000000000000, -0.000000000000000000 ) ) ;
#348 = ORIENTED_EDGE ( 'NONE', *, *, #378, .T. ) ;
#349 = CARTESIAN_POINT ( 'NONE',  ( -6.000000000000000888, 0.000000000000000000, 7.699999999999985079 ) ) ;
#350 = CIRCLE ( 'NONE', #164, 0.7000000000000000666 ) ;
#351 = ORIENTED_EDGE ( 'NONE', *, *, #378, .F. ) ;
#352 = EDGE_CURVE ( 'NONE', #160, #321, #369, .T. ) ;
#353 = PERSON_AND_ORGANIZATION_ROLE ( 'design_owner' ) ;
#354 = MECHANICAL_CONTEXT ( 'NONE', #6, 'mechanical' ) ;
#355 = COORDINATED_UNIVERSAL_TIME_OFFSET ( 1, 0, .AHEAD. ) ;
#356 = DIRECTION ( 'NONE',  ( 0.000000000000000000, 0.000000000000000000, 1.000000000000000000 ) ) ;
#357 = ORIENTED_EDGE ( 'NONE', *, *, #319, .F. ) ;
#358 = CC_DESIGN_PERSON_AND_ORGANIZATION_ASSIGNMENT ( #158, #353, ( #45 ) ) ;
#359 = APPROVAL_PERSON_ORGANIZATION ( #4, #22, #239 ) ;
#360 = ORIENTED_EDGE ( 'NONE', *, *, #341, .F. ) ;
#361 = ORIENTED_EDGE ( 'NONE', *, *, #217, .T. ) ;
#362 = CARTESIAN_POINT ( 'NONE',  ( -6.000000000000000888, 0.000000000000000000, 282.0000000000000000 ) ) ;
#363 = CIRCLE ( 'NONE', #323, 10.00000000000000000 ) ;
#364 = DIRECTION ( 'NONE',  ( 1.000000000000000000, 0.000000000000000000, 0.000000000000000000 ) ) ;
#365 = DATE_AND_TIME ( #249, #283 ) ;
#366 = CYLINDRICAL_SURFACE ( 'NONE', #87, 4.000000000000000000 ) ;
#367 = DIRECTION ( 'NONE',  ( -0.000000000000000000, -0.000000000000000000, -1.000000000000000000 ) ) ;
#368 = PRODUCT_RELATED_PRODUCT_CATEGORY ( 'detail', '', ( #45 ) ) ;
#369 = CIRCLE ( 'NONE', #334, 6.000000000000000888 ) ;
#370 = CARTESIAN_POINT ( 'NONE',  ( -10.00000000000000000, 0.000000000000000000, 7.000000000000000000 ) ) ;
#371 = DIRECTION ( 'NONE',  ( -0.000000000000000000, -0.000000000000000000, -1.000000000000000000 ) ) ;
#372 = ADVANCED_FACE ( 'NONE', ( #325 ), #8, .F. ) ;
#373 = DIRECTION ( 'NONE',  ( 0.000000000000000000, 0.000000000000000000, 1.000000000000000000 ) ) ;
#374 = FACE_OUTER_BOUND ( 'NONE', #175, .T. ) ;
#375 = AXIS2_PLACEMENT_3D ( 'NONE', #169, #92, #347 ) ;
#376 = ORIENTED_EDGE ( 'NONE', *, *, #71, .F. ) ;
#377 = CARTESIAN_POINT ( 'NONE',  ( 0.000000000000000000, 0.000000000000000000, 7.000000000000000000 ) ) ;
#378 = EDGE_CURVE ( 'NONE', #246, #187, #159, .T. ) ;
#379 = ORIENTED_EDGE ( 'NONE', *, *, #328, .F. ) ;
#380 = FACE_OUTER_BOUND ( 'NONE', #148, .T. ) ;
#381 = CIRCLE ( 'NONE', #106, 6.000000000000000888 ) ;
ENDSEC;
END-ISO-10303-21;
