ISO-10303-21;
HEADER;
FILE_DESCRIPTION (( 'STEP AP203' ),
    '1' );
FILE_NAME ('26c4.STEP',
    '2022-07-08T15:40:04',
    ( '' ),
    ( '' ),
    'SwSTEP 2.0',
    'SolidWorks 2019',
    '' );
FILE_SCHEMA (( 'CONFIG_CONTROL_DESIGN' ));
ENDSEC;

DATA;
#1 = PERSON_AND_ORGANIZATION ( #197, #240 ) ;
#2 = MANIFOLD_SOLID_BREP ( 'Odebrat vysunutím3', #244 ) ;
#3 = VECTOR ( 'NONE', #138, 1000.000000000000000 ) ;
#4 = COORDINATED_UNIVERSAL_TIME_OFFSET ( 1, 0, .AHEAD. ) ;
#5 = AXIS2_PLACEMENT_3D ( 'NONE', #115, #84, #233 ) ;
#6 = VERTEX_POINT ( 'NONE', #180 ) ;
#7 = AXIS2_PLACEMENT_3D ( 'NONE', #10, #323, #62 ) ;
#8 = CALENDAR_DATE ( 2022, 8, 7 ) ;
#9 = EDGE_LOOP ( 'NONE', ( #45, #363 ) ) ;
#10 = CARTESIAN_POINT ( 'NONE',  ( 0.000000000000000000, 0.000000000000000000, 105.0000000000000142 ) ) ;
#11 = DATE_AND_TIME ( #191, #157 ) ;
#12 = ORIENTED_EDGE ( 'NONE', *, *, #28, .F. ) ;
#13 = ORIENTED_EDGE ( 'NONE', *, *, #296, .T. ) ;
#14 = AXIS2_PLACEMENT_3D ( 'NONE', #67, #85, #210 ) ;
#15 = ORIENTED_EDGE ( 'NONE', *, *, #242, .T. ) ;
#16 = CARTESIAN_POINT ( 'NONE',  ( 0.000000000000000000, 0.000000000000000000, 0.000000000000000000 ) ) ;
#17 = UNCERTAINTY_MEASURE_WITH_UNIT (LENGTH_MEASURE( 1.000000000000000082E-05 ), #59, 'distance_accuracy_value', 'NONE');
#18 = ORIENTED_EDGE ( 'NONE', *, *, #310, .F. ) ;
#19 = DIRECTION ( 'NONE',  ( -0.000000000000000000, -0.000000000000000000, -1.000000000000000000 ) ) ;
#20 = VECTOR ( 'NONE', #19, 1000.000000000000000 ) ;
#21 = ORIENTED_EDGE ( 'NONE', *, *, #316, .T. ) ;
#22 = PRODUCT_DEFINITION_FORMATION_WITH_SPECIFIED_SOURCE ( 'LIBOVOLNÝ', '', #278, .NOT_KNOWN. ) ;
#23 = DIRECTION ( 'NONE',  ( 1.000000000000000000, 0.000000000000000000, 0.000000000000000000 ) ) ;
#24 = EDGE_CURVE ( 'NONE', #6, #304, #90, .T. ) ;
#25 = CARTESIAN_POINT ( 'NONE',  ( 0.000000000000000000, 0.000000000000000000, 5.500000000000005329 ) ) ;
#26 = CARTESIAN_POINT ( 'NONE',  ( 0.000000000000000000, 0.000000000000000000, 5.000000000000000000 ) ) ;
#27 = CIRCLE ( 'NONE', #294, 6.000000000000000888 ) ;
#28 = EDGE_CURVE ( 'NONE', #335, #330, #144, .T. ) ;
#29 = CARTESIAN_POINT ( 'NONE',  ( 6.000000000000000888, 7.347880794884120722E-16, 5.000000000000000000 ) ) ;
#30 = DIRECTION ( 'NONE',  ( -0.000000000000000000, -0.000000000000000000, -1.000000000000000000 ) ) ;
#31 = DIRECTION ( 'NONE',  ( -1.000000000000000000, 0.000000000000000000, 0.000000000000000000 ) ) ;
#32 = DIRECTION ( 'NONE',  ( -0.000000000000000000, -0.000000000000000000, -1.000000000000000000 ) ) ;
#33 = PERSON_AND_ORGANIZATION ( #197, #240 ) ;
#34 = ORIENTED_EDGE ( 'NONE', *, *, #364, .F. ) ;
#35 = EDGE_CURVE ( 'NONE', #164, #319, #185, .T. ) ;
#36 = CALENDAR_DATE ( 2022, 8, 7 ) ;
#37 = DIRECTION ( 'NONE',  ( -0.000000000000000000, -0.000000000000000000, -1.000000000000000000 ) ) ;
#38 = DIRECTION ( 'NONE',  ( 1.000000000000000000, 0.000000000000000000, 0.000000000000000000 ) ) ;
#39 = EDGE_CURVE ( 'NONE', #330, #335, #267, .T. ) ;
#40 = ORIENTED_EDGE ( 'NONE', *, *, #39, .F. ) ;
#41 = DIRECTION ( 'NONE',  ( 1.000000000000000000, 0.000000000000000000, 0.000000000000000000 ) ) ;
#42 = APPROVAL_PERSON_ORGANIZATION ( #33, #334, #57 ) ;
#43 = EDGE_LOOP ( 'NONE', ( #34, #366, #150, #134 ) ) ;
#44 = FACE_OUTER_BOUND ( 'NONE', #282, .T. ) ;
#45 = ORIENTED_EDGE ( 'NONE', *, *, #55, .F. ) ;
#46 = DIRECTION ( 'NONE',  ( 0.000000000000000000, 0.000000000000000000, 1.000000000000000000 ) ) ;
#47 = ORIENTED_EDGE ( 'NONE', *, *, #117, .F. ) ;
#48 = APPROVAL_PERSON_ORGANIZATION ( #205, #88, #277 ) ;
#49 = DIRECTION ( 'NONE',  ( 1.000000000000000000, 0.000000000000000000, -0.000000000000000000 ) ) ;
#50 = EDGE_CURVE ( 'NONE', #6, #156, #202, .T. ) ;
#51 = FACE_BOUND ( 'NONE', #362, .T. ) ;
#52 = AXIS2_PLACEMENT_3D ( 'NONE', #26, #262, #113 ) ;
#53 = CARTESIAN_POINT ( 'NONE',  ( 1.750000000000000000, 2.143131898507868297E-16, 105.0000000000000142 ) ) ;
#54 = CARTESIAN_POINT ( 'NONE',  ( 0.000000000000000000, 0.000000000000000000, 105.0000000000000142 ) ) ;
#55 = EDGE_CURVE ( 'NONE', #319, #178, #227, .T. ) ;
#56 = CARTESIAN_POINT ( 'NONE',  ( 0.000000000000000000, 0.000000000000000000, 0.000000000000000000 ) ) ;
#57 = APPROVAL_ROLE ( '' ) ;
#58 = DIRECTION ( 'NONE',  ( 0.000000000000000000, 0.000000000000000000, -1.000000000000000000 ) ) ;
#59 =( LENGTH_UNIT ( ) NAMED_UNIT ( * ) SI_UNIT ( .MILLI., .METRE. ) );
#60 = ADVANCED_FACE ( 'NONE', ( #213 ), #325, .T. ) ;
#61 = DATE_AND_TIME ( #177, #273 ) ;
#62 = DIRECTION ( 'NONE',  ( 1.000000000000000000, 0.000000000000000000, 0.000000000000000000 ) ) ;
#63 = ADVANCED_BREP_SHAPE_REPRESENTATION ( '26c4', ( #2, #289 ), #152 ) ;
#64 = CARTESIAN_POINT ( 'NONE',  ( 0.000000000000000000, 0.000000000000000000, 0.000000000000000000 ) ) ;
#65 = ORIENTED_EDGE ( 'NONE', *, *, #127, .F. ) ;
#66 = DIRECTION ( 'NONE',  ( 1.000000000000000000, 0.000000000000000000, 0.000000000000000000 ) ) ;
#67 = CARTESIAN_POINT ( 'NONE',  ( 3.500000000000000444, 0.000000000000000000, 5.500000000000005329 ) ) ;
#68 = EDGE_LOOP ( 'NONE', ( #21, #123 ) ) ;
#69 = LINE ( 'NONE', #253, #20 ) ;
#70 = ORIENTED_EDGE ( 'NONE', *, *, #24, .F. ) ;
#71 = SHAPE_DEFINITION_REPRESENTATION ( #349, #63 ) ;
#72 = CARTESIAN_POINT ( 'NONE',  ( 6.000000000000000888, 7.347880794884120722E-16, 0.000000000000000000 ) ) ;
#73 = ORIENTED_EDGE ( 'NONE', *, *, #172, .F. ) ;
#74 = DIRECTION ( 'NONE',  ( 1.000000000000000000, 0.000000000000000000, 0.000000000000000000 ) ) ;
#75 = ORIENTED_EDGE ( 'NONE', *, *, #232, .F. ) ;
#76 = ADVANCED_FACE ( 'NONE', ( #155 ), #154, .F. ) ;
#77 = APPROVAL_DATE_TIME ( #11, #257 ) ;
#78 = CARTESIAN_POINT ( 'NONE',  ( 0.000000000000000000, 0.000000000000000000, 5.500000000000005329 ) ) ;
#79 = DIRECTION ( 'NONE',  ( 0.000000000000000000, 0.000000000000000000, 1.000000000000000000 ) ) ;
#80 = DIRECTION ( 'NONE',  ( 1.000000000000000000, 0.000000000000000000, 0.000000000000000000 ) ) ;
#81 = CARTESIAN_POINT ( 'NONE',  ( -1.750000000000000000, 0.000000000000000000, 0.000000000000000000 ) ) ;
#82 = CARTESIAN_POINT ( 'NONE',  ( -6.000000000000000888, 0.000000000000000000, 0.000000000000000000 ) ) ;
#83 = DIRECTION ( 'NONE',  ( 1.224646799147353207E-16, 1.000000000000000000, -0.000000000000000000 ) ) ;
#84 = DIRECTION ( 'NONE',  ( 0.000000000000000000, 0.000000000000000000, -1.000000000000000000 ) ) ;
#85 = DIRECTION ( 'NONE',  ( 0.000000000000000000, -1.000000000000000000, 0.000000000000000000 ) ) ;
#86 = CC_DESIGN_SECURITY_CLASSIFICATION ( #147, ( #22 ) ) ;
#87 = PERSON_AND_ORGANIZATION ( #197, #240 ) ;
#88 = APPROVAL ( #351, 'NEURÈENÝ' ) ;
#89 = DIRECTION ( 'NONE',  ( 0.000000000000000000, 0.000000000000000000, 1.000000000000000000 ) ) ;
#90 = CIRCLE ( 'NONE', #14, 0.5000000000000004441 ) ;
#91 = PERSON_AND_ORGANIZATION ( #197, #240 ) ;
#92 = ORIENTED_EDGE ( 'NONE', *, *, #316, .F. ) ;
#93 = DATE_AND_TIME ( #8, #336 ) ;
#94 = DIRECTION ( 'NONE',  ( 1.000000000000000000, 0.000000000000000000, 0.000000000000000000 ) ) ;
#95 = DIRECTION ( 'NONE',  ( 0.000000000000000000, 0.000000000000000000, 1.000000000000000000 ) ) ;
#96 = CC_DESIGN_PERSON_AND_ORGANIZATION_ASSIGNMENT ( #87, #208, ( #147 ) ) ;
#97 = CARTESIAN_POINT ( 'NONE',  ( -1.750000000000000000, 0.000000000000000000, 105.0000000000000142 ) ) ;
#98 = ORIENTED_EDGE ( 'NONE', *, *, #28, .T. ) ;
#99 = DIRECTION ( 'NONE',  ( 1.000000000000000000, 0.000000000000000000, 0.000000000000000000 ) ) ;
#100 = APPLICATION_CONTEXT ( 'configuration controlled 3d designs of mechanical parts and assemblies' ) ;
#101 = ORIENTED_EDGE ( 'NONE', *, *, #296, .F. ) ;
#102 = CARTESIAN_POINT ( 'NONE',  ( 0.000000000000000000, 0.000000000000000000, 105.0000000000000142 ) ) ;
#103 = EDGE_CURVE ( 'NONE', #307, #178, #339, .T. ) ;
#104 = AXIS2_PLACEMENT_3D ( 'NONE', #247, #359, #216 ) ;
#105 = ORIENTED_EDGE ( 'NONE', *, *, #50, .T. ) ;
#106 = DIRECTION ( 'NONE',  ( -1.000000000000000000, 0.000000000000000000, 0.000000000000000000 ) ) ;
#107 = EDGE_CURVE ( 'NONE', #309, #217, #189, .T. ) ;
#108 = DIRECTION ( 'NONE',  ( -1.000000000000000000, 0.000000000000000000, 0.000000000000000000 ) ) ;
#109 = CIRCLE ( 'NONE', #298, 6.000000000000000888 ) ;
#110 = DIRECTION ( 'NONE',  ( -0.000000000000000000, -0.000000000000000000, -1.000000000000000000 ) ) ;
#111 = AXIS2_PLACEMENT_3D ( 'NONE', #246, #89, #94 ) ;
#112 = CYLINDRICAL_SURFACE ( 'NONE', #327, 3.000000000000000444 ) ;
#113 = DIRECTION ( 'NONE',  ( 1.000000000000000000, 0.000000000000000000, 0.000000000000000000 ) ) ;
#114 = TOROIDAL_SURFACE ( 'NONE', #368, 3.500000000000000444, 0.5000000000000000000 ) ;
#115 = CARTESIAN_POINT ( 'NONE',  ( 0.000000000000000000, 0.000000000000000000, 105.0000000000000142 ) ) ;
#116 = CIRCLE ( 'NONE', #167, 3.000000000000000444 ) ;
#117 = EDGE_CURVE ( 'NONE', #156, #6, #116, .T. ) ;
#118 = PERSON_AND_ORGANIZATION_ROLE ( 'design_supplier' ) ;
#119 = DIRECTION ( 'NONE',  ( 1.000000000000000000, 0.000000000000000000, 0.000000000000000000 ) ) ;
#120 = ORIENTED_EDGE ( 'NONE', *, *, #211, .F. ) ;
#121 = VECTOR ( 'NONE', #331, 1000.000000000000000 ) ;
#122 = APPLICATION_PROTOCOL_DEFINITION ( 'international standard', 'config_control_design', 1994, #268 ) ;
#123 = ORIENTED_EDGE ( 'NONE', *, *, #310, .T. ) ;
#124 = COORDINATED_UNIVERSAL_TIME_OFFSET ( 1, 0, .AHEAD. ) ;
#125 = CALENDAR_DATE ( 2022, 8, 7 ) ;
#126 = CARTESIAN_POINT ( 'NONE',  ( 0.000000000000000000, 0.000000000000000000, 0.000000000000000000 ) ) ;
#127 = EDGE_CURVE ( 'NONE', #335, #6, #256, .T. ) ;
#128 = ORIENTED_EDGE ( 'NONE', *, *, #187, .F. ) ;
#129 = AXIS2_PLACEMENT_3D ( 'NONE', #234, #32, #80 ) ;
#130 = CIRCLE ( 'NONE', #52, 3.500000000000000444 ) ;
#131 = ORIENTED_EDGE ( 'NONE', *, *, #39, .T. ) ;
#132 = AXIS2_PLACEMENT_3D ( 'NONE', #183, #37, #279 ) ;
#133 = DIRECTION ( 'NONE',  ( -0.000000000000000000, -0.000000000000000000, -1.000000000000000000 ) ) ;
#134 = ORIENTED_EDGE ( 'NONE', *, *, #328, .F. ) ;
#135 = DIRECTION ( 'NONE',  ( 1.000000000000000000, 0.000000000000000000, -0.000000000000000000 ) ) ;
#136 = EDGE_LOOP ( 'NONE', ( #188, #243 ) ) ;
#137 = APPROVAL_STATUS ( 'not_yet_approved' ) ;
#138 = DIRECTION ( 'NONE',  ( -0.000000000000000000, -0.000000000000000000, -1.000000000000000000 ) ) ;
#139 = ORIENTED_EDGE ( 'NONE', *, *, #107, .F. ) ;
#140 = FACE_OUTER_BOUND ( 'NONE', #43, .T. ) ;
#141 = DIRECTION ( 'NONE',  ( 0.000000000000000000, 0.000000000000000000, 1.000000000000000000 ) ) ;
#142 = AXIS2_PLACEMENT_3D ( 'NONE', #345, #170, #143 ) ;
#143 = DIRECTION ( 'NONE',  ( 1.000000000000000000, 0.000000000000000000, 0.000000000000000000 ) ) ;
#144 = CIRCLE ( 'NONE', #295, 3.000000000000000444 ) ;
#145 = FACE_BOUND ( 'NONE', #136, .T. ) ;
#146 = DIRECTION ( 'NONE',  ( 1.000000000000000000, 0.000000000000000000, 0.000000000000000000 ) ) ;
#147 = SECURITY_CLASSIFICATION ( '', '', #356 ) ;
#148 = DATE_AND_TIME ( #36, #207 ) ;
#149 = CARTESIAN_POINT ( 'NONE',  ( 0.000000000000000000, 0.000000000000000000, 105.0000000000000142 ) ) ;
#150 = ORIENTED_EDGE ( 'NONE', *, *, #24, .T. ) ;
#151 = AXIS2_PLACEMENT_3D ( 'NONE', #102, #141, #74 ) ;
#152 =( GEOMETRIC_REPRESENTATION_CONTEXT ( 3 ) GLOBAL_UNCERTAINTY_ASSIGNED_CONTEXT ( ( #17 ) ) GLOBAL_UNIT_ASSIGNED_CONTEXT ( ( #59, #245, #238 ) ) REPRESENTATION_CONTEXT ( 'NONE', 'WORKASPACE' ) );
#153 = PERSON_AND_ORGANIZATION ( #197, #240 ) ;
#154 = CYLINDRICAL_SURFACE ( 'NONE', #276, 1.750000000000000000 ) ;
#155 = FACE_OUTER_BOUND ( 'NONE', #186, .T. ) ;
#156 = VERTEX_POINT ( 'NONE', #340 ) ;
#157 = LOCAL_TIME ( 17, 40, 4.000000000000000000, #228 ) ;
#158 = CARTESIAN_POINT ( 'NONE',  ( 0.000000000000000000, 0.000000000000000000, 0.000000000000000000 ) ) ;
#159 = ADVANCED_FACE ( 'NONE', ( #44 ), #114, .F. ) ;
#160 = APPROVAL_ROLE ( '' ) ;
#161 = FACE_OUTER_BOUND ( 'NONE', #272, .T. ) ;
#162 = ORIENTED_EDGE ( 'NONE', *, *, #176, .T. ) ;
#163 = CARTESIAN_POINT ( 'NONE',  ( 1.750000000000000000, 2.143131898507868297E-16, 0.000000000000000000 ) ) ;
#164 = VERTEX_POINT ( 'NONE', #97 ) ;
#165 = TOROIDAL_SURFACE ( 'NONE', #194, 3.500000000000000444, 0.5000000000000000000 ) ;
#166 = APPROVAL_PERSON_ORGANIZATION ( #299, #257, #160 ) ;
#167 = AXIS2_PLACEMENT_3D ( 'NONE', #168, #303, #23 ) ;
#168 = CARTESIAN_POINT ( 'NONE',  ( 0.000000000000000000, 0.000000000000000000, 5.500000000000005329 ) ) ;
#169 = CC_DESIGN_PERSON_AND_ORGANIZATION_ASSIGNMENT ( #153, #118, ( #22 ) ) ;
#170 = DIRECTION ( 'NONE',  ( 0.000000000000000000, 0.000000000000000000, 1.000000000000000000 ) ) ;
#171 = FACE_OUTER_BOUND ( 'NONE', #353, .T. ) ;
#172 = EDGE_CURVE ( 'NONE', #330, #156, #69, .T. ) ;
#173 = FACE_OUTER_BOUND ( 'NONE', #258, .T. ) ;
#174 = CARTESIAN_POINT ( 'NONE',  ( 3.500000000000000444, 0.000000000000000000, 5.000000000000002665 ) ) ;
#175 = CARTESIAN_POINT ( 'NONE',  ( -3.500000000000000444, 4.286263797015737088E-16, 5.500000000000005329 ) ) ;
#176 = EDGE_CURVE ( 'NONE', #355, #217, #27, .T. ) ;
#177 = CALENDAR_DATE ( 2022, 8, 7 ) ;
#178 = VERTEX_POINT ( 'NONE', #163 ) ;
#179 = MECHANICAL_CONTEXT ( 'NONE', #100, 'mechanical' ) ;
#180 = CARTESIAN_POINT ( 'NONE',  ( 3.000000000000000444, 3.673940397442060361E-16, 5.500000000000005329 ) ) ;
#181 = DATE_TIME_ROLE ( 'creation_date' ) ;
#182 = PERSON_AND_ORGANIZATION_ROLE ( 'creator' ) ;
#183 = CARTESIAN_POINT ( 'NONE',  ( 0.000000000000000000, 0.000000000000000000, 5.000000000000000000 ) ) ;
#184 = VECTOR ( 'NONE', #133, 1000.000000000000000 ) ;
#185 = LINE ( 'NONE', #270, #372 ) ;
#186 = EDGE_LOOP ( 'NONE', ( #255, #332, #275, #283 ) ) ;
#187 = EDGE_CURVE ( 'NONE', #338, #355, #371, .T. ) ;
#188 = ORIENTED_EDGE ( 'NONE', *, *, #232, .T. ) ;
#189 = LINE ( 'NONE', #259, #184 ) ;
#190 = ORIENTED_EDGE ( 'NONE', *, *, #364, .T. ) ;
#191 = CALENDAR_DATE ( 2022, 8, 7 ) ;
#192 = ORIENTED_EDGE ( 'NONE', *, *, #172, .T. ) ;
#193 = ADVANCED_FACE ( 'NONE', ( #140 ), #165, .F. ) ;
#194 = AXIS2_PLACEMENT_3D ( 'NONE', #25, #195, #99 ) ;
#195 = DIRECTION ( 'NONE',  ( 0.000000000000000000, 0.000000000000000000, 1.000000000000000000 ) ) ;
#196 = CARTESIAN_POINT ( 'NONE',  ( -3.000000000000000444, 0.000000000000000000, 105.0000000000000142 ) ) ;
#197 = PERSON ( 'NEURÈENÝ', 'NEURÈENÝ', 'NEURÈENÝ', ('NEURÈENÝ'), ('NEURÈENÝ'), ('NEURÈENÝ') ) ;
#198 = FACE_OUTER_BOUND ( 'NONE', #329, .T. ) ;
#199 = CARTESIAN_POINT ( 'NONE',  ( 3.000000000000000444, 3.673940397442060361E-16, 105.0000000000000142 ) ) ;
#200 = CIRCLE ( 'NONE', #214, 3.500000000000000444 ) ;
#201 = PLANE ( 'NONE',  #104 ) ;
#202 = CIRCLE ( 'NONE', #111, 3.000000000000000444 ) ;
#203 = CC_DESIGN_DATE_AND_TIME_ASSIGNMENT ( #93, #324, ( #147 ) ) ;
#204 = DIRECTION ( 'NONE',  ( 0.000000000000000000, 0.000000000000000000, 1.000000000000000000 ) ) ;
#205 = PERSON_AND_ORGANIZATION ( #197, #240 ) ;
#206 = CARTESIAN_POINT ( 'NONE',  ( 0.000000000000000000, 0.000000000000000000, 105.0000000000000142 ) ) ;
#207 = LOCAL_TIME ( 17, 40, 4.000000000000000000, #297 ) ;
#208 = PERSON_AND_ORGANIZATION_ROLE ( 'classification_officer' ) ;
#209 = APPROVAL_DATE_TIME ( #354, #88 ) ;
#210 = DIRECTION ( 'NONE',  ( 0.000000000000000000, 0.000000000000000000, -1.000000000000000000 ) ) ;
#211 = EDGE_CURVE ( 'NONE', #307, #164, #326, .T. ) ;
#212 = APPLICATION_PROTOCOL_DEFINITION ( 'international standard', 'config_control_design', 1994, #100 ) ;
#213 = FACE_OUTER_BOUND ( 'NONE', #223, .T. ) ;
#214 = AXIS2_PLACEMENT_3D ( 'NONE', #235, #377, #317 ) ;
#215 = AXIS2_PLACEMENT_3D ( 'NONE', #315, #204, #146 ) ;
#216 = DIRECTION ( 'NONE',  ( 1.000000000000000000, 0.000000000000000000, -0.000000000000000000 ) ) ;
#217 = VERTEX_POINT ( 'NONE', #72 ) ;
#218 = ORIENTED_EDGE ( 'NONE', *, *, #103, .T. ) ;
#219 = ADVANCED_FACE ( 'NONE', ( #306, #161 ), #220, .F. ) ;
#220 = PLANE ( 'NONE',  #379 ) ;
#221 = EDGE_LOOP ( 'NONE', ( #18, #280, #13, #128 ) ) ;
#222 = CARTESIAN_POINT ( 'NONE',  ( 0.000000000000000000, 0.000000000000000000, 105.0000000000000142 ) ) ;
#223 = EDGE_LOOP ( 'NONE', ( #139, #92, #241, #162 ) ) ;
#224 = AXIS2_PLACEMENT_3D ( 'NONE', #222, #79, #333 ) ;
#225 = CIRCLE ( 'NONE', #142, 6.000000000000000888 ) ;
#226 = ORIENTED_EDGE ( 'NONE', *, *, #229, .T. ) ;
#227 = CIRCLE ( 'NONE', #343, 1.750000000000000000 ) ;
#228 = COORDINATED_UNIVERSAL_TIME_OFFSET ( 1, 0, .AHEAD. ) ;
#229 = EDGE_CURVE ( 'NONE', #164, #307, #314, .T. ) ;
#230 = DIRECTION ( 'NONE',  ( 1.000000000000000000, 0.000000000000000000, 0.000000000000000000 ) ) ;
#231 = CARTESIAN_POINT ( 'NONE',  ( -6.000000000000000888, 0.000000000000000000, 5.000000000000000000 ) ) ;
#232 = EDGE_CURVE ( 'NONE', #304, #252, #200, .T. ) ;
#233 = DIRECTION ( 'NONE',  ( -1.000000000000000000, 0.000000000000000000, 0.000000000000000000 ) ) ;
#234 = CARTESIAN_POINT ( 'NONE',  ( 0.000000000000000000, 0.000000000000000000, 0.000000000000000000 ) ) ;
#235 = CARTESIAN_POINT ( 'NONE',  ( 0.000000000000000000, 0.000000000000000000, 5.000000000000000000 ) ) ;
#236 = CYLINDRICAL_SURFACE ( 'NONE', #305, 6.000000000000000888 ) ;
#237 = CC_DESIGN_PERSON_AND_ORGANIZATION_ASSIGNMENT ( #91, #266, ( #278 ) ) ;
#238 =( NAMED_UNIT ( * ) SI_UNIT ( $, .STERADIAN. ) SOLID_ANGLE_UNIT ( ) );
#239 = ORIENTED_EDGE ( 'NONE', *, *, #229, .F. ) ;
#240 = ORGANIZATION ( 'NEURÈENÝ', 'NEURÈENÝ', '' ) ;
#241 = ORIENTED_EDGE ( 'NONE', *, *, #187, .T. ) ;
#242 = EDGE_CURVE ( 'NONE', #178, #319, #249, .T. ) ;
#243 = ORIENTED_EDGE ( 'NONE', *, *, #328, .T. ) ;
#244 = CLOSED_SHELL ( 'NONE', ( #265, #159, #308, #271, #60, #358, #219, #284, #376, #193, #76 ) ) ;
#245 =( NAMED_UNIT ( * ) PLANE_ANGLE_UNIT ( ) SI_UNIT ( $, .RADIAN. ) );
#246 = CARTESIAN_POINT ( 'NONE',  ( 0.000000000000000000, 0.000000000000000000, 5.500000000000005329 ) ) ;
#247 = CARTESIAN_POINT ( 'NONE',  ( 0.000000000000000000, 0.000000000000000000, 105.0000000000000142 ) ) ;
#248 = ORIENTED_EDGE ( 'NONE', *, *, #35, .F. ) ;
#249 = CIRCLE ( 'NONE', #129, 1.750000000000000000 ) ;
#250 = EDGE_LOOP ( 'NONE', ( #12, #285, #105, #73 ) ) ;
#251 = CARTESIAN_POINT ( 'NONE',  ( 3.000000000000000444, 3.673940397442060361E-16, 105.0000000000000142 ) ) ;
#252 = VERTEX_POINT ( 'NONE', #292 ) ;
#253 = CARTESIAN_POINT ( 'NONE',  ( -3.000000000000000444, 0.000000000000000000, 105.0000000000000142 ) ) ;
#254 = DESIGN_CONTEXT ( 'detailed design', #268, 'design' ) ;
#255 = ORIENTED_EDGE ( 'NONE', *, *, #103, .F. ) ;
#256 = LINE ( 'NONE', #251, #121 ) ;
#257 = APPROVAL ( #137, 'NEURÈENÝ' ) ;
#258 = EDGE_LOOP ( 'NONE', ( #65, #40, #192, #302 ) ) ;
#259 = CARTESIAN_POINT ( 'NONE',  ( 6.000000000000000888, 7.347880794884120722E-16, 5.000000000000000000 ) ) ;
#260 = CARTESIAN_POINT ( 'NONE',  ( 0.000000000000000000, 0.000000000000000000, 105.0000000000000142 ) ) ;
#261 = CYLINDRICAL_SURFACE ( 'NONE', #5, 1.750000000000000000 ) ;
#262 = DIRECTION ( 'NONE',  ( -0.000000000000000000, -0.000000000000000000, -1.000000000000000000 ) ) ;
#263 = PLANE ( 'NONE',  #341 ) ;
#264 = DIRECTION ( 'NONE',  ( -1.000000000000000000, 0.000000000000000000, 0.000000000000000000 ) ) ;
#265 = ADVANCED_FACE ( 'NONE', ( #198 ), #261, .F. ) ;
#266 = PERSON_AND_ORGANIZATION_ROLE ( 'design_owner' ) ;
#267 = CIRCLE ( 'NONE', #7, 3.000000000000000444 ) ;
#268 = APPLICATION_CONTEXT ( 'configuration controlled 3d designs of mechanical parts and assemblies' ) ;
#269 = APPROVAL_DATE_TIME ( #148, #334 ) ;
#270 = CARTESIAN_POINT ( 'NONE',  ( -1.750000000000000000, 0.000000000000000000, 105.0000000000000142 ) ) ;
#271 = ADVANCED_FACE ( 'NONE', ( #378 ), #236, .T. ) ;
#272 = EDGE_LOOP ( 'NONE', ( #369, #101 ) ) ;
#273 = LOCAL_TIME ( 17, 40, 4.000000000000000000, #124 ) ;
#274 = COORDINATED_UNIVERSAL_TIME_OFFSET ( 1, 0, .AHEAD. ) ;
#275 = ORIENTED_EDGE ( 'NONE', *, *, #35, .T. ) ;
#276 = AXIS2_PLACEMENT_3D ( 'NONE', #206, #58, #106 ) ;
#277 = APPROVAL_ROLE ( '' ) ;
#278 = PRODUCT ( '26c4', '26c4', '', ( #179 ) ) ;
#279 = DIRECTION ( 'NONE',  ( -1.000000000000000000, 0.000000000000000000, 0.000000000000000000 ) ) ;
#280 = ORIENTED_EDGE ( 'NONE', *, *, #107, .T. ) ;
#281 = CIRCLE ( 'NONE', #380, 0.4999999999999995559 ) ;
#282 = EDGE_LOOP ( 'NONE', ( #47, #190, #75, #70 ) ) ;
#283 = ORIENTED_EDGE ( 'NONE', *, *, #55, .T. ) ;
#284 = ADVANCED_FACE ( 'NONE', ( #173 ), #342, .T. ) ;
#285 = ORIENTED_EDGE ( 'NONE', *, *, #127, .T. ) ;
#286 = AXIS2_PLACEMENT_3D ( 'NONE', #260, #290, #108 ) ;
#287 = CARTESIAN_POINT ( 'NONE',  ( 1.750000000000000000, 2.143131898507868297E-16, 105.0000000000000142 ) ) ;
#288 = DIRECTION ( 'NONE',  ( 1.000000000000000000, 0.000000000000000000, 0.000000000000000000 ) ) ;
#289 = AXIS2_PLACEMENT_3D ( 'NONE', #64, #95, #66 ) ;
#290 = DIRECTION ( 'NONE',  ( -0.000000000000000000, -0.000000000000000000, -1.000000000000000000 ) ) ;
#291 = CC_DESIGN_PERSON_AND_ORGANIZATION_ASSIGNMENT ( #300, #322, ( #373 ) ) ;
#292 = CARTESIAN_POINT ( 'NONE',  ( -3.500000000000000444, 4.286263797015737088E-16, 5.000000000000002665 ) ) ;
#293 = FACE_OUTER_BOUND ( 'NONE', #250, .T. ) ;
#294 = AXIS2_PLACEMENT_3D ( 'NONE', #158, #46, #230 ) ;
#295 = AXIS2_PLACEMENT_3D ( 'NONE', #149, #357, #119 ) ;
#296 = EDGE_CURVE ( 'NONE', #217, #355, #109, .T. ) ;
#297 = COORDINATED_UNIVERSAL_TIME_OFFSET ( 1, 0, .AHEAD. ) ;
#298 = AXIS2_PLACEMENT_3D ( 'NONE', #56, #347, #288 ) ;
#299 = PERSON_AND_ORGANIZATION ( #197, #240 ) ;
#300 = PERSON_AND_ORGANIZATION ( #197, #240 ) ;
#301 = CC_DESIGN_DATE_AND_TIME_ASSIGNMENT ( #61, #181, ( #373 ) ) ;
#302 = ORIENTED_EDGE ( 'NONE', *, *, #117, .T. ) ;
#303 = DIRECTION ( 'NONE',  ( 0.000000000000000000, 0.000000000000000000, 1.000000000000000000 ) ) ;
#304 = VERTEX_POINT ( 'NONE', #174 ) ;
#305 = AXIS2_PLACEMENT_3D ( 'NONE', #375, #110, #264 ) ;
#306 = FACE_BOUND ( 'NONE', #9, .T. ) ;
#307 = VERTEX_POINT ( 'NONE', #53 ) ;
#308 = ADVANCED_FACE ( 'NONE', ( #293 ), #112, .T. ) ;
#309 = VERTEX_POINT ( 'NONE', #29 ) ;
#310 = EDGE_CURVE ( 'NONE', #309, #338, #361, .T. ) ;
#311 = DIRECTION ( 'NONE',  ( 0.000000000000000000, 0.000000000000000000, -1.000000000000000000 ) ) ;
#312 = CARTESIAN_POINT ( 'NONE',  ( 0.000000000000000000, 0.000000000000000000, 5.000000000000000000 ) ) ;
#313 = DIRECTION ( 'NONE',  ( 0.000000000000000000, 0.000000000000000000, 1.000000000000000000 ) ) ;
#314 = CIRCLE ( 'NONE', #151, 1.750000000000000000 ) ;
#315 = CARTESIAN_POINT ( 'NONE',  ( 0.000000000000000000, 0.000000000000000000, 5.000000000000000000 ) ) ;
#316 = EDGE_CURVE ( 'NONE', #338, #309, #225, .T. ) ;
#317 = DIRECTION ( 'NONE',  ( 1.000000000000000000, 0.000000000000000000, 0.000000000000000000 ) ) ;
#318 = APPROVAL_STATUS ( 'not_yet_approved' ) ;
#319 = VERTEX_POINT ( 'NONE', #81 ) ;
#320 = CC_DESIGN_APPROVAL ( #257, ( #147 ) ) ;
#321 = DIRECTION ( 'NONE',  ( 0.000000000000000000, 0.000000000000000000, -1.000000000000000000 ) ) ;
#322 = PERSON_AND_ORGANIZATION_ROLE ( 'creator' ) ;
#323 = DIRECTION ( 'NONE',  ( 0.000000000000000000, 0.000000000000000000, 1.000000000000000000 ) ) ;
#324 = DATE_TIME_ROLE ( 'classification_date' ) ;
#325 = CYLINDRICAL_SURFACE ( 'NONE', #132, 6.000000000000000888 ) ;
#326 = CIRCLE ( 'NONE', #224, 1.750000000000000000 ) ;
#327 = AXIS2_PLACEMENT_3D ( 'NONE', #54, #30, #31 ) ;
#328 = EDGE_CURVE ( 'NONE', #252, #304, #130, .T. ) ;
#329 = EDGE_LOOP ( 'NONE', ( #226, #218, #15, #248 ) ) ;
#330 = VERTEX_POINT ( 'NONE', #196 ) ;
#331 = DIRECTION ( 'NONE',  ( -0.000000000000000000, -0.000000000000000000, -1.000000000000000000 ) ) ;
#332 = ORIENTED_EDGE ( 'NONE', *, *, #211, .T. ) ;
#333 = DIRECTION ( 'NONE',  ( 1.000000000000000000, 0.000000000000000000, 0.000000000000000000 ) ) ;
#334 = APPROVAL ( #318, 'NEURÈENÝ' ) ;
#335 = VERTEX_POINT ( 'NONE', #199 ) ;
#336 = LOCAL_TIME ( 17, 40, 4.000000000000000000, #274 ) ;
#337 = DIRECTION ( 'NONE',  ( 0.000000000000000000, 0.000000000000000000, 1.000000000000000000 ) ) ;
#338 = VERTEX_POINT ( 'NONE', #231 ) ;
#339 = LINE ( 'NONE', #287, #381 ) ;
#340 = CARTESIAN_POINT ( 'NONE',  ( -3.000000000000000444, 0.000000000000000000, 5.500000000000005329 ) ) ;
#341 = AXIS2_PLACEMENT_3D ( 'NONE', #312, #313, #49 ) ;
#342 = CYLINDRICAL_SURFACE ( 'NONE', #286, 3.000000000000000444 ) ;
#343 = AXIS2_PLACEMENT_3D ( 'NONE', #126, #360, #38 ) ;
#344 = DIRECTION ( 'NONE',  ( -1.000000000000000000, 1.224646799147354440E-16, 0.000000000000000000 ) ) ;
#345 = CARTESIAN_POINT ( 'NONE',  ( 0.000000000000000000, 0.000000000000000000, 5.000000000000000000 ) ) ;
#346 = CC_DESIGN_PERSON_AND_ORGANIZATION_ASSIGNMENT ( #1, #182, ( #22 ) ) ;
#347 = DIRECTION ( 'NONE',  ( 0.000000000000000000, 0.000000000000000000, 1.000000000000000000 ) ) ;
#348 = FACE_OUTER_BOUND ( 'NONE', #68, .T. ) ;
#349 = PRODUCT_DEFINITION_SHAPE ( 'NONE', 'NONE',  #373 ) ;
#350 = PRODUCT_RELATED_PRODUCT_CATEGORY ( 'detail', '', ( #278 ) ) ;
#351 = APPROVAL_STATUS ( 'not_yet_approved' ) ;
#352 = CC_DESIGN_APPROVAL ( #88, ( #373 ) ) ;
#353 = EDGE_LOOP ( 'NONE', ( #131, #98 ) ) ;
#354 = DATE_AND_TIME ( #125, #370 ) ;
#355 = VERTEX_POINT ( 'NONE', #82 ) ;
#356 = SECURITY_CLASSIFICATION_LEVEL ( 'unclassified' ) ;
#357 = DIRECTION ( 'NONE',  ( 0.000000000000000000, 0.000000000000000000, 1.000000000000000000 ) ) ;
#358 = ADVANCED_FACE ( 'NONE', ( #145, #348 ), #263, .T. ) ;
#359 = DIRECTION ( 'NONE',  ( 0.000000000000000000, 0.000000000000000000, 1.000000000000000000 ) ) ;
#360 = DIRECTION ( 'NONE',  ( -0.000000000000000000, -0.000000000000000000, -1.000000000000000000 ) ) ;
#361 = CIRCLE ( 'NONE', #215, 6.000000000000000888 ) ;
#362 = EDGE_LOOP ( 'NONE', ( #239, #120 ) ) ;
#363 = ORIENTED_EDGE ( 'NONE', *, *, #242, .F. ) ;
#364 = EDGE_CURVE ( 'NONE', #156, #252, #281, .T. ) ;
#365 = DIRECTION ( 'NONE',  ( 0.000000000000000000, 0.000000000000000000, 1.000000000000000000 ) ) ;
#366 = ORIENTED_EDGE ( 'NONE', *, *, #50, .F. ) ;
#367 = CARTESIAN_POINT ( 'NONE',  ( -6.000000000000000888, 0.000000000000000000, 5.000000000000000000 ) ) ;
#368 = AXIS2_PLACEMENT_3D ( 'NONE', #78, #365, #41 ) ;
#369 = ORIENTED_EDGE ( 'NONE', *, *, #176, .F. ) ;
#370 = LOCAL_TIME ( 17, 40, 4.000000000000000000, #4 ) ;
#371 = LINE ( 'NONE', #367, #3 ) ;
#372 = VECTOR ( 'NONE', #321, 1000.000000000000000 ) ;
#373 = PRODUCT_DEFINITION ( 'NEZNÁMÝ', '', #22, #254 ) ;
#374 = CC_DESIGN_APPROVAL ( #334, ( #22 ) ) ;
#375 = CARTESIAN_POINT ( 'NONE',  ( 0.000000000000000000, 0.000000000000000000, 5.000000000000000000 ) ) ;
#376 = ADVANCED_FACE ( 'NONE', ( #51, #171 ), #201, .T. ) ;
#377 = DIRECTION ( 'NONE',  ( -0.000000000000000000, -0.000000000000000000, -1.000000000000000000 ) ) ;
#378 = FACE_OUTER_BOUND ( 'NONE', #221, .T. ) ;
#379 = AXIS2_PLACEMENT_3D ( 'NONE', #16, #337, #135 ) ;
#380 = AXIS2_PLACEMENT_3D ( 'NONE', #175, #83, #344 ) ;
#381 = VECTOR ( 'NONE', #311, 1000.000000000000000 ) ;
ENDSEC;
END-ISO-10303-21;
