ISO-10303-21;
HEADER;
FILE_DESCRIPTION (( 'STEP AP203' ),
    '1' );
FILE_NAME ('700a.STEP',
    '2022-07-08T14:28:21',
    ( '' ),
    ( '' ),
    'SwSTEP 2.0',
    'SolidWorks 2019',
    '' );
FILE_SCHEMA (( 'CONFIG_CONTROL_DESIGN' ));
ENDSEC;

DATA;
#1 = CALENDAR_DATE ( 2022, 8, 7 ) ;
#2 = ORIENTED_EDGE ( 'NONE', *, *, #17, .T. ) ;
#3 = ORIENTED_EDGE ( 'NONE', *, *, #153, .T. ) ;
#4 = CIRCLE ( 'NONE', #257, 4.500000000000000000 ) ;
#5 = VECTOR ( 'NONE', #194, 1000.000000000000000 ) ;
#6 = CYLINDRICAL_SURFACE ( 'NONE', #197, 10.00000000000000000 ) ;
#7 = EDGE_CURVE ( 'NONE', #118, #339, #366, .T. ) ;
#8 = VERTEX_POINT ( 'NONE', #204 ) ;
#9 = CARTESIAN_POINT ( 'NONE',  ( 6.000000000000000888, 7.347880794884120722E-16, 82.00000000000000000 ) ) ;
#10 = CC_DESIGN_DATE_AND_TIME_ASSIGNMENT ( #179, #150, ( #58 ) ) ;
#11 = LOCAL_TIME ( 16, 28, 21.00000000000000000, #187 ) ;
#12 = FACE_OUTER_BOUND ( 'NONE', #190, .T. ) ;
#13 = CARTESIAN_POINT ( 'NONE',  ( 0.000000000000000000, 0.000000000000000000, 82.00000000000000000 ) ) ;
#14 = PERSON_AND_ORGANIZATION_ROLE ( 'creator' ) ;
#15 = LOCAL_TIME ( 16, 28, 21.00000000000000000, #324 ) ;
#16 = PERSON_AND_ORGANIZATION_ROLE ( 'classification_officer' ) ;
#17 = EDGE_CURVE ( 'NONE', #108, #59, #4, .T. ) ;
#18 = DIRECTION ( 'NONE',  ( 0.000000000000000000, 0.000000000000000000, -1.000000000000000000 ) ) ;
#19 = ORIENTED_EDGE ( 'NONE', *, *, #351, .F. ) ;
#20 = CARTESIAN_POINT ( 'NONE',  ( -6.700000000000001066, 8.205133554287267548E-16, 6.999999999999999112 ) ) ;
#21 = VERTEX_POINT ( 'NONE', #88 ) ;
#22 = DIRECTION ( 'NONE',  ( -0.000000000000000000, -0.000000000000000000, -1.000000000000000000 ) ) ;
#23 = CC_DESIGN_PERSON_AND_ORGANIZATION_ASSIGNMENT ( #157, #14, ( #128 ) ) ;
#24 = ORIENTED_EDGE ( 'NONE', *, *, #94, .T. ) ;
#25 = ORGANIZATION ( 'NEURÈENÝ', 'NEURÈENÝ', '' ) ;
#26 = ORIENTED_EDGE ( 'NONE', *, *, #377, .F. ) ;
#27 = ORIENTED_EDGE ( 'NONE', *, *, #377, .T. ) ;
#28 = DIRECTION ( 'NONE',  ( 0.000000000000000000, 0.000000000000000000, 1.000000000000000000 ) ) ;
#29 = EDGE_CURVE ( 'NONE', #8, #118, #293, .T. ) ;
#30 = VERTEX_POINT ( 'NONE', #148 ) ;
#31 = CARTESIAN_POINT ( 'NONE',  ( 10.00000000000000000, 1.224646799147353256E-15, 7.000000000000000000 ) ) ;
#32 = CARTESIAN_POINT ( 'NONE',  ( 0.000000000000000000, 0.000000000000000000, 0.000000000000000000 ) ) ;
#33 = ADVANCED_FACE ( 'NONE', ( #289, #146 ), #237, .F. ) ;
#34 = LOCAL_TIME ( 16, 28, 21.00000000000000000, #67 ) ;
#35 = DIRECTION ( 'NONE',  ( -0.000000000000000000, -0.000000000000000000, -1.000000000000000000 ) ) ;
#36 = DIRECTION ( 'NONE',  ( 1.000000000000000000, 0.000000000000000000, 0.000000000000000000 ) ) ;
#37 = APPROVAL_PERSON_ORGANIZATION ( #41, #318, #246 ) ;
#38 = CARTESIAN_POINT ( 'NONE',  ( 0.000000000000000000, 0.000000000000000000, 7.699999999999998401 ) ) ;
#39 = CALENDAR_DATE ( 2022, 8, 7 ) ;
#40 = DIRECTION ( 'NONE',  ( -1.000000000000000000, 0.000000000000000000, 0.000000000000000000 ) ) ;
#41 = PERSON_AND_ORGANIZATION ( #361, #25 ) ;
#42 = DIRECTION ( 'NONE',  ( 0.000000000000000000, 0.000000000000000000, 1.000000000000000000 ) ) ;
#43 = ADVANCED_FACE ( 'NONE', ( #267 ), #6, .T. ) ;
#44 = ORIENTED_EDGE ( 'NONE', *, *, #131, .F. ) ;
#45 = ADVANCED_FACE ( 'NONE', ( #327 ), #290, .F. ) ;
#46 = AXIS2_PLACEMENT_3D ( 'NONE', #95, #333, #297 ) ;
#47 = CYLINDRICAL_SURFACE ( 'NONE', #374, 6.000000000000000888 ) ;
#48 = CIRCLE ( 'NONE', #85, 6.000000000000000888 ) ;
#49 = ORIENTED_EDGE ( 'NONE', *, *, #330, .T. ) ;
#50 = AXIS2_PLACEMENT_3D ( 'NONE', #228, #279, #18 ) ;
#51 = CARTESIAN_POINT ( 'NONE',  ( -4.500000000000000000, 0.000000000000000000, 0.000000000000000000 ) ) ;
#52 = ORIENTED_EDGE ( 'NONE', *, *, #334, .F. ) ;
#53 = CARTESIAN_POINT ( 'NONE',  ( 0.000000000000000000, 0.000000000000000000, 82.00000000000000000 ) ) ;
#54 = PERSON_AND_ORGANIZATION_ROLE ( 'creator' ) ;
#55 = AXIS2_PLACEMENT_3D ( 'NONE', #56, #180, #247 ) ;
#56 = CARTESIAN_POINT ( 'NONE',  ( 0.000000000000000000, 0.000000000000000000, 7.000000000000000000 ) ) ;
#57 = ORIENTED_EDGE ( 'NONE', *, *, #7, .T. ) ;
#58 = PRODUCT_DEFINITION ( 'NEZNÁMÝ', '', #128, #358 ) ;
#59 = VERTEX_POINT ( 'NONE', #268 ) ;
#60 = VERTEX_POINT ( 'NONE', #171 ) ;
#61 = AXIS2_PLACEMENT_3D ( 'NONE', #226, #281, #132 ) ;
#62 = DIRECTION ( 'NONE',  ( 0.000000000000000000, 0.000000000000000000, -1.000000000000000000 ) ) ;
#63 = ADVANCED_BREP_SHAPE_REPRESENTATION ( '700a', ( #316, #75 ), #184 ) ;
#64 = FACE_OUTER_BOUND ( 'NONE', #73, .T. ) ;
#65 = DIRECTION ( 'NONE',  ( 1.000000000000000000, 0.000000000000000000, 0.000000000000000000 ) ) ;
#66 = CLOSED_SHELL ( 'NONE', ( #143, #149, #238, #43, #177, #81, #33, #113, #232, #45, #275 ) ) ;
#67 = COORDINATED_UNIVERSAL_TIME_OFFSET ( 1, 0, .AHEAD. ) ;
#68 = CIRCLE ( 'NONE', #205, 10.00000000000000000 ) ;
#69 = DIRECTION ( 'NONE',  ( 0.000000000000000000, 0.000000000000000000, 1.000000000000000000 ) ) ;
#70 = CC_DESIGN_PERSON_AND_ORGANIZATION_ASSIGNMENT ( #224, #16, ( #225 ) ) ;
#71 = PLANE ( 'NONE',  #152 ) ;
#72 = CYLINDRICAL_SURFACE ( 'NONE', #301, 4.500000000000000000 ) ;
#73 = EDGE_LOOP ( 'NONE', ( #49, #255, #133, #254 ) ) ;
#74 = DIRECTION ( 'NONE',  ( 1.000000000000000000, 0.000000000000000000, 0.000000000000000000 ) ) ;
#75 = AXIS2_PLACEMENT_3D ( 'NONE', #182, #201, #92 ) ;
#76 = ORIENTED_EDGE ( 'NONE', *, *, #131, .T. ) ;
#77 = EDGE_CURVE ( 'NONE', #30, #60, #121, .T. ) ;
#78 = CARTESIAN_POINT ( 'NONE',  ( -6.000000000000000888, 0.000000000000000000, 82.00000000000000000 ) ) ;
#79 = VERTEX_POINT ( 'NONE', #233 ) ;
#80 = ORIENTED_EDGE ( 'NONE', *, *, #292, .F. ) ;
#81 = ADVANCED_FACE ( 'NONE', ( #350, #202 ), #321, .T. ) ;
#82 = DIRECTION ( 'NONE',  ( 1.000000000000000000, 0.000000000000000000, -0.000000000000000000 ) ) ;
#83 = EDGE_LOOP ( 'NONE', ( #160, #309, #57, #80 ) ) ;
#84 = ORIENTED_EDGE ( 'NONE', *, *, #77, .T. ) ;
#85 = AXIS2_PLACEMENT_3D ( 'NONE', #240, #271, #188 ) ;
#86 = EDGE_CURVE ( 'NONE', #59, #313, #126, .T. ) ;
#87 = VECTOR ( 'NONE', #209, 1000.000000000000000 ) ;
#88 = CARTESIAN_POINT ( 'NONE',  ( 6.700000000000001066, 0.000000000000000000, 6.999999999999999112 ) ) ;
#89 = DIRECTION ( 'NONE',  ( -0.000000000000000000, -0.000000000000000000, -1.000000000000000000 ) ) ;
#90 = AXIS2_PLACEMENT_3D ( 'NONE', #206, #147, #82 ) ;
#91 = CYLINDRICAL_SURFACE ( 'NONE', #178, 4.500000000000000000 ) ;
#92 = DIRECTION ( 'NONE',  ( 1.000000000000000000, 0.000000000000000000, 0.000000000000000000 ) ) ;
#93 = CIRCLE ( 'NONE', #135, 6.700000000000001066 ) ;
#94 = EDGE_CURVE ( 'NONE', #282, #256, #307, .T. ) ;
#95 = CARTESIAN_POINT ( 'NONE',  ( -6.700000000000001066, 8.205133554287267548E-16, 7.699999999999998401 ) ) ;
#96 = LINE ( 'NONE', #303, #87 ) ;
#97 = CIRCLE ( 'NONE', #198, 6.000000000000000888 ) ;
#98 = CALENDAR_DATE ( 2022, 8, 7 ) ;
#99 = EDGE_CURVE ( 'NONE', #164, #282, #97, .T. ) ;
#100 = FACE_OUTER_BOUND ( 'NONE', #376, .T. ) ;
#101 = CARTESIAN_POINT ( 'NONE',  ( 0.000000000000000000, 0.000000000000000000, 7.000000000000000000 ) ) ;
#102 = DIRECTION ( 'NONE',  ( 1.000000000000000000, 0.000000000000000000, 0.000000000000000000 ) ) ;
#103 = AXIS2_PLACEMENT_3D ( 'NONE', #38, #298, #36 ) ;
#104 = EDGE_LOOP ( 'NONE', ( #262, #129 ) ) ;
#105 = DIRECTION ( 'NONE',  ( -1.000000000000000000, 0.000000000000000000, 0.000000000000000000 ) ) ;
#106 = ORIENTED_EDGE ( 'NONE', *, *, #207, .F. ) ;
#107 = DIRECTION ( 'NONE',  ( -0.000000000000000000, -0.000000000000000000, -1.000000000000000000 ) ) ;
#108 = VERTEX_POINT ( 'NONE', #214 ) ;
#109 = APPLICATION_PROTOCOL_DEFINITION ( 'international standard', 'config_control_design', 1994, #260 ) ;
#110 = ORIENTED_EDGE ( 'NONE', *, *, #221, .F. ) ;
#111 = DIRECTION ( 'NONE',  ( 1.000000000000000000, 0.000000000000000000, 0.000000000000000000 ) ) ;
#112 = ORIENTED_EDGE ( 'NONE', *, *, #77, .F. ) ;
#113 = ADVANCED_FACE ( 'NONE', ( #269 ), #154, .T. ) ;
#114 = DIRECTION ( 'NONE',  ( 1.000000000000000000, 0.000000000000000000, 0.000000000000000000 ) ) ;
#115 = TOROIDAL_SURFACE ( 'NONE', #336, 6.700000000000001066, 0.6999999999999999556 ) ;
#116 = ORIENTED_EDGE ( 'NONE', *, *, #221, .T. ) ;
#117 = UNCERTAINTY_MEASURE_WITH_UNIT (LENGTH_MEASURE( 1.000000000000000082E-05 ), #270, 'distance_accuracy_value', 'NONE');
#118 = VERTEX_POINT ( 'NONE', #359 ) ;
#119 = PERSON_AND_ORGANIZATION ( #361, #25 ) ;
#120 = APPROVAL ( #241, 'NEURÈENÝ' ) ;
#121 = CIRCLE ( 'NONE', #172, 6.000000000000000888 ) ;
#122 = DIRECTION ( 'NONE',  ( -0.000000000000000000, -0.000000000000000000, -1.000000000000000000 ) ) ;
#123 = APPROVAL_PERSON_ORGANIZATION ( #119, #120, #191 ) ;
#124 = DIRECTION ( 'NONE',  ( 1.000000000000000000, 0.000000000000000000, 0.000000000000000000 ) ) ;
#125 = DIRECTION ( 'NONE',  ( 1.000000000000000000, 0.000000000000000000, -0.000000000000000000 ) ) ;
#126 = LINE ( 'NONE', #186, #266 ) ;
#127 = APPROVAL_STATUS ( 'not_yet_approved' ) ;
#128 = PRODUCT_DEFINITION_FORMATION_WITH_SPECIFIED_SOURCE ( 'LIBOVOLNÝ', '', #265, .NOT_KNOWN. ) ;
#129 = ORIENTED_EDGE ( 'NONE', *, *, #17, .F. ) ;
#130 = DATE_AND_TIME ( #98, #11 ) ;
#131 = EDGE_CURVE ( 'NONE', #60, #30, #48, .T. ) ;
#132 = DIRECTION ( 'NONE',  ( 1.000000000000000000, 0.000000000000000000, 0.000000000000000000 ) ) ;
#133 = ORIENTED_EDGE ( 'NONE', *, *, #345, .T. ) ;
#134 = CARTESIAN_POINT ( 'NONE',  ( 0.000000000000000000, 0.000000000000000000, 82.00000000000000000 ) ) ;
#135 = AXIS2_PLACEMENT_3D ( 'NONE', #346, #107, #102 ) ;
#136 = ORIENTED_EDGE ( 'NONE', *, *, #264, .T. ) ;
#137 = CARTESIAN_POINT ( 'NONE',  ( 0.000000000000000000, 0.000000000000000000, 82.00000000000000000 ) ) ;
#138 = CC_DESIGN_PERSON_AND_ORGANIZATION_ASSIGNMENT ( #161, #311, ( #128 ) ) ;
#139 = ORIENTED_EDGE ( 'NONE', *, *, #99, .T. ) ;
#140 = COORDINATED_UNIVERSAL_TIME_OFFSET ( 1, 0, .AHEAD. ) ;
#141 = ORIENTED_EDGE ( 'NONE', *, *, #351, .T. ) ;
#142 = VECTOR ( 'NONE', #22, 1000.000000000000000 ) ;
#143 = ADVANCED_FACE ( 'NONE', ( #64 ), #91, .F. ) ;
#144 = PERSON_AND_ORGANIZATION ( #361, #25 ) ;
#145 = ORIENTED_EDGE ( 'NONE', *, *, #251, .T. ) ;
#146 = FACE_OUTER_BOUND ( 'NONE', #227, .T. ) ;
#147 = DIRECTION ( 'NONE',  ( 0.000000000000000000, 0.000000000000000000, 1.000000000000000000 ) ) ;
#148 = CARTESIAN_POINT ( 'NONE',  ( -6.000000000000000888, 0.000000000000000000, 82.00000000000000000 ) ) ;
#149 = ADVANCED_FACE ( 'NONE', ( #100 ), #115, .F. ) ;
#150 = DATE_TIME_ROLE ( 'creation_date' ) ;
#151 = CYLINDRICAL_SURFACE ( 'NONE', #340, 10.00000000000000000 ) ;
#152 = AXIS2_PLACEMENT_3D ( 'NONE', #13, #300, #125 ) ;
#153 = EDGE_CURVE ( 'NONE', #282, #164, #323, .T. ) ;
#154 = CYLINDRICAL_SURFACE ( 'NONE', #314, 6.000000000000000888 ) ;
#155 = CARTESIAN_POINT ( 'NONE',  ( 0.000000000000000000, 0.000000000000000000, 82.00000000000000000 ) ) ;
#156 = DIRECTION ( 'NONE',  ( -1.000000000000000000, 0.000000000000000000, 0.000000000000000000 ) ) ;
#157 = PERSON_AND_ORGANIZATION ( #361, #25 ) ;
#158 = VECTOR ( 'NONE', #122, 1000.000000000000000 ) ;
#159 = DIRECTION ( 'NONE',  ( 1.000000000000000000, 0.000000000000000000, 0.000000000000000000 ) ) ;
#160 = ORIENTED_EDGE ( 'NONE', *, *, #258, .F. ) ;
#161 = PERSON_AND_ORGANIZATION ( #361, #25 ) ;
#162 = DIRECTION ( 'NONE',  ( 1.000000000000000000, 0.000000000000000000, 0.000000000000000000 ) ) ;
#163 = ORIENTED_EDGE ( 'NONE', *, *, #94, .F. ) ;
#164 = VERTEX_POINT ( 'NONE', #183 ) ;
#165 = AXIS2_PLACEMENT_3D ( 'NONE', #168, #252, #162 ) ;
#166 = EDGE_CURVE ( 'NONE', #60, #164, #272, .T. ) ;
#167 = ORIENTED_EDGE ( 'NONE', *, *, #166, .T. ) ;
#168 = CARTESIAN_POINT ( 'NONE',  ( 0.000000000000000000, 0.000000000000000000, 0.000000000000000000 ) ) ;
#169 = ORIENTED_EDGE ( 'NONE', *, *, #153, .F. ) ;
#170 =( NAMED_UNIT ( * ) PLANE_ANGLE_UNIT ( ) SI_UNIT ( $, .RADIAN. ) );
#171 = CARTESIAN_POINT ( 'NONE',  ( 6.000000000000000888, 7.347880794884120722E-16, 82.00000000000000000 ) ) ;
#172 = AXIS2_PLACEMENT_3D ( 'NONE', #53, #28, #111 ) ;
#173 = EDGE_LOOP ( 'NONE', ( #175, #112, #27, #3 ) ) ;
#174 = DIRECTION ( 'NONE',  ( 1.000000000000000000, 0.000000000000000000, 0.000000000000000000 ) ) ;
#175 = ORIENTED_EDGE ( 'NONE', *, *, #166, .F. ) ;
#176 = ORIENTED_EDGE ( 'NONE', *, *, #212, .F. ) ;
#177 = ADVANCED_FACE ( 'NONE', ( #211 ), #151, .T. ) ;
#178 = AXIS2_PLACEMENT_3D ( 'NONE', #155, #62, #40 ) ;
#179 = DATE_AND_TIME ( #1, #15 ) ;
#180 = DIRECTION ( 'NONE',  ( 0.000000000000000000, 0.000000000000000000, 1.000000000000000000 ) ) ;
#181 = CARTESIAN_POINT ( 'NONE',  ( 0.000000000000000000, 0.000000000000000000, 7.000000000000000000 ) ) ;
#182 = CARTESIAN_POINT ( 'NONE',  ( 0.000000000000000000, 0.000000000000000000, 0.000000000000000000 ) ) ;
#183 = CARTESIAN_POINT ( 'NONE',  ( 6.000000000000000888, 7.347880794884120722E-16, 7.699999999999998401 ) ) ;
#184 =( GEOMETRIC_REPRESENTATION_CONTEXT ( 3 ) GLOBAL_UNCERTAINTY_ASSIGNED_CONTEXT ( ( #117 ) ) GLOBAL_UNIT_ASSIGNED_CONTEXT ( ( #270, #170, #244 ) ) REPRESENTATION_CONTEXT ( 'NONE', 'WORKASPACE' ) );
#185 = CIRCLE ( 'NONE', #310, 10.00000000000000000 ) ;
#186 = CARTESIAN_POINT ( 'NONE',  ( -4.500000000000000000, 0.000000000000000000, 82.00000000000000000 ) ) ;
#187 = COORDINATED_UNIVERSAL_TIME_OFFSET ( 1, 0, .AHEAD. ) ;
#188 = DIRECTION ( 'NONE',  ( 1.000000000000000000, 0.000000000000000000, 0.000000000000000000 ) ) ;
#189 = CARTESIAN_POINT ( 'NONE',  ( -10.00000000000000000, 0.000000000000000000, 7.000000000000000000 ) ) ;
#190 = EDGE_LOOP ( 'NONE', ( #84, #76 ) ) ;
#191 = APPROVAL_ROLE ( '' ) ;
#192 = CIRCLE ( 'NONE', #61, 6.700000000000001066 ) ;
#193 = ORIENTED_EDGE ( 'NONE', *, *, #264, .F. ) ;
#194 = DIRECTION ( 'NONE',  ( -0.000000000000000000, -0.000000000000000000, -1.000000000000000000 ) ) ;
#195 = ORIENTED_EDGE ( 'NONE', *, *, #7, .F. ) ;
#196 = ORIENTED_EDGE ( 'NONE', *, *, #207, .T. ) ;
#197 = AXIS2_PLACEMENT_3D ( 'NONE', #239, #89, #291 ) ;
#198 = AXIS2_PLACEMENT_3D ( 'NONE', #274, #218, #65 ) ;
#199 = CARTESIAN_POINT ( 'NONE',  ( 0.000000000000000000, 0.000000000000000000, 82.00000000000000000 ) ) ;
#200 = DIRECTION ( 'NONE',  ( 0.000000000000000000, 0.000000000000000000, 1.000000000000000000 ) ) ;
#201 = DIRECTION ( 'NONE',  ( 0.000000000000000000, 0.000000000000000000, 1.000000000000000000 ) ) ;
#202 = FACE_OUTER_BOUND ( 'NONE', #229, .T. ) ;
#203 = PERSON_AND_ORGANIZATION ( #361, #25 ) ;
#204 = CARTESIAN_POINT ( 'NONE',  ( 10.00000000000000000, 1.224646799147353256E-15, 7.000000000000000000 ) ) ;
#205 = AXIS2_PLACEMENT_3D ( 'NONE', #101, #375, #74 ) ;
#206 = CARTESIAN_POINT ( 'NONE',  ( 0.000000000000000000, 0.000000000000000000, 0.000000000000000000 ) ) ;
#207 = EDGE_CURVE ( 'NONE', #326, #8, #185, .T. ) ;
#208 = CARTESIAN_POINT ( 'NONE',  ( 0.000000000000000000, 0.000000000000000000, 82.00000000000000000 ) ) ;
#209 = DIRECTION ( 'NONE',  ( 0.000000000000000000, 0.000000000000000000, -1.000000000000000000 ) ) ;
#210 = CC_DESIGN_SECURITY_CLASSIFICATION ( #225, ( #128 ) ) ;
#211 = FACE_OUTER_BOUND ( 'NONE', #325, .T. ) ;
#212 = EDGE_CURVE ( 'NONE', #108, #79, #96, .T. ) ;
#213 = APPLICATION_PROTOCOL_DEFINITION ( 'international standard', 'config_control_design', 1994, #284 ) ;
#214 = CARTESIAN_POINT ( 'NONE',  ( 4.500000000000000000, 5.510910596163088569E-16, 82.00000000000000000 ) ) ;
#215 = COORDINATED_UNIVERSAL_TIME_OFFSET ( 1, 0, .AHEAD. ) ;
#216 = AXIS2_PLACEMENT_3D ( 'NONE', #348, #200, #319 ) ;
#217 = VECTOR ( 'NONE', #35, 1000.000000000000000 ) ;
#218 = DIRECTION ( 'NONE',  ( 0.000000000000000000, 0.000000000000000000, 1.000000000000000000 ) ) ;
#219 = LOCAL_TIME ( 16, 28, 21.00000000000000000, #140 ) ;
#220 = CARTESIAN_POINT ( 'NONE',  ( 0.000000000000000000, 0.000000000000000000, 7.000000000000000000 ) ) ;
#221 = EDGE_CURVE ( 'NONE', #339, #118, #347, .T. ) ;
#222 = LINE ( 'NONE', #189, #142 ) ;
#223 = EDGE_LOOP ( 'NONE', ( #136, #141 ) ) ;
#224 = PERSON_AND_ORGANIZATION ( #361, #25 ) ;
#225 = SECURITY_CLASSIFICATION ( '', '', #365 ) ;
#226 = CARTESIAN_POINT ( 'NONE',  ( 0.000000000000000000, 0.000000000000000000, 7.000000000000000000 ) ) ;
#227 = EDGE_LOOP ( 'NONE', ( #110, #195 ) ) ;
#228 = CARTESIAN_POINT ( 'NONE',  ( 6.700000000000001066, 0.000000000000000000, 7.699999999999998401 ) ) ;
#229 = EDGE_LOOP ( 'NONE', ( #196, #294 ) ) ;
#230 = EDGE_LOOP ( 'NONE', ( #163, #373, #263, #19 ) ) ;
#231 = CIRCLE ( 'NONE', #50, 0.7000000000000000666 ) ;
#232 = ADVANCED_FACE ( 'NONE', ( #331, #12 ), #71, .T. ) ;
#233 = CARTESIAN_POINT ( 'NONE',  ( 4.500000000000000000, 5.510910596163088569E-16, 0.000000000000000000 ) ) ;
#234 = APPROVAL_ROLE ( '' ) ;
#235 = EDGE_LOOP ( 'NONE', ( #342, #344 ) ) ;
#236 = CC_DESIGN_APPROVAL ( #120, ( #128 ) ) ;
#237 = PLANE ( 'NONE',  #90 ) ;
#238 = ADVANCED_FACE ( 'NONE', ( #364 ), #47, .T. ) ;
#239 = CARTESIAN_POINT ( 'NONE',  ( 0.000000000000000000, 0.000000000000000000, 7.000000000000000000 ) ) ;
#240 = CARTESIAN_POINT ( 'NONE',  ( 0.000000000000000000, 0.000000000000000000, 82.00000000000000000 ) ) ;
#241 = APPROVAL_STATUS ( 'not_yet_approved' ) ;
#242 = PRODUCT_DEFINITION_SHAPE ( 'NONE', 'NONE',  #58 ) ;
#243 = CARTESIAN_POINT ( 'NONE',  ( 0.000000000000000000, 0.000000000000000000, 0.000000000000000000 ) ) ;
#244 =( NAMED_UNIT ( * ) SI_UNIT ( $, .STERADIAN. ) SOLID_ANGLE_UNIT ( ) );
#245 = DIRECTION ( 'NONE',  ( -0.000000000000000000, -0.000000000000000000, -1.000000000000000000 ) ) ;
#246 = APPROVAL_ROLE ( '' ) ;
#247 = DIRECTION ( 'NONE',  ( 1.000000000000000000, 0.000000000000000000, -0.000000000000000000 ) ) ;
#248 = CARTESIAN_POINT ( 'NONE',  ( 0.000000000000000000, 0.000000000000000000, 82.00000000000000000 ) ) ;
#249 = CC_DESIGN_APPROVAL ( #302, ( #58 ) ) ;
#250 = SHAPE_DEFINITION_REPRESENTATION ( #242, #63 ) ;
#251 = EDGE_CURVE ( 'NONE', #313, #79, #367, .T. ) ;
#252 = DIRECTION ( 'NONE',  ( -0.000000000000000000, -0.000000000000000000, -1.000000000000000000 ) ) ;
#253 = CARTESIAN_POINT ( 'NONE',  ( -10.00000000000000000, 0.000000000000000000, 7.000000000000000000 ) ) ;
#254 = ORIENTED_EDGE ( 'NONE', *, *, #86, .F. ) ;
#255 = ORIENTED_EDGE ( 'NONE', *, *, #212, .T. ) ;
#256 = VERTEX_POINT ( 'NONE', #20 ) ;
#257 = AXIS2_PLACEMENT_3D ( 'NONE', #208, #296, #174 ) ;
#258 = EDGE_CURVE ( 'NONE', #8, #326, #68, .T. ) ;
#259 = AXIS2_PLACEMENT_3D ( 'NONE', #372, #338, #369 ) ;
#260 = APPLICATION_CONTEXT ( 'configuration controlled 3d designs of mechanical parts and assemblies' ) ;
#261 = PERSON_AND_ORGANIZATION ( #361, #25 ) ;
#262 = ORIENTED_EDGE ( 'NONE', *, *, #330, .F. ) ;
#263 = ORIENTED_EDGE ( 'NONE', *, *, #334, .T. ) ;
#264 = EDGE_CURVE ( 'NONE', #21, #256, #93, .T. ) ;
#265 = PRODUCT ( '700a', '700a', '', ( #352 ) ) ;
#266 = VECTOR ( 'NONE', #362, 1000.000000000000000 ) ;
#267 = FACE_OUTER_BOUND ( 'NONE', #83, .T. ) ;
#268 = CARTESIAN_POINT ( 'NONE',  ( -4.500000000000000000, 0.000000000000000000, 82.00000000000000000 ) ) ;
#269 = FACE_OUTER_BOUND ( 'NONE', #173, .T. ) ;
#270 =( LENGTH_UNIT ( ) NAMED_UNIT ( * ) SI_UNIT ( .MILLI., .METRE. ) );
#271 = DIRECTION ( 'NONE',  ( 0.000000000000000000, 0.000000000000000000, 1.000000000000000000 ) ) ;
#272 = LINE ( 'NONE', #9, #158 ) ;
#273 = DATE_AND_TIME ( #39, #34 ) ;
#274 = CARTESIAN_POINT ( 'NONE',  ( 0.000000000000000000, 0.000000000000000000, 7.699999999999998401 ) ) ;
#275 = ADVANCED_FACE ( 'NONE', ( #285 ), #72, .F. ) ;
#276 = APPROVAL_DATE_TIME ( #273, #318 ) ;
#277 = AXIS2_PLACEMENT_3D ( 'NONE', #32, #353, #114 ) ;
#278 = DIRECTION ( 'NONE',  ( 1.000000000000000000, 0.000000000000000000, 0.000000000000000000 ) ) ;
#279 = DIRECTION ( 'NONE',  ( 0.000000000000000000, -1.000000000000000000, 0.000000000000000000 ) ) ;
#280 = PRODUCT_RELATED_PRODUCT_CATEGORY ( 'detail', '', ( #265 ) ) ;
#281 = DIRECTION ( 'NONE',  ( -0.000000000000000000, -0.000000000000000000, -1.000000000000000000 ) ) ;
#282 = VERTEX_POINT ( 'NONE', #317 ) ;
#283 = CC_DESIGN_APPROVAL ( #318, ( #225 ) ) ;
#284 = APPLICATION_CONTEXT ( 'configuration controlled 3d designs of mechanical parts and assemblies' ) ;
#285 = FACE_OUTER_BOUND ( 'NONE', #381, .T. ) ;
#286 = ORIENTED_EDGE ( 'NONE', *, *, #29, .F. ) ;
#287 = CC_DESIGN_PERSON_AND_ORGANIZATION_ASSIGNMENT ( #261, #54, ( #58 ) ) ;
#288 = PERSON_AND_ORGANIZATION_ROLE ( 'design_owner' ) ;
#289 = FACE_BOUND ( 'NONE', #235, .T. ) ;
#290 = TOROIDAL_SURFACE ( 'NONE', #216, 6.700000000000001066, 0.6999999999999999556 ) ;
#291 = DIRECTION ( 'NONE',  ( -1.000000000000000000, 0.000000000000000000, 0.000000000000000000 ) ) ;
#292 = EDGE_CURVE ( 'NONE', #326, #339, #222, .T. ) ;
#293 = LINE ( 'NONE', #31, #217 ) ;
#294 = ORIENTED_EDGE ( 'NONE', *, *, #258, .T. ) ;
#295 = CIRCLE ( 'NONE', #165, 4.500000000000000000 ) ;
#296 = DIRECTION ( 'NONE',  ( 0.000000000000000000, 0.000000000000000000, 1.000000000000000000 ) ) ;
#297 = DIRECTION ( 'NONE',  ( -1.000000000000000000, 1.224646799147353454E-16, 0.000000000000000000 ) ) ;
#298 = DIRECTION ( 'NONE',  ( 0.000000000000000000, 0.000000000000000000, 1.000000000000000000 ) ) ;
#299 = DATE_AND_TIME ( #304, #379 ) ;
#300 = DIRECTION ( 'NONE',  ( 0.000000000000000000, 0.000000000000000000, 1.000000000000000000 ) ) ;
#301 = AXIS2_PLACEMENT_3D ( 'NONE', #199, #312, #105 ) ;
#302 = APPROVAL ( #332, 'NEURÈENÝ' ) ;
#303 = CARTESIAN_POINT ( 'NONE',  ( 4.500000000000000000, 5.510910596163088569E-16, 82.00000000000000000 ) ) ;
#304 = CALENDAR_DATE ( 2022, 8, 7 ) ;
#305 = CARTESIAN_POINT ( 'NONE',  ( 0.000000000000000000, 0.000000000000000000, 7.699999999999998401 ) ) ;
#306 = DATE_TIME_ROLE ( 'classification_date' ) ;
#307 = CIRCLE ( 'NONE', #46, 0.7000000000000000666 ) ;
#308 = DIRECTION ( 'NONE',  ( 0.000000000000000000, 0.000000000000000000, 1.000000000000000000 ) ) ;
#309 = ORIENTED_EDGE ( 'NONE', *, *, #29, .T. ) ;
#310 = AXIS2_PLACEMENT_3D ( 'NONE', #181, #69, #278 ) ;
#311 = PERSON_AND_ORGANIZATION_ROLE ( 'design_supplier' ) ;
#312 = DIRECTION ( 'NONE',  ( 0.000000000000000000, 0.000000000000000000, -1.000000000000000000 ) ) ;
#313 = VERTEX_POINT ( 'NONE', #51 ) ;
#314 = AXIS2_PLACEMENT_3D ( 'NONE', #248, #335, #156 ) ;
#315 = AXIS2_PLACEMENT_3D ( 'NONE', #243, #360, #329 ) ;
#316 = MANIFOLD_SOLID_BREP ( 'Odebrat vysunutím3', #66 ) ;
#317 = CARTESIAN_POINT ( 'NONE',  ( -6.000000000000000888, 0.000000000000000000, 7.699999999999998401 ) ) ;
#318 = APPROVAL ( #127, 'NEURÈENÝ' ) ;
#319 = DIRECTION ( 'NONE',  ( 1.000000000000000000, 0.000000000000000000, 0.000000000000000000 ) ) ;
#320 = APPROVAL_DATE_TIME ( #349, #302 ) ;
#321 = PLANE ( 'NONE',  #55 ) ;
#322 = CC_DESIGN_PERSON_AND_ORGANIZATION_ASSIGNMENT ( #203, #288, ( #265 ) ) ;
#323 = CIRCLE ( 'NONE', #103, 6.000000000000000888 ) ;
#324 = COORDINATED_UNIVERSAL_TIME_OFFSET ( 1, 0, .AHEAD. ) ;
#325 = EDGE_LOOP ( 'NONE', ( #286, #106, #357, #116 ) ) ;
#326 = VERTEX_POINT ( 'NONE', #253 ) ;
#327 = FACE_OUTER_BOUND ( 'NONE', #230, .T. ) ;
#328 = APPROVAL_PERSON_ORGANIZATION ( #144, #302, #234 ) ;
#329 = DIRECTION ( 'NONE',  ( 1.000000000000000000, 0.000000000000000000, 0.000000000000000000 ) ) ;
#330 = EDGE_CURVE ( 'NONE', #59, #108, #355, .T. ) ;
#331 = FACE_BOUND ( 'NONE', #104, .T. ) ;
#332 = APPROVAL_STATUS ( 'not_yet_approved' ) ;
#333 = DIRECTION ( 'NONE',  ( 1.224646799147353207E-16, 1.000000000000000000, -0.000000000000000000 ) ) ;
#334 = EDGE_CURVE ( 'NONE', #164, #21, #231, .T. ) ;
#335 = DIRECTION ( 'NONE',  ( -0.000000000000000000, -0.000000000000000000, -1.000000000000000000 ) ) ;
#336 = AXIS2_PLACEMENT_3D ( 'NONE', #305, #42, #124 ) ;
#337 = DIRECTION ( 'NONE',  ( -1.000000000000000000, 0.000000000000000000, 0.000000000000000000 ) ) ;
#338 = DIRECTION ( 'NONE',  ( -0.000000000000000000, -0.000000000000000000, -1.000000000000000000 ) ) ;
#339 = VERTEX_POINT ( 'NONE', #343 ) ;
#340 = AXIS2_PLACEMENT_3D ( 'NONE', #220, #245, #337 ) ;
#341 = LINE ( 'NONE', #78, #5 ) ;
#342 = ORIENTED_EDGE ( 'NONE', *, *, #251, .F. ) ;
#343 = CARTESIAN_POINT ( 'NONE',  ( -10.00000000000000000, 0.000000000000000000, 0.000000000000000000 ) ) ;
#344 = ORIENTED_EDGE ( 'NONE', *, *, #345, .F. ) ;
#345 = EDGE_CURVE ( 'NONE', #79, #313, #295, .T. ) ;
#346 = CARTESIAN_POINT ( 'NONE',  ( 0.000000000000000000, 0.000000000000000000, 7.000000000000000000 ) ) ;
#347 = CIRCLE ( 'NONE', #315, 10.00000000000000000 ) ;
#348 = CARTESIAN_POINT ( 'NONE',  ( 0.000000000000000000, 0.000000000000000000, 7.699999999999998401 ) ) ;
#349 = DATE_AND_TIME ( #380, #219 ) ;
#350 = FACE_BOUND ( 'NONE', #223, .T. ) ;
#351 = EDGE_CURVE ( 'NONE', #256, #21, #192, .T. ) ;
#352 = MECHANICAL_CONTEXT ( 'NONE', #260, 'mechanical' ) ;
#353 = DIRECTION ( 'NONE',  ( 0.000000000000000000, 0.000000000000000000, 1.000000000000000000 ) ) ;
#354 = AXIS2_PLACEMENT_3D ( 'NONE', #134, #308, #159 ) ;
#355 = CIRCLE ( 'NONE', #354, 4.500000000000000000 ) ;
#356 = ORIENTED_EDGE ( 'NONE', *, *, #86, .T. ) ;
#357 = ORIENTED_EDGE ( 'NONE', *, *, #292, .T. ) ;
#358 = DESIGN_CONTEXT ( 'detailed design', #284, 'design' ) ;
#359 = CARTESIAN_POINT ( 'NONE',  ( 10.00000000000000000, 1.224646799147353256E-15, 0.000000000000000000 ) ) ;
#360 = DIRECTION ( 'NONE',  ( 0.000000000000000000, 0.000000000000000000, 1.000000000000000000 ) ) ;
#361 = PERSON ( 'NEURÈENÝ', 'NEURÈENÝ', 'NEURÈENÝ', ('NEURÈENÝ'), ('NEURÈENÝ'), ('NEURÈENÝ') ) ;
#362 = DIRECTION ( 'NONE',  ( 0.000000000000000000, 0.000000000000000000, -1.000000000000000000 ) ) ;
#363 = CC_DESIGN_DATE_AND_TIME_ASSIGNMENT ( #299, #306, ( #225 ) ) ;
#364 = FACE_OUTER_BOUND ( 'NONE', #370, .T. ) ;
#365 = SECURITY_CLASSIFICATION_LEVEL ( 'unclassified' ) ;
#366 = CIRCLE ( 'NONE', #277, 10.00000000000000000 ) ;
#367 = CIRCLE ( 'NONE', #259, 4.500000000000000000 ) ;
#368 = DIRECTION ( 'NONE',  ( -0.000000000000000000, -0.000000000000000000, -1.000000000000000000 ) ) ;
#369 = DIRECTION ( 'NONE',  ( 1.000000000000000000, 0.000000000000000000, 0.000000000000000000 ) ) ;
#370 = EDGE_LOOP ( 'NONE', ( #44, #167, #139, #26 ) ) ;
#371 = APPROVAL_DATE_TIME ( #130, #120 ) ;
#372 = CARTESIAN_POINT ( 'NONE',  ( 0.000000000000000000, 0.000000000000000000, 0.000000000000000000 ) ) ;
#373 = ORIENTED_EDGE ( 'NONE', *, *, #99, .F. ) ;
#374 = AXIS2_PLACEMENT_3D ( 'NONE', #137, #368, #378 ) ;
#375 = DIRECTION ( 'NONE',  ( 0.000000000000000000, 0.000000000000000000, 1.000000000000000000 ) ) ;
#376 = EDGE_LOOP ( 'NONE', ( #169, #24, #193, #52 ) ) ;
#377 = EDGE_CURVE ( 'NONE', #30, #282, #341, .T. ) ;
#378 = DIRECTION ( 'NONE',  ( -1.000000000000000000, 0.000000000000000000, 0.000000000000000000 ) ) ;
#379 = LOCAL_TIME ( 16, 28, 21.00000000000000000, #215 ) ;
#380 = CALENDAR_DATE ( 2022, 8, 7 ) ;
#381 = EDGE_LOOP ( 'NONE', ( #176, #2, #356, #145 ) ) ;
ENDSEC;
END-ISO-10303-21;
