ISO-10303-21;
HEADER;
FILE_DESCRIPTION (( 'STEP AP203' ),
    '1' );
FILE_NAME ('3d61.STEP',
    '2022-07-08T14:22:29',
    ( '' ),
    ( '' ),
    'SwSTEP 2.0',
    'SolidWorks 2019',
    '' );
FILE_SCHEMA (( 'CONFIG_CONTROL_DESIGN' ));
ENDSEC;

DATA;
#1 = EDGE_LOOP ( 'NONE', ( #330, #150, #268, #239 ) ) ;
#2 = DIRECTION ( 'NONE',  ( 0.000000000000000000, 0.000000000000000000, 1.000000000000000000 ) ) ;
#3 = VERTEX_POINT ( 'NONE', #300 ) ;
#4 = EDGE_CURVE ( 'NONE', #3, #270, #242, .T. ) ;
#5 = ORIENTED_EDGE ( 'NONE', *, *, #220, .T. ) ;
#6 = ORIENTED_EDGE ( 'NONE', *, *, #380, .T. ) ;
#7 = AXIS2_PLACEMENT_3D ( 'NONE', #39, #164, #219 ) ;
#8 = DIRECTION ( 'NONE',  ( 0.000000000000000000, 0.000000000000000000, 1.000000000000000000 ) ) ;
#9 = DIRECTION ( 'NONE',  ( -1.000000000000000000, 0.000000000000000000, 0.000000000000000000 ) ) ;
#10 = APPROVAL_PERSON_ORGANIZATION ( #253, #336, #48 ) ;
#11 = EDGE_CURVE ( 'NONE', #31, #211, #101, .T. ) ;
#12 = DIRECTION ( 'NONE',  ( -0.000000000000000000, -0.000000000000000000, -1.000000000000000000 ) ) ;
#13 = CLOSED_SHELL ( 'NONE', ( #16, #181, #277, #238, #325, #245, #121, #157, #165, #74, #232 ) ) ;
#14 = FACE_OUTER_BOUND ( 'NONE', #63, .T. ) ;
#15 = AXIS2_PLACEMENT_3D ( 'NONE', #312, #55, #85 ) ;
#16 = ADVANCED_FACE ( 'NONE', ( #366 ), #360, .F. ) ;
#17 = AXIS2_PLACEMENT_3D ( 'NONE', #315, #229, #125 ) ;
#18 = APPROVAL_STATUS ( 'not_yet_approved' ) ;
#19 = DIRECTION ( 'NONE',  ( 0.000000000000000000, 0.000000000000000000, 1.000000000000000000 ) ) ;
#20 = AXIS2_PLACEMENT_3D ( 'NONE', #160, #46, #273 ) ;
#21 = EDGE_CURVE ( 'NONE', #104, #56, #75, .T. ) ;
#22 = DIRECTION ( 'NONE',  ( 0.000000000000000000, 0.000000000000000000, -1.000000000000000000 ) ) ;
#23 = CARTESIAN_POINT ( 'NONE',  ( 0.000000000000000000, 0.000000000000000000, 7.699999999999985079 ) ) ;
#24 = LINE ( 'NONE', #57, #231 ) ;
#25 = VERTEX_POINT ( 'NONE', #192 ) ;
#26 = DIRECTION ( 'NONE',  ( -1.000000000000000000, 0.000000000000000000, 0.000000000000000000 ) ) ;
#27 = ORIENTED_EDGE ( 'NONE', *, *, #151, .F. ) ;
#28 = CC_DESIGN_PERSON_AND_ORGANIZATION_ASSIGNMENT ( #197, #82, ( #99 ) ) ;
#29 = DIRECTION ( 'NONE',  ( 1.000000000000000000, 0.000000000000000000, 0.000000000000000000 ) ) ;
#30 = FACE_OUTER_BOUND ( 'NONE', #348, .T. ) ;
#31 = VERTEX_POINT ( 'NONE', #109 ) ;
#32 = ORGANIZATION ( 'NEURÈENÝ', 'NEURÈENÝ', '' ) ;
#33 = CYLINDRICAL_SURFACE ( 'NONE', #193, 7.000000000000000888 ) ;
#34 = EDGE_LOOP ( 'NONE', ( #292, #264 ) ) ;
#35 = CARTESIAN_POINT ( 'NONE',  ( 0.000000000000000000, 0.000000000000000000, 7.699999999999985079 ) ) ;
#36 = ORIENTED_EDGE ( 'NONE', *, *, #115, .F. ) ;
#37 = ORIENTED_EDGE ( 'NONE', *, *, #78, .T. ) ;
#38 = DIRECTION ( 'NONE',  ( 0.000000000000000000, 0.000000000000000000, 1.000000000000000000 ) ) ;
#39 = CARTESIAN_POINT ( 'NONE',  ( 0.000000000000000000, 0.000000000000000000, 0.000000000000000000 ) ) ;
#40 = EDGE_CURVE ( 'NONE', #124, #31, #328, .T. ) ;
#41 =( LENGTH_UNIT ( ) NAMED_UNIT ( * ) SI_UNIT ( .MILLI., .METRE. ) );
#42 = CARTESIAN_POINT ( 'NONE',  ( -5.000000000000000000, 0.000000000000000000, 457.0000000000000000 ) ) ;
#43 = DIRECTION ( 'NONE',  ( 1.000000000000000000, 0.000000000000000000, 0.000000000000000000 ) ) ;
#44 = DIRECTION ( 'NONE',  ( 0.000000000000000000, 0.000000000000000000, -1.000000000000000000 ) ) ;
#45 = PERSON_AND_ORGANIZATION ( #201, #32 ) ;
#46 = DIRECTION ( 'NONE',  ( 0.000000000000000000, 0.000000000000000000, 1.000000000000000000 ) ) ;
#47 = CC_DESIGN_DATE_AND_TIME_ASSIGNMENT ( #257, #374, ( #99 ) ) ;
#48 = APPROVAL_ROLE ( '' ) ;
#49 = DIRECTION ( 'NONE',  ( 0.000000000000000000, 0.000000000000000000, 1.000000000000000000 ) ) ;
#50 = DIRECTION ( 'NONE',  ( -1.000000000000000000, 0.000000000000000000, 0.000000000000000000 ) ) ;
#51 = CC_DESIGN_PERSON_AND_ORGANIZATION_ASSIGNMENT ( #156, #217, ( #335 ) ) ;
#52 = CALENDAR_DATE ( 2022, 8, 7 ) ;
#53 = LINE ( 'NONE', #119, #155 ) ;
#54 = DATE_AND_TIME ( #52, #338 ) ;
#55 = DIRECTION ( 'NONE',  ( 0.000000000000000000, 0.000000000000000000, 1.000000000000000000 ) ) ;
#56 = VERTEX_POINT ( 'NONE', #255 ) ;
#57 = CARTESIAN_POINT ( 'NONE',  ( 7.000000000000000888, 8.572527594031474176E-16, 457.0000000000000000 ) ) ;
#58 = LOCAL_TIME ( 16, 22, 29.00000000000000000, #371 ) ;
#59 = CIRCLE ( 'NONE', #97, 7.000000000000000888 ) ;
#60 = CARTESIAN_POINT ( 'NONE',  ( 7.000000000000000888, 8.572527594031474176E-16, 457.0000000000000000 ) ) ;
#61 = CIRCLE ( 'NONE', #20, 5.000000000000000000 ) ;
#62 = ORIENTED_EDGE ( 'NONE', *, *, #40, .F. ) ;
#63 = EDGE_LOOP ( 'NONE', ( #130, #314 ) ) ;
#64 = CARTESIAN_POINT ( 'NONE',  ( 0.000000000000000000, 0.000000000000000000, 7.000000000000000000 ) ) ;
#65 = AXIS2_PLACEMENT_3D ( 'NONE', #215, #8, #43 ) ;
#66 = ORIENTED_EDGE ( 'NONE', *, *, #290, .F. ) ;
#67 = EDGE_CURVE ( 'NONE', #56, #104, #313, .T. ) ;
#68 = DIRECTION ( 'NONE',  ( 1.000000000000000000, 0.000000000000000000, 0.000000000000000000 ) ) ;
#69 = ORIENTED_EDGE ( 'NONE', *, *, #11, .T. ) ;
#70 = EDGE_LOOP ( 'NONE', ( #318, #6 ) ) ;
#71 = AXIS2_PLACEMENT_3D ( 'NONE', #147, #92, #26 ) ;
#72 = CC_DESIGN_APPROVAL ( #362, ( #105 ) ) ;
#73 = CARTESIAN_POINT ( 'NONE',  ( 0.000000000000000000, 0.000000000000000000, 0.000000000000000000 ) ) ;
#74 = ADVANCED_FACE ( 'NONE', ( #30 ), #342, .F. ) ;
#75 = CIRCLE ( 'NONE', #7, 11.00000000000000000 ) ;
#76 = PERSON_AND_ORGANIZATION_ROLE ( 'creator' ) ;
#77 = PRODUCT_DEFINITION_SHAPE ( 'NONE', 'NONE',  #105 ) ;
#78 = EDGE_CURVE ( 'NONE', #316, #286, #357, .T. ) ;
#79 = DIRECTION ( 'NONE',  ( 1.000000000000000000, 0.000000000000000000, 0.000000000000000000 ) ) ;
#80 = DIRECTION ( 'NONE',  ( 0.000000000000000000, -1.000000000000000000, 0.000000000000000000 ) ) ;
#81 = AXIS2_PLACEMENT_3D ( 'NONE', #276, #12, #167 ) ;
#82 = PERSON_AND_ORGANIZATION_ROLE ( 'classification_officer' ) ;
#83 = DIRECTION ( 'NONE',  ( 1.000000000000000000, 0.000000000000000000, 0.000000000000000000 ) ) ;
#84 = CARTESIAN_POINT ( 'NONE',  ( 0.000000000000000000, 0.000000000000000000, 457.0000000000000000 ) ) ;
#85 = DIRECTION ( 'NONE',  ( 1.000000000000000000, 0.000000000000000000, -0.000000000000000000 ) ) ;
#86 = EDGE_CURVE ( 'NONE', #310, #379, #61, .T. ) ;
#87 = FACE_OUTER_BOUND ( 'NONE', #128, .T. ) ;
#88 = DIRECTION ( 'NONE',  ( 0.000000000000000000, 0.000000000000000000, 1.000000000000000000 ) ) ;
#89 = CYLINDRICAL_SURFACE ( 'NONE', #199, 7.000000000000000888 ) ;
#90 = EDGE_LOOP ( 'NONE', ( #120, #294, #261, #37 ) ) ;
#91 = EDGE_CURVE ( 'NONE', #310, #316, #363, .T. ) ;
#92 = DIRECTION ( 'NONE',  ( -0.000000000000000000, -0.000000000000000000, -1.000000000000000000 ) ) ;
#93 = VECTOR ( 'NONE', #260, 1000.000000000000000 ) ;
#94 = DIRECTION ( 'NONE',  ( -0.000000000000000000, -0.000000000000000000, -1.000000000000000000 ) ) ;
#95 = ORIENTED_EDGE ( 'NONE', *, *, #11, .F. ) ;
#96 = EDGE_CURVE ( 'NONE', #183, #211, #288, .T. ) ;
#97 = AXIS2_PLACEMENT_3D ( 'NONE', #35, #233, #68 ) ;
#98 = ORIENTED_EDGE ( 'NONE', *, *, #4, .T. ) ;
#99 = SECURITY_CLASSIFICATION ( '', '', #168 ) ;
#100 = DIRECTION ( 'NONE',  ( 0.000000000000000000, 0.000000000000000000, 1.000000000000000000 ) ) ;
#101 = CIRCLE ( 'NONE', #81, 7.700000000000001066 ) ;
#102 = ORIENTED_EDGE ( 'NONE', *, *, #307, .F. ) ;
#103 = APPROVAL_DATE_TIME ( #356, #362 ) ;
#104 = VERTEX_POINT ( 'NONE', #275 ) ;
#105 = PRODUCT_DEFINITION ( 'NEZNÁMÝ', '', #140, #339 ) ;
#106 = CC_DESIGN_APPROVAL ( #248, ( #140 ) ) ;
#107 = APPLICATION_PROTOCOL_DEFINITION ( 'international standard', 'config_control_design', 1994, #184 ) ;
#108 = CARTESIAN_POINT ( 'NONE',  ( 0.000000000000000000, 0.000000000000000000, 7.000000000000000000 ) ) ;
#109 = CARTESIAN_POINT ( 'NONE',  ( 7.700000000000001066, 0.000000000000000000, 6.999999999999992006 ) ) ;
#110 = PERSON_AND_ORGANIZATION_ROLE ( 'creator' ) ;
#111 = CARTESIAN_POINT ( 'NONE',  ( -7.000000000000000888, 0.000000000000000000, 7.699999999999985079 ) ) ;
#112 = CARTESIAN_POINT ( 'NONE',  ( 0.000000000000000000, 0.000000000000000000, 457.0000000000000000 ) ) ;
#113 = DATE_AND_TIME ( #116, #58 ) ;
#114 = FACE_BOUND ( 'NONE', #208, .T. ) ;
#115 = EDGE_CURVE ( 'NONE', #211, #31, #359, .T. ) ;
#116 = CALENDAR_DATE ( 2022, 8, 7 ) ;
#117 = DIRECTION ( 'NONE',  ( 1.000000000000000000, 0.000000000000000000, 0.000000000000000000 ) ) ;
#118 = AXIS2_PLACEMENT_3D ( 'NONE', #108, #38, #364 ) ;
#119 = CARTESIAN_POINT ( 'NONE',  ( 11.00000000000000000, 1.347111479062088405E-15, 7.000000000000000000 ) ) ;
#120 = ORIENTED_EDGE ( 'NONE', *, *, #220, .F. ) ;
#121 = ADVANCED_FACE ( 'NONE', ( #343, #14 ), #139, .F. ) ;
#122 = CARTESIAN_POINT ( 'NONE',  ( -5.000000000000000000, 0.000000000000000000, 457.0000000000000000 ) ) ;
#123 = CIRCLE ( 'NONE', #353, 7.000000000000000888 ) ;
#124 = VERTEX_POINT ( 'NONE', #249 ) ;
#125 = DIRECTION ( 'NONE',  ( 1.000000000000000000, 0.000000000000000000, 0.000000000000000000 ) ) ;
#126 = ORIENTED_EDGE ( 'NONE', *, *, #4, .F. ) ;
#127 = FACE_OUTER_BOUND ( 'NONE', #1, .T. ) ;
#128 = EDGE_LOOP ( 'NONE', ( #102, #153, #358, #145 ) ) ;
#129 = APPROVAL_ROLE ( '' ) ;
#130 = ORIENTED_EDGE ( 'NONE', *, *, #67, .F. ) ;
#131 = COORDINATED_UNIVERSAL_TIME_OFFSET ( 1, 0, .AHEAD. ) ;
#132 = DIRECTION ( 'NONE',  ( 1.000000000000000000, 0.000000000000000000, 0.000000000000000000 ) ) ;
#133 = CARTESIAN_POINT ( 'NONE',  ( 7.700000000000001066, 0.000000000000000000, 7.699999999999985079 ) ) ;
#134 = APPROVAL_PERSON_ORGANIZATION ( #45, #248, #368 ) ;
#135 = AXIS2_PLACEMENT_3D ( 'NONE', #179, #263, #381 ) ;
#136 =( NAMED_UNIT ( * ) PLANE_ANGLE_UNIT ( ) SI_UNIT ( $, .RADIAN. ) );
#137 = UNCERTAINTY_MEASURE_WITH_UNIT (LENGTH_MEASURE( 1.000000000000000082E-05 ), #41, 'distance_accuracy_value', 'NONE');
#138 = AXIS2_PLACEMENT_3D ( 'NONE', #163, #196, #166 ) ;
#139 = PLANE ( 'NONE',  #15 ) ;
#140 = PRODUCT_DEFINITION_FORMATION_WITH_SPECIFIED_SOURCE ( 'LIBOVOLNÝ', '', #335, .NOT_KNOWN. ) ;
#141 = CIRCLE ( 'NONE', #346, 11.00000000000000000 ) ;
#142 = COORDINATED_UNIVERSAL_TIME_OFFSET ( 1, 0, .AHEAD. ) ;
#143 = CC_DESIGN_SECURITY_CLASSIFICATION ( #99, ( #140 ) ) ;
#144 = DIRECTION ( 'NONE',  ( 0.000000000000000000, 0.000000000000000000, 1.000000000000000000 ) ) ;
#145 = ORIENTED_EDGE ( 'NONE', *, *, #297, .F. ) ;
#146 = CARTESIAN_POINT ( 'NONE',  ( 0.000000000000000000, 0.000000000000000000, 7.000000000000000000 ) ) ;
#147 = CARTESIAN_POINT ( 'NONE',  ( 0.000000000000000000, 0.000000000000000000, 7.000000000000000000 ) ) ;
#148 = ORIENTED_EDGE ( 'NONE', *, *, #86, .T. ) ;
#149 = DIRECTION ( 'NONE',  ( 1.000000000000000000, 0.000000000000000000, 0.000000000000000000 ) ) ;
#150 = ORIENTED_EDGE ( 'NONE', *, *, #302, .T. ) ;
#151 = EDGE_CURVE ( 'NONE', #270, #104, #53, .T. ) ;
#152 = AXIS2_PLACEMENT_3D ( 'NONE', #341, #88, #176 ) ;
#153 = ORIENTED_EDGE ( 'NONE', *, *, #151, .T. ) ;
#154 = ORIENTED_EDGE ( 'NONE', *, *, #307, .T. ) ;
#155 = VECTOR ( 'NONE', #200, 1000.000000000000000 ) ;
#156 = PERSON_AND_ORGANIZATION ( #201, #32 ) ;
#157 = ADVANCED_FACE ( 'NONE', ( #251 ), #89, .T. ) ;
#158 = EDGE_LOOP ( 'NONE', ( #266, #237, #185, #206 ) ) ;
#159 = CALENDAR_DATE ( 2022, 8, 7 ) ;
#160 = CARTESIAN_POINT ( 'NONE',  ( 0.000000000000000000, 0.000000000000000000, 457.0000000000000000 ) ) ;
#161 = CARTESIAN_POINT ( 'NONE',  ( 0.000000000000000000, 0.000000000000000000, 457.0000000000000000 ) ) ;
#162 =( NAMED_UNIT ( * ) SI_UNIT ( $, .STERADIAN. ) SOLID_ANGLE_UNIT ( ) );
#163 = CARTESIAN_POINT ( 'NONE',  ( -7.700000000000001066, 9.429780353434621002E-16, 7.699999999999985079 ) ) ;
#164 = DIRECTION ( 'NONE',  ( 0.000000000000000000, 0.000000000000000000, 1.000000000000000000 ) ) ;
#165 = ADVANCED_FACE ( 'NONE', ( #309, #205 ), #174, .T. ) ;
#166 = DIRECTION ( 'NONE',  ( -1.000000000000000000, 1.224646799147351975E-16, 0.000000000000000000 ) ) ;
#167 = DIRECTION ( 'NONE',  ( 1.000000000000000000, 0.000000000000000000, 0.000000000000000000 ) ) ;
#168 = SECURITY_CLASSIFICATION_LEVEL ( 'unclassified' ) ;
#169 = DIRECTION ( 'NONE',  ( 0.000000000000000000, 0.000000000000000000, -1.000000000000000000 ) ) ;
#170 = APPROVAL_DATE_TIME ( #113, #336 ) ;
#171 = CARTESIAN_POINT ( 'NONE',  ( 0.000000000000000000, 0.000000000000000000, 457.0000000000000000 ) ) ;
#172 = CYLINDRICAL_SURFACE ( 'NONE', #210, 11.00000000000000000 ) ;
#173 = PERSON_AND_ORGANIZATION_ROLE ( 'design_supplier' ) ;
#174 = PLANE ( 'NONE',  #337 ) ;
#175 = FACE_OUTER_BOUND ( 'NONE', #320, .T. ) ;
#176 = DIRECTION ( 'NONE',  ( 1.000000000000000000, 0.000000000000000000, 0.000000000000000000 ) ) ;
#177 = ORIENTED_EDGE ( 'NONE', *, *, #86, .F. ) ;
#178 = LINE ( 'NONE', #213, #93 ) ;
#179 = CARTESIAN_POINT ( 'NONE',  ( 0.000000000000000000, 0.000000000000000000, 457.0000000000000000 ) ) ;
#180 = ORIENTED_EDGE ( 'NONE', *, *, #319, .F. ) ;
#181 = ADVANCED_FACE ( 'NONE', ( #175 ), #317, .F. ) ;
#182 = CARTESIAN_POINT ( 'NONE',  ( 5.000000000000000000, 6.123233995736766282E-16, 457.0000000000000000 ) ) ;
#183 = VERTEX_POINT ( 'NONE', #111 ) ;
#184 = APPLICATION_CONTEXT ( 'configuration controlled 3d designs of mechanical parts and assemblies' ) ;
#185 = ORIENTED_EDGE ( 'NONE', *, *, #282, .T. ) ;
#186 = APPROVAL_STATUS ( 'not_yet_approved' ) ;
#187 = CC_DESIGN_PERSON_AND_ORGANIZATION_ASSIGNMENT ( #332, #110, ( #140 ) ) ;
#188 = ORIENTED_EDGE ( 'NONE', *, *, #297, .T. ) ;
#189 = CIRCLE ( 'NONE', #17, 5.000000000000000000 ) ;
#190 = DATE_AND_TIME ( #159, #216 ) ;
#191 = DIRECTION ( 'NONE',  ( 0.000000000000000000, 0.000000000000000000, 1.000000000000000000 ) ) ;
#192 = CARTESIAN_POINT ( 'NONE',  ( -7.000000000000000888, 0.000000000000000000, 457.0000000000000000 ) ) ;
#193 = AXIS2_PLACEMENT_3D ( 'NONE', #209, #287, #293 ) ;
#194 = CC_DESIGN_APPROVAL ( #336, ( #99 ) ) ;
#195 = CALENDAR_DATE ( 2022, 8, 7 ) ;
#196 = DIRECTION ( 'NONE',  ( 1.224646799147353207E-16, 1.000000000000000000, -0.000000000000000000 ) ) ;
#197 = PERSON_AND_ORGANIZATION ( #201, #32 ) ;
#198 = LINE ( 'NONE', #252, #301 ) ;
#199 = AXIS2_PLACEMENT_3D ( 'NONE', #112, #306, #340 ) ;
#200 = DIRECTION ( 'NONE',  ( -0.000000000000000000, -0.000000000000000000, -1.000000000000000000 ) ) ;
#201 = PERSON ( 'NEURÈENÝ', 'NEURÈENÝ', 'NEURÈENÝ', ('NEURÈENÝ'), ('NEURÈENÝ'), ('NEURÈENÝ') ) ;
#202 = COORDINATED_UNIVERSAL_TIME_OFFSET ( 1, 0, .AHEAD. ) ;
#203 = DIRECTION ( 'NONE',  ( 0.000000000000000000, 0.000000000000000000, -1.000000000000000000 ) ) ;
#204 = APPLICATION_CONTEXT ( 'configuration controlled 3d designs of mechanical parts and assemblies' ) ;
#205 = FACE_OUTER_BOUND ( 'NONE', #70, .T. ) ;
#206 = ORIENTED_EDGE ( 'NONE', *, *, #290, .T. ) ;
#207 = CARTESIAN_POINT ( 'NONE',  ( 11.00000000000000000, 1.347111479062088405E-15, 7.000000000000000000 ) ) ;
#208 = EDGE_LOOP ( 'NONE', ( #69, #258 ) ) ;
#209 = CARTESIAN_POINT ( 'NONE',  ( 0.000000000000000000, 0.000000000000000000, 457.0000000000000000 ) ) ;
#210 = AXIS2_PLACEMENT_3D ( 'NONE', #369, #372, #227 ) ;
#211 = VERTEX_POINT ( 'NONE', #334 ) ;
#212 = CC_DESIGN_DATE_AND_TIME_ASSIGNMENT ( #190, #333, ( #105 ) ) ;
#213 = CARTESIAN_POINT ( 'NONE',  ( -11.00000000000000000, 0.000000000000000000, 7.000000000000000000 ) ) ;
#214 = ORIENTED_EDGE ( 'NONE', *, *, #373, .F. ) ;
#215 = CARTESIAN_POINT ( 'NONE',  ( 0.000000000000000000, 0.000000000000000000, 0.000000000000000000 ) ) ;
#216 = LOCAL_TIME ( 16, 22, 29.00000000000000000, #296 ) ;
#217 = PERSON_AND_ORGANIZATION_ROLE ( 'design_owner' ) ;
#218 = EDGE_CURVE ( 'NONE', #25, #256, #370, .T. ) ;
#219 = DIRECTION ( 'NONE',  ( 1.000000000000000000, 0.000000000000000000, 0.000000000000000000 ) ) ;
#220 = EDGE_CURVE ( 'NONE', #379, #286, #198, .T. ) ;
#221 = AXIS2_PLACEMENT_3D ( 'NONE', #161, #326, #9 ) ;
#222 = AXIS2_PLACEMENT_3D ( 'NONE', #327, #191, #132 ) ;
#223 = CYLINDRICAL_SURFACE ( 'NONE', #240, 5.000000000000000000 ) ;
#224 = FACE_OUTER_BOUND ( 'NONE', #289, .T. ) ;
#225 = CC_DESIGN_PERSON_AND_ORGANIZATION_ASSIGNMENT ( #324, #76, ( #105 ) ) ;
#226 = APPROVAL_DATE_TIME ( #54, #248 ) ;
#227 = DIRECTION ( 'NONE',  ( -1.000000000000000000, 0.000000000000000000, 0.000000000000000000 ) ) ;
#228 = DIRECTION ( 'NONE',  ( 1.000000000000000000, 0.000000000000000000, 0.000000000000000000 ) ) ;
#229 = DIRECTION ( 'NONE',  ( 0.000000000000000000, 0.000000000000000000, 1.000000000000000000 ) ) ;
#230 = CIRCLE ( 'NONE', #278, 5.000000000000000000 ) ;
#231 = VECTOR ( 'NONE', #241, 1000.000000000000000 ) ;
#232 = ADVANCED_FACE ( 'NONE', ( #304 ), #223, .F. ) ;
#233 = DIRECTION ( 'NONE',  ( 0.000000000000000000, 0.000000000000000000, 1.000000000000000000 ) ) ;
#234 = EDGE_LOOP ( 'NONE', ( #148, #5, #298, #351 ) ) ;
#235 = CARTESIAN_POINT ( 'NONE',  ( 0.000000000000000000, 0.000000000000000000, 7.699999999999985079 ) ) ;
#236 = VECTOR ( 'NONE', #44, 1000.000000000000000 ) ;
#237 = ORIENTED_EDGE ( 'NONE', *, *, #218, .F. ) ;
#238 = ADVANCED_FACE ( 'NONE', ( #87 ), #172, .T. ) ;
#239 = ORIENTED_EDGE ( 'NONE', *, *, #282, .F. ) ;
#240 = AXIS2_PLACEMENT_3D ( 'NONE', #84, #203, #50 ) ;
#241 = DIRECTION ( 'NONE',  ( -0.000000000000000000, -0.000000000000000000, -1.000000000000000000 ) ) ;
#242 = CIRCLE ( 'NONE', #118, 11.00000000000000000 ) ;
#243 = APPLICATION_PROTOCOL_DEFINITION ( 'international standard', 'config_control_design', 1994, #204 ) ;
#244 = ORIENTED_EDGE ( 'NONE', *, *, #96, .F. ) ;
#245 = ADVANCED_FACE ( 'NONE', ( #114, #224 ), #291, .T. ) ;
#246 = ADVANCED_BREP_SHAPE_REPRESENTATION ( '3d61', ( #323, #65 ), #303 ) ;
#247 = CARTESIAN_POINT ( 'NONE',  ( 0.000000000000000000, 0.000000000000000000, 7.000000000000000000 ) ) ;
#248 = APPROVAL ( #367, 'NEURÈENÝ' ) ;
#249 = CARTESIAN_POINT ( 'NONE',  ( 7.000000000000000888, 8.572527594031474176E-16, 7.699999999999985079 ) ) ;
#250 = VECTOR ( 'NONE', #94, 1000.000000000000000 ) ;
#251 = FACE_OUTER_BOUND ( 'NONE', #158, .T. ) ;
#252 = CARTESIAN_POINT ( 'NONE',  ( 5.000000000000000000, 6.123233995736766282E-16, 457.0000000000000000 ) ) ;
#253 = PERSON_AND_ORGANIZATION ( #201, #32 ) ;
#254 = AXIS2_PLACEMENT_3D ( 'NONE', #171, #19, #83 ) ;
#255 = CARTESIAN_POINT ( 'NONE',  ( -11.00000000000000000, 0.000000000000000000, 0.000000000000000000 ) ) ;
#256 = VERTEX_POINT ( 'NONE', #60 ) ;
#257 = DATE_AND_TIME ( #195, #345 ) ;
#258 = ORIENTED_EDGE ( 'NONE', *, *, #115, .T. ) ;
#259 = DIRECTION ( 'NONE',  ( 1.000000000000000000, 0.000000000000000000, 0.000000000000000000 ) ) ;
#260 = DIRECTION ( 'NONE',  ( -0.000000000000000000, -0.000000000000000000, -1.000000000000000000 ) ) ;
#261 = ORIENTED_EDGE ( 'NONE', *, *, #91, .T. ) ;
#262 = LOCAL_TIME ( 16, 22, 29.00000000000000000, #131 ) ;
#263 = DIRECTION ( 'NONE',  ( 0.000000000000000000, 0.000000000000000000, 1.000000000000000000 ) ) ;
#264 = ORIENTED_EDGE ( 'NONE', *, *, #350, .F. ) ;
#265 = CARTESIAN_POINT ( 'NONE',  ( -7.000000000000000888, 0.000000000000000000, 457.0000000000000000 ) ) ;
#266 = ORIENTED_EDGE ( 'NONE', *, *, #302, .F. ) ;
#267 = LINE ( 'NONE', #265, #250 ) ;
#268 = ORIENTED_EDGE ( 'NONE', *, *, #373, .T. ) ;
#269 = AXIS2_PLACEMENT_3D ( 'NONE', #247, #308, #228 ) ;
#270 = VERTEX_POINT ( 'NONE', #207 ) ;
#271 = AXIS2_PLACEMENT_3D ( 'NONE', #133, #80, #169 ) ;
#272 = AXIS2_PLACEMENT_3D ( 'NONE', #73, #299, #79 ) ;
#273 = DIRECTION ( 'NONE',  ( 1.000000000000000000, 0.000000000000000000, 0.000000000000000000 ) ) ;
#274 = AXIS2_PLACEMENT_3D ( 'NONE', #64, #100, #349 ) ;
#275 = CARTESIAN_POINT ( 'NONE',  ( 11.00000000000000000, 1.347111479062088405E-15, 0.000000000000000000 ) ) ;
#276 = CARTESIAN_POINT ( 'NONE',  ( 0.000000000000000000, 0.000000000000000000, 7.000000000000000000 ) ) ;
#277 = ADVANCED_FACE ( 'NONE', ( #127 ), #33, .T. ) ;
#278 = AXIS2_PLACEMENT_3D ( 'NONE', #378, #352, #29 ) ;
#279 = APPROVAL_PERSON_ORGANIZATION ( #321, #362, #129 ) ;
#280 = CIRCLE ( 'NONE', #135, 7.000000000000000888 ) ;
#281 = PERSON_AND_ORGANIZATION ( #201, #32 ) ;
#282 = EDGE_CURVE ( 'NONE', #25, #183, #267, .T. ) ;
#283 = DIRECTION ( 'NONE',  ( 1.000000000000000000, 0.000000000000000000, -0.000000000000000000 ) ) ;
#284 = CARTESIAN_POINT ( 'NONE',  ( 5.000000000000000000, 6.123233995736766282E-16, 0.000000000000000000 ) ) ;
#285 = CYLINDRICAL_SURFACE ( 'NONE', #71, 11.00000000000000000 ) ;
#286 = VERTEX_POINT ( 'NONE', #284 ) ;
#287 = DIRECTION ( 'NONE',  ( -0.000000000000000000, -0.000000000000000000, -1.000000000000000000 ) ) ;
#288 = CIRCLE ( 'NONE', #138, 0.7000000000000000666 ) ;
#289 = EDGE_LOOP ( 'NONE', ( #98, #154 ) ) ;
#290 = EDGE_CURVE ( 'NONE', #183, #124, #59, .T. ) ;
#291 = PLANE ( 'NONE',  #274 ) ;
#292 = ORIENTED_EDGE ( 'NONE', *, *, #78, .F. ) ;
#293 = DIRECTION ( 'NONE',  ( -1.000000000000000000, 0.000000000000000000, 0.000000000000000000 ) ) ;
#294 = ORIENTED_EDGE ( 'NONE', *, *, #319, .T. ) ;
#295 = ORIENTED_EDGE ( 'NONE', *, *, #40, .T. ) ;
#296 = COORDINATED_UNIVERSAL_TIME_OFFSET ( 1, 0, .AHEAD. ) ;
#297 = EDGE_CURVE ( 'NONE', #3, #56, #178, .T. ) ;
#298 = ORIENTED_EDGE ( 'NONE', *, *, #350, .T. ) ;
#299 = DIRECTION ( 'NONE',  ( -0.000000000000000000, -0.000000000000000000, -1.000000000000000000 ) ) ;
#300 = CARTESIAN_POINT ( 'NONE',  ( -11.00000000000000000, 0.000000000000000000, 7.000000000000000000 ) ) ;
#301 = VECTOR ( 'NONE', #22, 1000.000000000000000 ) ;
#302 = EDGE_CURVE ( 'NONE', #256, #124, #24, .T. ) ;
#303 =( GEOMETRIC_REPRESENTATION_CONTEXT ( 3 ) GLOBAL_UNCERTAINTY_ASSIGNED_CONTEXT ( ( #137 ) ) GLOBAL_UNIT_ASSIGNED_CONTEXT ( ( #41, #136, #162 ) ) REPRESENTATION_CONTEXT ( 'NONE', 'WORKASPACE' ) );
#304 = FACE_OUTER_BOUND ( 'NONE', #90, .T. ) ;
#305 = AXIS2_PLACEMENT_3D ( 'NONE', #23, #144, #117 ) ;
#306 = DIRECTION ( 'NONE',  ( -0.000000000000000000, -0.000000000000000000, -1.000000000000000000 ) ) ;
#307 = EDGE_CURVE ( 'NONE', #270, #3, #141, .T. ) ;
#308 = DIRECTION ( 'NONE',  ( -0.000000000000000000, -0.000000000000000000, -1.000000000000000000 ) ) ;
#309 = FACE_BOUND ( 'NONE', #376, .T. ) ;
#310 = VERTEX_POINT ( 'NONE', #122 ) ;
#311 = CC_DESIGN_PERSON_AND_ORGANIZATION_ASSIGNMENT ( #281, #173, ( #140 ) ) ;
#312 = CARTESIAN_POINT ( 'NONE',  ( 0.000000000000000000, 0.000000000000000000, 0.000000000000000000 ) ) ;
#313 = CIRCLE ( 'NONE', #152, 11.00000000000000000 ) ;
#314 = ORIENTED_EDGE ( 'NONE', *, *, #21, .F. ) ;
#315 = CARTESIAN_POINT ( 'NONE',  ( 0.000000000000000000, 0.000000000000000000, 457.0000000000000000 ) ) ;
#316 = VERTEX_POINT ( 'NONE', #377 ) ;
#317 = TOROIDAL_SURFACE ( 'NONE', #305, 7.700000000000001066, 0.6999999999999999556 ) ;
#318 = ORIENTED_EDGE ( 'NONE', *, *, #218, .T. ) ;
#319 = EDGE_CURVE ( 'NONE', #379, #310, #189, .T. ) ;
#320 = EDGE_LOOP ( 'NONE', ( #66, #322, #95, #62 ) ) ;
#321 = PERSON_AND_ORGANIZATION ( #201, #32 ) ;
#322 = ORIENTED_EDGE ( 'NONE', *, *, #96, .T. ) ;
#323 = MANIFOLD_SOLID_BREP ( 'Odebrat vysunutím3', #13 ) ;
#324 = PERSON_AND_ORGANIZATION ( #201, #32 ) ;
#325 = ADVANCED_FACE ( 'NONE', ( #344 ), #285, .T. ) ;
#326 = DIRECTION ( 'NONE',  ( 0.000000000000000000, 0.000000000000000000, -1.000000000000000000 ) ) ;
#327 = CARTESIAN_POINT ( 'NONE',  ( 0.000000000000000000, 0.000000000000000000, 7.699999999999985079 ) ) ;
#328 = CIRCLE ( 'NONE', #271, 0.7000000000000000666 ) ;
#329 = CALENDAR_DATE ( 2022, 8, 7 ) ;
#330 = ORIENTED_EDGE ( 'NONE', *, *, #380, .F. ) ;
#331 = PRODUCT_RELATED_PRODUCT_CATEGORY ( 'detail', '', ( #335 ) ) ;
#332 = PERSON_AND_ORGANIZATION ( #201, #32 ) ;
#333 = DATE_TIME_ROLE ( 'creation_date' ) ;
#334 = CARTESIAN_POINT ( 'NONE',  ( -7.700000000000001066, 9.429780353434621002E-16, 6.999999999999992006 ) ) ;
#335 = PRODUCT ( '3d61', '3d61', '', ( #361 ) ) ;
#336 = APPROVAL ( #18, 'NEURÈENÝ' ) ;
#337 = AXIS2_PLACEMENT_3D ( 'NONE', #375, #49, #283 ) ;
#338 = LOCAL_TIME ( 16, 22, 29.00000000000000000, #202 ) ;
#339 = DESIGN_CONTEXT ( 'detailed design', #204, 'design' ) ;
#340 = DIRECTION ( 'NONE',  ( -1.000000000000000000, 0.000000000000000000, 0.000000000000000000 ) ) ;
#341 = CARTESIAN_POINT ( 'NONE',  ( 0.000000000000000000, 0.000000000000000000, 0.000000000000000000 ) ) ;
#342 = TOROIDAL_SURFACE ( 'NONE', #222, 7.700000000000001066, 0.6999999999999999556 ) ;
#343 = FACE_BOUND ( 'NONE', #34, .T. ) ;
#344 = FACE_OUTER_BOUND ( 'NONE', #355, .T. ) ;
#345 = LOCAL_TIME ( 16, 22, 29.00000000000000000, #142 ) ;
#346 = AXIS2_PLACEMENT_3D ( 'NONE', #146, #2, #259 ) ;
#347 = DIRECTION ( 'NONE',  ( 0.000000000000000000, 0.000000000000000000, 1.000000000000000000 ) ) ;
#348 = EDGE_LOOP ( 'NONE', ( #244, #214, #295, #36 ) ) ;
#349 = DIRECTION ( 'NONE',  ( 1.000000000000000000, 0.000000000000000000, -0.000000000000000000 ) ) ;
#350 = EDGE_CURVE ( 'NONE', #286, #316, #230, .T. ) ;
#351 = ORIENTED_EDGE ( 'NONE', *, *, #91, .F. ) ;
#352 = DIRECTION ( 'NONE',  ( -0.000000000000000000, -0.000000000000000000, -1.000000000000000000 ) ) ;
#353 = AXIS2_PLACEMENT_3D ( 'NONE', #235, #347, #149 ) ;
#354 = ORIENTED_EDGE ( 'NONE', *, *, #67, .T. ) ;
#355 = EDGE_LOOP ( 'NONE', ( #27, #126, #188, #354 ) ) ;
#356 = DATE_AND_TIME ( #329, #262 ) ;
#357 = CIRCLE ( 'NONE', #272, 5.000000000000000000 ) ;
#358 = ORIENTED_EDGE ( 'NONE', *, *, #21, .T. ) ;
#359 = CIRCLE ( 'NONE', #269, 7.700000000000001066 ) ;
#360 = CYLINDRICAL_SURFACE ( 'NONE', #221, 5.000000000000000000 ) ;
#361 = MECHANICAL_CONTEXT ( 'NONE', #184, 'mechanical' ) ;
#362 = APPROVAL ( #186, 'NEURÈENÝ' ) ;
#363 = LINE ( 'NONE', #42, #236 ) ;
#364 = DIRECTION ( 'NONE',  ( 1.000000000000000000, 0.000000000000000000, 0.000000000000000000 ) ) ;
#365 = SHAPE_DEFINITION_REPRESENTATION ( #77, #246 ) ;
#366 = FACE_OUTER_BOUND ( 'NONE', #234, .T. ) ;
#367 = APPROVAL_STATUS ( 'not_yet_approved' ) ;
#368 = APPROVAL_ROLE ( '' ) ;
#369 = CARTESIAN_POINT ( 'NONE',  ( 0.000000000000000000, 0.000000000000000000, 7.000000000000000000 ) ) ;
#370 = CIRCLE ( 'NONE', #254, 7.000000000000000888 ) ;
#371 = COORDINATED_UNIVERSAL_TIME_OFFSET ( 1, 0, .AHEAD. ) ;
#372 = DIRECTION ( 'NONE',  ( -0.000000000000000000, -0.000000000000000000, -1.000000000000000000 ) ) ;
#373 = EDGE_CURVE ( 'NONE', #124, #183, #123, .T. ) ;
#374 = DATE_TIME_ROLE ( 'classification_date' ) ;
#375 = CARTESIAN_POINT ( 'NONE',  ( 0.000000000000000000, 0.000000000000000000, 457.0000000000000000 ) ) ;
#376 = EDGE_LOOP ( 'NONE', ( #177, #180 ) ) ;
#377 = CARTESIAN_POINT ( 'NONE',  ( -5.000000000000000000, 0.000000000000000000, 0.000000000000000000 ) ) ;
#378 = CARTESIAN_POINT ( 'NONE',  ( 0.000000000000000000, 0.000000000000000000, 0.000000000000000000 ) ) ;
#379 = VERTEX_POINT ( 'NONE', #182 ) ;
#380 = EDGE_CURVE ( 'NONE', #256, #25, #280, .T. ) ;
#381 = DIRECTION ( 'NONE',  ( 1.000000000000000000, 0.000000000000000000, 0.000000000000000000 ) ) ;
ENDSEC;
END-ISO-10303-21;
