ISO-10303-21;
HEADER;
FILE_DESCRIPTION (( 'STEP AP203' ),
    '1' );
FILE_NAME ('6876.STEP',
    '2022-07-08T15:45:24',
    ( '' ),
    ( '' ),
    'SwSTEP 2.0',
    'SolidWorks 2019',
    '' );
FILE_SCHEMA (( 'CONFIG_CONTROL_DESIGN' ));
ENDSEC;

DATA;
#1 = ADVANCED_FACE ( 'NONE', ( #191, #78 ), #195, .F. ) ;
#2 = CYLINDRICAL_SURFACE ( 'NONE', #379, 1.500000000000000222 ) ;
#3 = AXIS2_PLACEMENT_3D ( 'NONE', #371, #162, #303 ) ;
#4 = ORIENTED_EDGE ( 'NONE', *, *, #168, .T. ) ;
#5 = DIRECTION ( 'NONE',  ( 0.000000000000000000, 0.000000000000000000, 1.000000000000000000 ) ) ;
#6 = EDGE_LOOP ( 'NONE', ( #340, #338, #363, #76 ) ) ;
#7 = APPROVAL_DATE_TIME ( #99, #315 ) ;
#8 = CARTESIAN_POINT ( 'NONE',  ( 0.000000000000000000, 0.000000000000000000, 3.299999999999997158 ) ) ;
#9 = CALENDAR_DATE ( 2022, 8, 7 ) ;
#10 = FACE_OUTER_BOUND ( 'NONE', #6, .T. ) ;
#11 = VERTEX_POINT ( 'NONE', #343 ) ;
#12 = APPROVAL ( #30, 'NEURÈENÝ' ) ;
#13 = VECTOR ( 'NONE', #264, 1000.000000000000000 ) ;
#14 = DIRECTION ( 'NONE',  ( 0.000000000000000000, 0.000000000000000000, -1.000000000000000000 ) ) ;
#15 = ORIENTED_EDGE ( 'NONE', *, *, #88, .T. ) ;
#16 = CARTESIAN_POINT ( 'NONE',  ( 5.000000000000000000, 6.123233995736766282E-16, 0.000000000000000000 ) ) ;
#17 = CIRCLE ( 'NONE', #337, 0.2999999999999999334 ) ;
#18 = CARTESIAN_POINT ( 'NONE',  ( 1.500000000000000222, 1.836970198721030181E-16, 178.0000000000000000 ) ) ;
#19 = CC_DESIGN_PERSON_AND_ORGANIZATION_ASSIGNMENT ( #339, #180, ( #235 ) ) ;
#20 = LOCAL_TIME ( 17, 45, 24.00000000000000000, #33 ) ;
#21 = DIRECTION ( 'NONE',  ( 1.000000000000000000, 0.000000000000000000, 0.000000000000000000 ) ) ;
#22 = EDGE_CURVE ( 'NONE', #261, #327, #349, .T. ) ;
#23 = DIRECTION ( 'NONE',  ( 1.000000000000000000, 0.000000000000000000, 0.000000000000000000 ) ) ;
#24 =( NAMED_UNIT ( * ) PLANE_ANGLE_UNIT ( ) SI_UNIT ( $, .RADIAN. ) );
#25 = CIRCLE ( 'NONE', #3, 0.2999999999999999334 ) ;
#26 = VERTEX_POINT ( 'NONE', #376 ) ;
#27 = DIRECTION ( 'NONE',  ( 0.000000000000000000, 0.000000000000000000, 1.000000000000000000 ) ) ;
#28 = COORDINATED_UNIVERSAL_TIME_OFFSET ( 1, 0, .AHEAD. ) ;
#29 = DIRECTION ( 'NONE',  ( 1.000000000000000000, 0.000000000000000000, 0.000000000000000000 ) ) ;
#30 = APPROVAL_STATUS ( 'not_yet_approved' ) ;
#31 = CARTESIAN_POINT ( 'NONE',  ( -5.000000000000000000, 0.000000000000000000, 3.000000000000000000 ) ) ;
#32 = EDGE_CURVE ( 'NONE', #194, #41, #17, .T. ) ;
#33 = COORDINATED_UNIVERSAL_TIME_OFFSET ( 1, 0, .AHEAD. ) ;
#34 = CARTESIAN_POINT ( 'NONE',  ( -5.000000000000000000, 0.000000000000000000, 0.000000000000000000 ) ) ;
#35 = ORIENTED_EDGE ( 'NONE', *, *, #274, .T. ) ;
#36 = EDGE_CURVE ( 'NONE', #163, #66, #144, .T. ) ;
#37 = PLANE ( 'NONE',  #171 ) ;
#38 = AXIS2_PLACEMENT_3D ( 'NONE', #52, #108, #53 ) ;
#39 = VERTEX_POINT ( 'NONE', #319 ) ;
#40 = CYLINDRICAL_SURFACE ( 'NONE', #93, 5.000000000000000000 ) ;
#41 = VERTEX_POINT ( 'NONE', #287 ) ;
#42 = CARTESIAN_POINT ( 'NONE',  ( 0.000000000000000000, 0.000000000000000000, 178.0000000000000000 ) ) ;
#43 = ORIENTED_EDGE ( 'NONE', *, *, #277, .F. ) ;
#44 = LINE ( 'NONE', #330, #370 ) ;
#45 = CIRCLE ( 'NONE', #178, 2.500000000000000000 ) ;
#46 = DIRECTION ( 'NONE',  ( -0.000000000000000000, -0.000000000000000000, -1.000000000000000000 ) ) ;
#47 = ADVANCED_FACE ( 'NONE', ( #175 ), #279, .T. ) ;
#48 = ORIENTED_EDGE ( 'NONE', *, *, #168, .F. ) ;
#49 = DIRECTION ( 'NONE',  ( -1.000000000000000000, 0.000000000000000000, 0.000000000000000000 ) ) ;
#50 = VECTOR ( 'NONE', #197, 1000.000000000000000 ) ;
#51 = MANIFOLD_SOLID_BREP ( 'Odebrat vysunutím3', #127 ) ;
#52 = CARTESIAN_POINT ( 'NONE',  ( 0.000000000000000000, 0.000000000000000000, 3.299999999999997158 ) ) ;
#53 = DIRECTION ( 'NONE',  ( 1.000000000000000000, 0.000000000000000000, 0.000000000000000000 ) ) ;
#54 = DIRECTION ( 'NONE',  ( 0.000000000000000000, 0.000000000000000000, 1.000000000000000000 ) ) ;
#55 = ORGANIZATION ( 'NEURÈENÝ', 'NEURÈENÝ', '' ) ;
#56 = PERSON_AND_ORGANIZATION ( #196, #55 ) ;
#57 = FACE_BOUND ( 'NONE', #249, .T. ) ;
#58 = DIRECTION ( 'NONE',  ( 0.000000000000000000, 0.000000000000000000, 1.000000000000000000 ) ) ;
#59 = DIRECTION ( 'NONE',  ( -1.000000000000000000, 0.000000000000000000, 0.000000000000000000 ) ) ;
#60 = AXIS2_PLACEMENT_3D ( 'NONE', #117, #65, #179 ) ;
#61 = DATE_TIME_ROLE ( 'creation_date' ) ;
#62 = DIRECTION ( 'NONE',  ( 0.000000000000000000, 0.000000000000000000, 1.000000000000000000 ) ) ;
#63 = ADVANCED_FACE ( 'NONE', ( #57, #284 ), #348, .T. ) ;
#64 = EDGE_LOOP ( 'NONE', ( #291, #294 ) ) ;
#65 = DIRECTION ( 'NONE',  ( 0.000000000000000000, 0.000000000000000000, 1.000000000000000000 ) ) ;
#66 = VERTEX_POINT ( 'NONE', #34 ) ;
#67 = DIRECTION ( 'NONE',  ( 1.000000000000000000, 0.000000000000000000, 0.000000000000000000 ) ) ;
#68 = CIRCLE ( 'NONE', #270, 1.500000000000000222 ) ;
#69 = DIRECTION ( 'NONE',  ( 1.000000000000000000, 0.000000000000000000, 0.000000000000000000 ) ) ;
#70 = LOCAL_TIME ( 17, 45, 24.00000000000000000, #265 ) ;
#71 = ORIENTED_EDGE ( 'NONE', *, *, #157, .T. ) ;
#72 = DIRECTION ( 'NONE',  ( -1.000000000000000000, 0.000000000000000000, 0.000000000000000000 ) ) ;
#73 = FACE_OUTER_BOUND ( 'NONE', #222, .T. ) ;
#74 = ORIENTED_EDGE ( 'NONE', *, *, #152, .F. ) ;
#75 = EDGE_CURVE ( 'NONE', #11, #194, #114, .T. ) ;
#76 = ORIENTED_EDGE ( 'NONE', *, *, #140, .F. ) ;
#77 = AXIS2_PLACEMENT_3D ( 'NONE', #272, #368, #106 ) ;
#78 = FACE_OUTER_BOUND ( 'NONE', #271, .T. ) ;
#79 = CIRCLE ( 'NONE', #130, 2.500000000000000000 ) ;
#80 = CARTESIAN_POINT ( 'NONE',  ( -1.500000000000000222, 0.000000000000000000, 0.000000000000000000 ) ) ;
#81 = APPROVAL ( #147, 'NEURÈENÝ' ) ;
#82 = LINE ( 'NONE', #229, #50 ) ;
#83 = COORDINATED_UNIVERSAL_TIME_OFFSET ( 1, 0, .AHEAD. ) ;
#84 = VERTEX_POINT ( 'NONE', #31 ) ;
#85 = EDGE_CURVE ( 'NONE', #327, #261, #68, .T. ) ;
#86 = CARTESIAN_POINT ( 'NONE',  ( 0.000000000000000000, 0.000000000000000000, 3.000000000000000000 ) ) ;
#87 = CARTESIAN_POINT ( 'NONE',  ( 0.000000000000000000, 0.000000000000000000, 178.0000000000000000 ) ) ;
#88 = EDGE_CURVE ( 'NONE', #26, #84, #169, .T. ) ;
#89 = ADVANCED_FACE ( 'NONE', ( #119 ), #2, .F. ) ;
#90 = CARTESIAN_POINT ( 'NONE',  ( -2.500000000000000000, 0.000000000000000000, 178.0000000000000000 ) ) ;
#91 = SECURITY_CLASSIFICATION_LEVEL ( 'unclassified' ) ;
#92 = CARTESIAN_POINT ( 'NONE',  ( 0.000000000000000000, 0.000000000000000000, 178.0000000000000000 ) ) ;
#93 = AXIS2_PLACEMENT_3D ( 'NONE', #160, #46, #241 ) ;
#94 = EDGE_LOOP ( 'NONE', ( #159, #260, #276, #380 ) ) ;
#95 = CARTESIAN_POINT ( 'NONE',  ( 0.000000000000000000, 0.000000000000000000, 0.000000000000000000 ) ) ;
#96 = ORIENTED_EDGE ( 'NONE', *, *, #214, .F. ) ;
#97 = CARTESIAN_POINT ( 'NONE',  ( 0.000000000000000000, 0.000000000000000000, 178.0000000000000000 ) ) ;
#98 = AXIS2_PLACEMENT_3D ( 'NONE', #321, #14, #72 ) ;
#99 = DATE_AND_TIME ( #9, #70 ) ;
#100 = DATE_TIME_ROLE ( 'classification_date' ) ;
#101 = FACE_OUTER_BOUND ( 'NONE', #94, .T. ) ;
#102 = EDGE_CURVE ( 'NONE', #84, #26, #224, .T. ) ;
#103 = ORIENTED_EDGE ( 'NONE', *, *, #36, .T. ) ;
#104 = TOROIDAL_SURFACE ( 'NONE', #77, 2.799999999999999822, 0.2999999999999999889 ) ;
#105 = EDGE_CURVE ( 'NONE', #11, #372, #79, .T. ) ;
#106 = DIRECTION ( 'NONE',  ( 1.000000000000000000, 0.000000000000000000, 0.000000000000000000 ) ) ;
#107 = AXIS2_PLACEMENT_3D ( 'NONE', #234, #121, #237 ) ;
#108 = DIRECTION ( 'NONE',  ( 0.000000000000000000, 0.000000000000000000, 1.000000000000000000 ) ) ;
#109 = CIRCLE ( 'NONE', #246, 2.799999999999999822 ) ;
#110 = VERTEX_POINT ( 'NONE', #255 ) ;
#111 = DATE_AND_TIME ( #257, #366 ) ;
#112 = ADVANCED_FACE ( 'NONE', ( #374 ), #346, .T. ) ;
#113 = ORIENTED_EDGE ( 'NONE', *, *, #302, .F. ) ;
#114 = LINE ( 'NONE', #90, #190 ) ;
#115 = ADVANCED_FACE ( 'NONE', ( #73 ), #153, .F. ) ;
#116 = APPLICATION_PROTOCOL_DEFINITION ( 'international standard', 'config_control_design', 1994, #161 ) ;
#117 = CARTESIAN_POINT ( 'NONE',  ( 0.000000000000000000, 0.000000000000000000, 0.000000000000000000 ) ) ;
#118 = ORIENTED_EDGE ( 'NONE', *, *, #277, .T. ) ;
#119 = FACE_OUTER_BOUND ( 'NONE', #187, .T. ) ;
#120 = APPLICATION_CONTEXT ( 'configuration controlled 3d designs of mechanical parts and assemblies' ) ;
#121 = DIRECTION ( 'NONE',  ( -0.000000000000000000, -0.000000000000000000, -1.000000000000000000 ) ) ;
#122 = APPROVAL_PERSON_ORGANIZATION ( #373, #12, #286 ) ;
#123 = APPROVAL_ROLE ( '' ) ;
#124 = LINE ( 'NONE', #296, #13 ) ;
#125 = EDGE_CURVE ( 'NONE', #194, #39, #307, .T. ) ;
#126 = CARTESIAN_POINT ( 'NONE',  ( 5.000000000000000000, 6.123233995736766282E-16, 3.000000000000000000 ) ) ;
#127 = CLOSED_SHELL ( 'NONE', ( #164, #115, #112, #361, #212, #63, #1, #47, #217, #381, #89 ) ) ;
#128 = ORIENTED_EDGE ( 'NONE', *, *, #138, .T. ) ;
#129 = APPROVAL_STATUS ( 'not_yet_approved' ) ;
#130 = AXIS2_PLACEMENT_3D ( 'NONE', #92, #143, #29 ) ;
#131 = CARTESIAN_POINT ( 'NONE',  ( 0.000000000000000000, 0.000000000000000000, 0.000000000000000000 ) ) ;
#132 = PRODUCT_DEFINITION ( 'NEZNÁMÝ', '', #262, #301 ) ;
#133 = CYLINDRICAL_SURFACE ( 'NONE', #243, 5.000000000000000000 ) ;
#134 = CIRCLE ( 'NONE', #38, 2.500000000000000000 ) ;
#135 = CARTESIAN_POINT ( 'NONE',  ( 0.000000000000000000, 0.000000000000000000, 3.000000000000000000 ) ) ;
#136 = FACE_OUTER_BOUND ( 'NONE', #329, .T. ) ;
#137 = CARTESIAN_POINT ( 'NONE',  ( 2.500000000000000000, 3.061616997868383141E-16, 178.0000000000000000 ) ) ;
#138 = EDGE_CURVE ( 'NONE', #372, #39, #124, .T. ) ;
#139 = VECTOR ( 'NONE', #199, 1000.000000000000000 ) ;
#140 = EDGE_CURVE ( 'NONE', #261, #231, #44, .T. ) ;
#141 = ORIENTED_EDGE ( 'NONE', *, *, #138, .F. ) ;
#142 = APPROVAL_ROLE ( '' ) ;
#143 = DIRECTION ( 'NONE',  ( 0.000000000000000000, 0.000000000000000000, 1.000000000000000000 ) ) ;
#144 = CIRCLE ( 'NONE', #60, 5.000000000000000000 ) ;
#145 = CALENDAR_DATE ( 2022, 8, 7 ) ;
#146 = DIRECTION ( 'NONE',  ( -0.000000000000000000, -0.000000000000000000, -1.000000000000000000 ) ) ;
#147 = APPROVAL_STATUS ( 'not_yet_approved' ) ;
#148 = DIRECTION ( 'NONE',  ( 1.224646799147353207E-16, 1.000000000000000000, -0.000000000000000000 ) ) ;
#149 = CALENDAR_DATE ( 2022, 8, 7 ) ;
#150 = DIRECTION ( 'NONE',  ( 1.000000000000000000, 0.000000000000000000, 0.000000000000000000 ) ) ;
#151 = CARTESIAN_POINT ( 'NONE',  ( 0.000000000000000000, 0.000000000000000000, 178.0000000000000000 ) ) ;
#152 = EDGE_CURVE ( 'NONE', #66, #163, #298, .T. ) ;
#153 = TOROIDAL_SURFACE ( 'NONE', #332, 2.799999999999999822, 0.2999999999999999889 ) ;
#154 = DIRECTION ( 'NONE',  ( 1.000000000000000000, 0.000000000000000000, -0.000000000000000000 ) ) ;
#155 = ORIENTED_EDGE ( 'NONE', *, *, #274, .F. ) ;
#156 = DIRECTION ( 'NONE',  ( 0.000000000000000000, 0.000000000000000000, 1.000000000000000000 ) ) ;
#157 = EDGE_CURVE ( 'NONE', #231, #110, #333, .T. ) ;
#158 = ORIENTED_EDGE ( 'NONE', *, *, #102, .T. ) ;
#159 = ORIENTED_EDGE ( 'NONE', *, *, #200, .F. ) ;
#160 = CARTESIAN_POINT ( 'NONE',  ( 0.000000000000000000, 0.000000000000000000, 3.000000000000000000 ) ) ;
#161 = APPLICATION_CONTEXT ( 'configuration controlled 3d designs of mechanical parts and assemblies' ) ;
#162 = DIRECTION ( 'NONE',  ( 0.000000000000000000, -1.000000000000000000, 0.000000000000000000 ) ) ;
#163 = VERTEX_POINT ( 'NONE', #16 ) ;
#164 = ADVANCED_FACE ( 'NONE', ( #10 ), #245, .F. ) ;
#165 = CC_DESIGN_APPROVAL ( #315, ( #235 ) ) ;
#166 = CARTESIAN_POINT ( 'NONE',  ( -1.500000000000000222, 0.000000000000000000, 178.0000000000000000 ) ) ;
#167 = CARTESIAN_POINT ( 'NONE',  ( 0.000000000000000000, 0.000000000000000000, 3.000000000000000000 ) ) ;
#168 = EDGE_CURVE ( 'NONE', #300, #41, #109, .T. ) ;
#169 = CIRCLE ( 'NONE', #313, 5.000000000000000000 ) ;
#170 = CARTESIAN_POINT ( 'NONE',  ( 2.799999999999999822, 0.000000000000000000, 2.999999999999998668 ) ) ;
#171 = AXIS2_PLACEMENT_3D ( 'NONE', #42, #156, #154 ) ;
#172 = PERSON_AND_ORGANIZATION ( #196, #55 ) ;
#173 = DIRECTION ( 'NONE',  ( -1.000000000000000000, 1.224646799147353207E-16, 0.000000000000000000 ) ) ;
#174 = DATE_AND_TIME ( #149, #184 ) ;
#175 = FACE_OUTER_BOUND ( 'NONE', #201, .T. ) ;
#176 = PERSON_AND_ORGANIZATION_ROLE ( 'creator' ) ;
#177 = AXIS2_PLACEMENT_3D ( 'NONE', #87, #312, #59 ) ;
#178 = AXIS2_PLACEMENT_3D ( 'NONE', #97, #295, #182 ) ;
#179 = DIRECTION ( 'NONE',  ( 1.000000000000000000, 0.000000000000000000, 0.000000000000000000 ) ) ;
#180 = PERSON_AND_ORGANIZATION_ROLE ( 'classification_officer' ) ;
#181 = ORIENTED_EDGE ( 'NONE', *, *, #22, .F. ) ;
#182 = DIRECTION ( 'NONE',  ( 1.000000000000000000, 0.000000000000000000, 0.000000000000000000 ) ) ;
#183 = EDGE_LOOP ( 'NONE', ( #365, #350 ) ) ;
#184 = LOCAL_TIME ( 17, 45, 24.00000000000000000, #28 ) ;
#185 = CARTESIAN_POINT ( 'NONE',  ( 0.000000000000000000, 0.000000000000000000, 3.000000000000000000 ) ) ;
#186 = CC_DESIGN_APPROVAL ( #81, ( #132 ) ) ;
#187 = EDGE_LOOP ( 'NONE', ( #218, #334, #359, #71 ) ) ;
#188 = CARTESIAN_POINT ( 'NONE',  ( 0.000000000000000000, 0.000000000000000000, 3.299999999999997158 ) ) ;
#189 = CC_DESIGN_PERSON_AND_ORGANIZATION_ASSIGNMENT ( #56, #280, ( #262 ) ) ;
#190 = VECTOR ( 'NONE', #146, 1000.000000000000000 ) ;
#191 = FACE_BOUND ( 'NONE', #64, .T. ) ;
#192 = CARTESIAN_POINT ( 'NONE',  ( 0.000000000000000000, 0.000000000000000000, 0.000000000000000000 ) ) ;
#193 = AXIS2_PLACEMENT_3D ( 'NONE', #135, #230, #21 ) ;
#194 = VERTEX_POINT ( 'NONE', #263 ) ;
#195 = PLANE ( 'NONE',  #288 ) ;
#196 = PERSON ( 'NEURÈENÝ', 'NEURÈENÝ', 'NEURÈENÝ', ('NEURÈENÝ'), ('NEURÈENÝ'), ('NEURÈENÝ') ) ;
#197 = DIRECTION ( 'NONE',  ( 0.000000000000000000, 0.000000000000000000, -1.000000000000000000 ) ) ;
#198 =( NAMED_UNIT ( * ) SI_UNIT ( $, .STERADIAN. ) SOLID_ANGLE_UNIT ( ) );
#199 = DIRECTION ( 'NONE',  ( -0.000000000000000000, -0.000000000000000000, -1.000000000000000000 ) ) ;
#200 = EDGE_CURVE ( 'NONE', #26, #163, #362, .T. ) ;
#201 = EDGE_LOOP ( 'NONE', ( #141, #204, #210, #357 ) ) ;
#202 = CC_DESIGN_PERSON_AND_ORGANIZATION_ASSIGNMENT ( #309, #236, ( #367 ) ) ;
#203 = CALENDAR_DATE ( 2022, 8, 7 ) ;
#204 = ORIENTED_EDGE ( 'NONE', *, *, #105, .F. ) ;
#205 = CIRCLE ( 'NONE', #193, 2.799999999999999822 ) ;
#206 = DIRECTION ( 'NONE',  ( 0.000000000000000000, 0.000000000000000000, 1.000000000000000000 ) ) ;
#207 = CC_DESIGN_DATE_AND_TIME_ASSIGNMENT ( #325, #100, ( #235 ) ) ;
#208 = DIRECTION ( 'NONE',  ( 1.000000000000000000, 0.000000000000000000, -0.000000000000000000 ) ) ;
#209 = APPROVAL_DATE_TIME ( #111, #81 ) ;
#210 = ORIENTED_EDGE ( 'NONE', *, *, #75, .T. ) ;
#211 = AXIS2_PLACEMENT_3D ( 'NONE', #95, #369, #23 ) ;
#212 = ADVANCED_FACE ( 'NONE', ( #101 ), #40, .T. ) ;
#213 = CARTESIAN_POINT ( 'NONE',  ( -2.799999999999999822, 3.429011037612588783E-16, 3.299999999999997158 ) ) ;
#214 = EDGE_CURVE ( 'NONE', #372, #11, #45, .T. ) ;
#215 = EDGE_LOOP ( 'NONE', ( #158, #15 ) ) ;
#216 = CARTESIAN_POINT ( 'NONE',  ( 0.000000000000000000, 0.000000000000000000, 178.0000000000000000 ) ) ;
#217 = ADVANCED_FACE ( 'NONE', ( #289, #358 ), #37, .T. ) ;
#218 = ORIENTED_EDGE ( 'NONE', *, *, #347, .F. ) ;
#219 = ORIENTED_EDGE ( 'NONE', *, *, #302, .T. ) ;
#220 = LOCAL_TIME ( 17, 45, 24.00000000000000000, #314 ) ;
#221 = SHAPE_DEFINITION_REPRESENTATION ( #335, #341 ) ;
#222 = EDGE_LOOP ( 'NONE', ( #297, #225, #48, #113 ) ) ;
#223 = DIRECTION ( 'NONE',  ( 1.000000000000000000, 0.000000000000000000, 0.000000000000000000 ) ) ;
#224 = CIRCLE ( 'NONE', #351, 5.000000000000000000 ) ;
#225 = ORIENTED_EDGE ( 'NONE', *, *, #32, .T. ) ;
#226 = VECTOR ( 'NONE', #293, 1000.000000000000000 ) ;
#227 = EDGE_CURVE ( 'NONE', #110, #231, #375, .T. ) ;
#228 = ORIENTED_EDGE ( 'NONE', *, *, #88, .F. ) ;
#229 = CARTESIAN_POINT ( 'NONE',  ( 1.500000000000000222, 1.836970198721030181E-16, 178.0000000000000000 ) ) ;
#230 = DIRECTION ( 'NONE',  ( -0.000000000000000000, -0.000000000000000000, -1.000000000000000000 ) ) ;
#231 = VERTEX_POINT ( 'NONE', #80 ) ;
#232 = ORIENTED_EDGE ( 'NONE', *, *, #36, .F. ) ;
#233 = AXIS2_PLACEMENT_3D ( 'NONE', #281, #355, #208 ) ;
#234 = CARTESIAN_POINT ( 'NONE',  ( 0.000000000000000000, 0.000000000000000000, 178.0000000000000000 ) ) ;
#235 = SECURITY_CLASSIFICATION ( '', '', #91 ) ;
#236 = PERSON_AND_ORGANIZATION_ROLE ( 'design_owner' ) ;
#237 = DIRECTION ( 'NONE',  ( -1.000000000000000000, 0.000000000000000000, 0.000000000000000000 ) ) ;
#238 = PERSON_AND_ORGANIZATION ( #196, #55 ) ;
#239 = CARTESIAN_POINT ( 'NONE',  ( 0.000000000000000000, 0.000000000000000000, 3.000000000000000000 ) ) ;
#240 = EDGE_LOOP ( 'NONE', ( #96, #128, #118, #318 ) ) ;
#241 = DIRECTION ( 'NONE',  ( -1.000000000000000000, 0.000000000000000000, 0.000000000000000000 ) ) ;
#242 = CC_DESIGN_PERSON_AND_ORGANIZATION_ASSIGNMENT ( #238, #352, ( #262 ) ) ;
#243 = AXIS2_PLACEMENT_3D ( 'NONE', #167, #275, #49 ) ;
#244 = DIRECTION ( 'NONE',  ( -0.000000000000000000, -0.000000000000000000, -1.000000000000000000 ) ) ;
#245 = CYLINDRICAL_SURFACE ( 'NONE', #98, 1.500000000000000222 ) ;
#246 = AXIS2_PLACEMENT_3D ( 'NONE', #185, #244, #299 ) ;
#247 = CARTESIAN_POINT ( 'NONE',  ( -5.000000000000000000, 0.000000000000000000, 3.000000000000000000 ) ) ;
#248 = FACE_OUTER_BOUND ( 'NONE', #331, .T. ) ;
#249 = EDGE_LOOP ( 'NONE', ( #4, #35 ) ) ;
#250 = APPROVAL_PERSON_ORGANIZATION ( #172, #81, #142 ) ;
#251 = DIRECTION ( 'NONE',  ( 1.000000000000000000, 0.000000000000000000, -0.000000000000000000 ) ) ;
#252 = DATE_AND_TIME ( #203, #220 ) ;
#253 = DIRECTION ( 'NONE',  ( 1.000000000000000000, 0.000000000000000000, 0.000000000000000000 ) ) ;
#254 = AXIS2_PLACEMENT_3D ( 'NONE', #259, #62, #282 ) ;
#255 = CARTESIAN_POINT ( 'NONE',  ( 1.500000000000000222, 1.836970198721030181E-16, 0.000000000000000000 ) ) ;
#256 = APPROVAL_PERSON_ORGANIZATION ( #360, #315, #123 ) ;
#257 = CALENDAR_DATE ( 2022, 8, 7 ) ;
#258 = APPROVAL_DATE_TIME ( #174, #12 ) ;
#259 = CARTESIAN_POINT ( 'NONE',  ( 0.000000000000000000, 0.000000000000000000, 178.0000000000000000 ) ) ;
#260 = ORIENTED_EDGE ( 'NONE', *, *, #102, .F. ) ;
#261 = VERTEX_POINT ( 'NONE', #166 ) ;
#262 = PRODUCT_DEFINITION_FORMATION_WITH_SPECIFIED_SOURCE ( 'LIBOVOLNÝ', '', #367, .NOT_KNOWN. ) ;
#263 = CARTESIAN_POINT ( 'NONE',  ( -2.500000000000000000, 0.000000000000000000, 3.299999999999997158 ) ) ;
#264 = DIRECTION ( 'NONE',  ( -0.000000000000000000, -0.000000000000000000, -1.000000000000000000 ) ) ;
#265 = COORDINATED_UNIVERSAL_TIME_OFFSET ( 1, 0, .AHEAD. ) ;
#266 = DIRECTION ( 'NONE',  ( 0.000000000000000000, 0.000000000000000000, -1.000000000000000000 ) ) ;
#267 = ORIENTED_EDGE ( 'NONE', *, *, #32, .F. ) ;
#268 = ORIENTED_EDGE ( 'NONE', *, *, #200, .T. ) ;
#269 = UNCERTAINTY_MEASURE_WITH_UNIT (LENGTH_MEASURE( 1.000000000000000082E-05 ), #304, 'distance_accuracy_value', 'NONE');
#270 = AXIS2_PLACEMENT_3D ( 'NONE', #151, #316, #150 ) ;
#271 = EDGE_LOOP ( 'NONE', ( #74, #232 ) ) ;
#272 = CARTESIAN_POINT ( 'NONE',  ( 0.000000000000000000, 0.000000000000000000, 3.299999999999997158 ) ) ;
#273 = EDGE_CURVE ( 'NONE', #84, #66, #336, .T. ) ;
#274 = EDGE_CURVE ( 'NONE', #41, #300, #205, .T. ) ;
#275 = DIRECTION ( 'NONE',  ( -0.000000000000000000, -0.000000000000000000, -1.000000000000000000 ) ) ;
#276 = ORIENTED_EDGE ( 'NONE', *, *, #273, .T. ) ;
#277 = EDGE_CURVE ( 'NONE', #39, #194, #134, .T. ) ;
#278 = PRODUCT_RELATED_PRODUCT_CATEGORY ( 'detail', '', ( #367 ) ) ;
#279 = CYLINDRICAL_SURFACE ( 'NONE', #107, 2.500000000000000000 ) ;
#280 = PERSON_AND_ORGANIZATION_ROLE ( 'design_supplier' ) ;
#281 = CARTESIAN_POINT ( 'NONE',  ( 0.000000000000000000, 0.000000000000000000, 3.000000000000000000 ) ) ;
#282 = DIRECTION ( 'NONE',  ( 1.000000000000000000, 0.000000000000000000, 0.000000000000000000 ) ) ;
#283 = APPLICATION_PROTOCOL_DEFINITION ( 'international standard', 'config_control_design', 1994, #120 ) ;
#284 = FACE_OUTER_BOUND ( 'NONE', #215, .T. ) ;
#285 = CC_DESIGN_PERSON_AND_ORGANIZATION_ASSIGNMENT ( #377, #176, ( #132 ) ) ;
#286 = APPROVAL_ROLE ( '' ) ;
#287 = CARTESIAN_POINT ( 'NONE',  ( -2.799999999999999822, 3.429011037612589276E-16, 2.999999999999998668 ) ) ;
#288 = AXIS2_PLACEMENT_3D ( 'NONE', #305, #54, #251 ) ;
#289 = FACE_BOUND ( 'NONE', #323, .T. ) ;
#290 = AXIS2_PLACEMENT_3D ( 'NONE', #188, #5, #67 ) ;
#291 = ORIENTED_EDGE ( 'NONE', *, *, #157, .F. ) ;
#292 = AXIS2_PLACEMENT_3D ( 'NONE', #192, #364, #69 ) ;
#293 = DIRECTION ( 'NONE',  ( -0.000000000000000000, -0.000000000000000000, -1.000000000000000000 ) ) ;
#294 = ORIENTED_EDGE ( 'NONE', *, *, #227, .F. ) ;
#295 = DIRECTION ( 'NONE',  ( 0.000000000000000000, 0.000000000000000000, 1.000000000000000000 ) ) ;
#296 = CARTESIAN_POINT ( 'NONE',  ( 2.500000000000000000, 3.061616997868383141E-16, 178.0000000000000000 ) ) ;
#297 = ORIENTED_EDGE ( 'NONE', *, *, #125, .F. ) ;
#298 = CIRCLE ( 'NONE', #354, 5.000000000000000000 ) ;
#299 = DIRECTION ( 'NONE',  ( 1.000000000000000000, 0.000000000000000000, 0.000000000000000000 ) ) ;
#300 = VERTEX_POINT ( 'NONE', #170 ) ;
#301 = DESIGN_CONTEXT ( 'detailed design', #161, 'design' ) ;
#302 = EDGE_CURVE ( 'NONE', #39, #300, #25, .T. ) ;
#303 = DIRECTION ( 'NONE',  ( 0.000000000000000000, 0.000000000000000000, -1.000000000000000000 ) ) ;
#304 =( LENGTH_UNIT ( ) NAMED_UNIT ( * ) SI_UNIT ( .MILLI., .METRE. ) );
#305 = CARTESIAN_POINT ( 'NONE',  ( 0.000000000000000000, 0.000000000000000000, 0.000000000000000000 ) ) ;
#306 = ORIENTED_EDGE ( 'NONE', *, *, #85, .F. ) ;
#307 = CIRCLE ( 'NONE', #290, 2.500000000000000000 ) ;
#308 = CC_DESIGN_SECURITY_CLASSIFICATION ( #235, ( #262 ) ) ;
#309 = PERSON_AND_ORGANIZATION ( #196, #55 ) ;
#310 = DIRECTION ( 'NONE',  ( -1.000000000000000000, 0.000000000000000000, 0.000000000000000000 ) ) ;
#311 = MECHANICAL_CONTEXT ( 'NONE', #120, 'mechanical' ) ;
#312 = DIRECTION ( 'NONE',  ( -0.000000000000000000, -0.000000000000000000, -1.000000000000000000 ) ) ;
#313 = AXIS2_PLACEMENT_3D ( 'NONE', #86, #206, #253 ) ;
#314 = COORDINATED_UNIVERSAL_TIME_OFFSET ( 1, 0, .AHEAD. ) ;
#315 = APPROVAL ( #129, 'NEURÈENÝ' ) ;
#316 = DIRECTION ( 'NONE',  ( 0.000000000000000000, 0.000000000000000000, 1.000000000000000000 ) ) ;
#317 = CC_DESIGN_APPROVAL ( #12, ( #262 ) ) ;
#318 = ORIENTED_EDGE ( 'NONE', *, *, #75, .F. ) ;
#319 = CARTESIAN_POINT ( 'NONE',  ( 2.500000000000000000, 3.061616997868383141E-16, 3.299999999999997158 ) ) ;
#320 = ORIENTED_EDGE ( 'NONE', *, *, #273, .F. ) ;
#321 = CARTESIAN_POINT ( 'NONE',  ( 0.000000000000000000, 0.000000000000000000, 178.0000000000000000 ) ) ;
#322 = DIRECTION ( 'NONE',  ( 1.000000000000000000, 0.000000000000000000, 0.000000000000000000 ) ) ;
#323 = EDGE_LOOP ( 'NONE', ( #181, #306 ) ) ;
#324 =( GEOMETRIC_REPRESENTATION_CONTEXT ( 3 ) GLOBAL_UNCERTAINTY_ASSIGNED_CONTEXT ( ( #269 ) ) GLOBAL_UNIT_ASSIGNED_CONTEXT ( ( #304, #24, #198 ) ) REPRESENTATION_CONTEXT ( 'NONE', 'WORKASPACE' ) );
#325 = DATE_AND_TIME ( #145, #20 ) ;
#326 = DIRECTION ( 'NONE',  ( 0.000000000000000000, 0.000000000000000000, 1.000000000000000000 ) ) ;
#327 = VERTEX_POINT ( 'NONE', #18 ) ;
#328 = DIRECTION ( 'NONE',  ( 0.000000000000000000, 0.000000000000000000, 1.000000000000000000 ) ) ;
#329 = EDGE_LOOP ( 'NONE', ( #228, #268, #103, #320 ) ) ;
#330 = CARTESIAN_POINT ( 'NONE',  ( -1.500000000000000222, 0.000000000000000000, 178.0000000000000000 ) ) ;
#331 = EDGE_LOOP ( 'NONE', ( #267, #43, #219, #155 ) ) ;
#332 = AXIS2_PLACEMENT_3D ( 'NONE', #8, #328, #223 ) ;
#333 = CIRCLE ( 'NONE', #292, 1.500000000000000222 ) ;
#334 = ORIENTED_EDGE ( 'NONE', *, *, #85, .T. ) ;
#335 = PRODUCT_DEFINITION_SHAPE ( 'NONE', 'NONE',  #132 ) ;
#336 = LINE ( 'NONE', #247, #139 ) ;
#337 = AXIS2_PLACEMENT_3D ( 'NONE', #213, #148, #173 ) ;
#338 = ORIENTED_EDGE ( 'NONE', *, *, #347, .T. ) ;
#339 = PERSON_AND_ORGANIZATION ( #196, #55 ) ;
#340 = ORIENTED_EDGE ( 'NONE', *, *, #22, .T. ) ;
#341 = ADVANCED_BREP_SHAPE_REPRESENTATION ( '6876', ( #51, #344 ), #324 ) ;
#342 = DIRECTION ( 'NONE',  ( 1.000000000000000000, 0.000000000000000000, 0.000000000000000000 ) ) ;
#343 = CARTESIAN_POINT ( 'NONE',  ( -2.500000000000000000, 0.000000000000000000, 178.0000000000000000 ) ) ;
#344 = AXIS2_PLACEMENT_3D ( 'NONE', #345, #58, #342 ) ;
#345 = CARTESIAN_POINT ( 'NONE',  ( 0.000000000000000000, 0.000000000000000000, 0.000000000000000000 ) ) ;
#346 = CYLINDRICAL_SURFACE ( 'NONE', #177, 2.500000000000000000 ) ;
#347 = EDGE_CURVE ( 'NONE', #327, #110, #82, .T. ) ;
#348 = PLANE ( 'NONE',  #233 ) ;
#349 = CIRCLE ( 'NONE', #254, 1.500000000000000222 ) ;
#350 = ORIENTED_EDGE ( 'NONE', *, *, #214, .T. ) ;
#351 = AXIS2_PLACEMENT_3D ( 'NONE', #239, #27, #353 ) ;
#352 = PERSON_AND_ORGANIZATION_ROLE ( 'creator' ) ;
#353 = DIRECTION ( 'NONE',  ( 1.000000000000000000, 0.000000000000000000, 0.000000000000000000 ) ) ;
#354 = AXIS2_PLACEMENT_3D ( 'NONE', #131, #326, #322 ) ;
#355 = DIRECTION ( 'NONE',  ( 0.000000000000000000, 0.000000000000000000, 1.000000000000000000 ) ) ;
#356 = CC_DESIGN_DATE_AND_TIME_ASSIGNMENT ( #252, #61, ( #132 ) ) ;
#357 = ORIENTED_EDGE ( 'NONE', *, *, #125, .T. ) ;
#358 = FACE_OUTER_BOUND ( 'NONE', #183, .T. ) ;
#359 = ORIENTED_EDGE ( 'NONE', *, *, #140, .T. ) ;
#360 = PERSON_AND_ORGANIZATION ( #196, #55 ) ;
#361 = ADVANCED_FACE ( 'NONE', ( #136 ), #133, .T. ) ;
#362 = LINE ( 'NONE', #126, #226 ) ;
#363 = ORIENTED_EDGE ( 'NONE', *, *, #227, .T. ) ;
#364 = DIRECTION ( 'NONE',  ( -0.000000000000000000, -0.000000000000000000, -1.000000000000000000 ) ) ;
#365 = ORIENTED_EDGE ( 'NONE', *, *, #105, .T. ) ;
#366 = LOCAL_TIME ( 17, 45, 24.00000000000000000, #83 ) ;
#367 = PRODUCT ( '6876', '6876', '', ( #311 ) ) ;
#368 = DIRECTION ( 'NONE',  ( 0.000000000000000000, 0.000000000000000000, 1.000000000000000000 ) ) ;
#369 = DIRECTION ( 'NONE',  ( -0.000000000000000000, -0.000000000000000000, -1.000000000000000000 ) ) ;
#370 = VECTOR ( 'NONE', #266, 1000.000000000000000 ) ;
#371 = CARTESIAN_POINT ( 'NONE',  ( 2.799999999999999822, 0.000000000000000000, 3.299999999999997158 ) ) ;
#372 = VERTEX_POINT ( 'NONE', #137 ) ;
#373 = PERSON_AND_ORGANIZATION ( #196, #55 ) ;
#374 = FACE_OUTER_BOUND ( 'NONE', #240, .T. ) ;
#375 = CIRCLE ( 'NONE', #211, 1.500000000000000222 ) ;
#376 = CARTESIAN_POINT ( 'NONE',  ( 5.000000000000000000, 6.123233995736766282E-16, 3.000000000000000000 ) ) ;
#377 = PERSON_AND_ORGANIZATION ( #196, #55 ) ;
#378 = DIRECTION ( 'NONE',  ( 0.000000000000000000, 0.000000000000000000, -1.000000000000000000 ) ) ;
#379 = AXIS2_PLACEMENT_3D ( 'NONE', #216, #378, #310 ) ;
#380 = ORIENTED_EDGE ( 'NONE', *, *, #152, .T. ) ;
#381 = ADVANCED_FACE ( 'NONE', ( #248 ), #104, .F. ) ;
ENDSEC;
END-ISO-10303-21;
