ISO-10303-21;
HEADER;
FILE_DESCRIPTION (( 'STEP AP203' ),
    '1' );
FILE_NAME ('8faf.STEP',
    '2022-07-08T14:52:10',
    ( '' ),
    ( '' ),
    'SwSTEP 2.0',
    'SolidWorks 2019',
    '' );
FILE_SCHEMA (( 'CONFIG_CONTROL_DESIGN' ));
ENDSEC;

DATA;
#1 = APPROVAL_ROLE ( '' ) ;
#2 = ORIENTED_EDGE ( 'NONE', *, *, #57, .T. ) ;
#3 = CARTESIAN_POINT ( 'NONE',  ( -10.00000000000000000, 0.000000000000000000, 7.000000000000000000 ) ) ;
#4 = CYLINDRICAL_SURFACE ( 'NONE', #168, 3.000000000000000444 ) ;
#5 = ORIENTED_EDGE ( 'NONE', *, *, #212, .T. ) ;
#6 = DIRECTION ( 'NONE',  ( -0.000000000000000000, -0.000000000000000000, -1.000000000000000000 ) ) ;
#7 = APPROVAL_DATE_TIME ( #358, #302 ) ;
#8 = APPROVAL ( #52, 'NEURÈENÝ' ) ;
#9 = CARTESIAN_POINT ( 'NONE',  ( 6.500000000000000888, 0.000000000000000000, 7.499999999999951150 ) ) ;
#10 = VERTEX_POINT ( 'NONE', #190 ) ;
#11 = EDGE_LOOP ( 'NONE', ( #315, #136 ) ) ;
#12 = ADVANCED_FACE ( 'NONE', ( #313 ), #220, .F. ) ;
#13 = CARTESIAN_POINT ( 'NONE',  ( 0.000000000000000000, 0.000000000000000000, 757.0000000000000000 ) ) ;
#14 = CARTESIAN_POINT ( 'NONE',  ( 6.000000000000000888, 7.347880794884120722E-16, 757.0000000000000000 ) ) ;
#15 = VECTOR ( 'NONE', #123, 1000.000000000000000 ) ;
#16 = CARTESIAN_POINT ( 'NONE',  ( -6.500000000000000888, 7.960204194457796463E-16, 7.499999999999951150 ) ) ;
#17 = EDGE_CURVE ( 'NONE', #356, #309, #50, .T. ) ;
#18 = DIRECTION ( 'NONE',  ( 1.000000000000000000, 0.000000000000000000, 0.000000000000000000 ) ) ;
#19 = PLANE ( 'NONE',  #41 ) ;
#20 = CARTESIAN_POINT ( 'NONE',  ( 0.000000000000000000, 0.000000000000000000, 0.000000000000000000 ) ) ;
#21 = PERSON ( 'NEURÈENÝ', 'NEURÈENÝ', 'NEURÈENÝ', ('NEURÈENÝ'), ('NEURÈENÝ'), ('NEURÈENÝ') ) ;
#22 = APPROVAL_DATE_TIME ( #292, #8 ) ;
#23 = EDGE_CURVE ( 'NONE', #361, #333, #197, .T. ) ;
#24 = CARTESIAN_POINT ( 'NONE',  ( 0.000000000000000000, 0.000000000000000000, 757.0000000000000000 ) ) ;
#25 = DATE_AND_TIME ( #293, #47 ) ;
#26 = CYLINDRICAL_SURFACE ( 'NONE', #149, 10.00000000000000000 ) ;
#27 = DIRECTION ( 'NONE',  ( -0.000000000000000000, -0.000000000000000000, -1.000000000000000000 ) ) ;
#28 = LOCAL_TIME ( 16, 52, 10.00000000000000000, #54 ) ;
#29 = DIRECTION ( 'NONE',  ( 0.000000000000000000, 0.000000000000000000, -1.000000000000000000 ) ) ;
#30 = CARTESIAN_POINT ( 'NONE',  ( 10.00000000000000000, 1.224646799147353256E-15, 7.000000000000000000 ) ) ;
#31 = FACE_OUTER_BOUND ( 'NONE', #286, .T. ) ;
#32 = PERSON_AND_ORGANIZATION_ROLE ( 'design_owner' ) ;
#33 = ORIENTED_EDGE ( 'NONE', *, *, #140, .T. ) ;
#34 = CC_DESIGN_SECURITY_CLASSIFICATION ( #87, ( #247 ) ) ;
#35 = VERTEX_POINT ( 'NONE', #14 ) ;
#36 = ORIENTED_EDGE ( 'NONE', *, *, #350, .T. ) ;
#37 = EDGE_CURVE ( 'NONE', #94, #340, #83, .T. ) ;
#38 = DATE_TIME_ROLE ( 'classification_date' ) ;
#39 = ORIENTED_EDGE ( 'NONE', *, *, #77, .F. ) ;
#40 = APPROVAL_STATUS ( 'not_yet_approved' ) ;
#41 = AXIS2_PLACEMENT_3D ( 'NONE', #261, #319, #145 ) ;
#42 = SECURITY_CLASSIFICATION_LEVEL ( 'unclassified' ) ;
#43 = APPLICATION_CONTEXT ( 'configuration controlled 3d designs of mechanical parts and assemblies' ) ;
#44 = PRODUCT_DEFINITION ( 'NEZNÁMÝ', '', #247, #249 ) ;
#45 = CARTESIAN_POINT ( 'NONE',  ( 0.000000000000000000, 0.000000000000000000, 7.000000000000000000 ) ) ;
#46 = ORIENTED_EDGE ( 'NONE', *, *, #276, .F. ) ;
#47 = LOCAL_TIME ( 16, 52, 10.00000000000000000, #171 ) ;
#48 = DIRECTION ( 'NONE',  ( -0.000000000000000000, -0.000000000000000000, -1.000000000000000000 ) ) ;
#49 = ORIENTED_EDGE ( 'NONE', *, *, #23, .T. ) ;
#50 = CIRCLE ( 'NONE', #112, 10.00000000000000000 ) ;
#51 = AXIS2_PLACEMENT_3D ( 'NONE', #119, #235, #84 ) ;
#52 = APPROVAL_STATUS ( 'not_yet_approved' ) ;
#53 = PRODUCT_DEFINITION_SHAPE ( 'NONE', 'NONE',  #44 ) ;
#54 = COORDINATED_UNIVERSAL_TIME_OFFSET ( 1, 0, .AHEAD. ) ;
#55 = APPLICATION_PROTOCOL_DEFINITION ( 'international standard', 'config_control_design', 1994, #43 ) ;
#56 = DIRECTION ( 'NONE',  ( -0.000000000000000000, -0.000000000000000000, -1.000000000000000000 ) ) ;
#57 = EDGE_CURVE ( 'NONE', #333, #210, #181, .T. ) ;
#58 = LOCAL_TIME ( 16, 52, 10.00000000000000000, #132 ) ;
#59 = CARTESIAN_POINT ( 'NONE',  ( 0.000000000000000000, 0.000000000000000000, 7.000000000000000000 ) ) ;
#60 = CARTESIAN_POINT ( 'NONE',  ( 0.000000000000000000, 0.000000000000000000, 0.000000000000000000 ) ) ;
#61 = ORIENTED_EDGE ( 'NONE', *, *, #339, .F. ) ;
#62 = ORIENTED_EDGE ( 'NONE', *, *, #108, .F. ) ;
#63 = VECTOR ( 'NONE', #288, 1000.000000000000000 ) ;
#64 = EDGE_CURVE ( 'NONE', #361, #35, #375, .T. ) ;
#65 = ORIENTED_EDGE ( 'NONE', *, *, #219, .T. ) ;
#66 = PERSON_AND_ORGANIZATION_ROLE ( 'classification_officer' ) ;
#67 = CARTESIAN_POINT ( 'NONE',  ( 3.000000000000000444, 3.673940397442060361E-16, 0.000000000000000000 ) ) ;
#68 = ORIENTED_EDGE ( 'NONE', *, *, #135, .F. ) ;
#69 = AXIS2_PLACEMENT_3D ( 'NONE', #114, #226, #344 ) ;
#70 = DIRECTION ( 'NONE',  ( 0.000000000000000000, 0.000000000000000000, -1.000000000000000000 ) ) ;
#71 = AXIS2_PLACEMENT_3D ( 'NONE', #277, #70, #330 ) ;
#72 = ORIENTED_EDGE ( 'NONE', *, *, #372, .F. ) ;
#73 = CARTESIAN_POINT ( 'NONE',  ( 6.000000000000000888, 7.347880794884120722E-16, 7.499999999999951150 ) ) ;
#74 = DIRECTION ( 'NONE',  ( 1.000000000000000000, 0.000000000000000000, 0.000000000000000000 ) ) ;
#75 = DIRECTION ( 'NONE',  ( 1.224646799147353207E-16, 1.000000000000000000, -0.000000000000000000 ) ) ;
#76 = CIRCLE ( 'NONE', #265, 10.00000000000000000 ) ;
#77 = EDGE_CURVE ( 'NONE', #208, #210, #117, .T. ) ;
#78 = APPROVAL_PERSON_ORGANIZATION ( #101, #234, #187 ) ;
#79 = DIRECTION ( 'NONE',  ( -0.000000000000000000, -0.000000000000000000, -1.000000000000000000 ) ) ;
#80 = DIRECTION ( 'NONE',  ( -0.000000000000000000, -0.000000000000000000, -1.000000000000000000 ) ) ;
#81 = ORIENTED_EDGE ( 'NONE', *, *, #339, .T. ) ;
#82 = ADVANCED_FACE ( 'NONE', ( #193 ), #139, .T. ) ;
#83 = CIRCLE ( 'NONE', #103, 3.000000000000000444 ) ;
#84 = DIRECTION ( 'NONE',  ( 1.000000000000000000, 0.000000000000000000, 0.000000000000000000 ) ) ;
#85 = DIRECTION ( 'NONE',  ( 1.000000000000000000, 0.000000000000000000, 0.000000000000000000 ) ) ;
#86 = AXIS2_PLACEMENT_3D ( 'NONE', #162, #287, #222 ) ;
#87 = SECURITY_CLASSIFICATION ( '', '', #42 ) ;
#88 = PLANE ( 'NONE',  #98 ) ;
#89 = CYLINDRICAL_SURFACE ( 'NONE', #71, 3.000000000000000444 ) ;
#90 = ORIENTED_EDGE ( 'NONE', *, *, #17, .T. ) ;
#91 = COORDINATED_UNIVERSAL_TIME_OFFSET ( 1, 0, .AHEAD. ) ;
#92 = ORIENTED_EDGE ( 'NONE', *, *, #219, .F. ) ;
#93 = ADVANCED_FACE ( 'NONE', ( #223 ), #335, .F. ) ;
#94 = VERTEX_POINT ( 'NONE', #341 ) ;
#95 = APPROVAL_STATUS ( 'not_yet_approved' ) ;
#96 = AXIS2_PLACEMENT_3D ( 'NONE', #16, #75, #254 ) ;
#97 = AXIS2_PLACEMENT_3D ( 'NONE', #20, #48, #142 ) ;
#98 = AXIS2_PLACEMENT_3D ( 'NONE', #60, #242, #245 ) ;
#99 = ORIENTED_EDGE ( 'NONE', *, *, #350, .F. ) ;
#100 = DIRECTION ( 'NONE',  ( 0.000000000000000000, 0.000000000000000000, 1.000000000000000000 ) ) ;
#101 = PERSON_AND_ORGANIZATION ( #21, #317 ) ;
#102 = EDGE_LOOP ( 'NONE', ( #251, #304 ) ) ;
#103 = AXIS2_PLACEMENT_3D ( 'NONE', #13, #138, #253 ) ;
#104 = CARTESIAN_POINT ( 'NONE',  ( 6.500000000000000888, 0.000000000000000000, 6.999999999999975131 ) ) ;
#105 = CIRCLE ( 'NONE', #113, 10.00000000000000000 ) ;
#106 = DIRECTION ( 'NONE',  ( 0.000000000000000000, 0.000000000000000000, 1.000000000000000000 ) ) ;
#107 = CARTESIAN_POINT ( 'NONE',  ( 6.000000000000000888, 7.347880794884120722E-16, 757.0000000000000000 ) ) ;
#108 = EDGE_CURVE ( 'NONE', #10, #164, #125, .T. ) ;
#109 = VERTEX_POINT ( 'NONE', #3 ) ;
#110 = FACE_BOUND ( 'NONE', #11, .T. ) ;
#111 = FACE_OUTER_BOUND ( 'NONE', #141, .T. ) ;
#112 = AXIS2_PLACEMENT_3D ( 'NONE', #165, #283, #18 ) ;
#113 = AXIS2_PLACEMENT_3D ( 'NONE', #325, #205, #294 ) ;
#114 = CARTESIAN_POINT ( 'NONE',  ( 0.000000000000000000, 0.000000000000000000, 7.499999999999951150 ) ) ;
#115 = CARTESIAN_POINT ( 'NONE',  ( 0.000000000000000000, 0.000000000000000000, 757.0000000000000000 ) ) ;
#116 = EDGE_CURVE ( 'NONE', #35, #361, #303, .T. ) ;
#117 = CIRCLE ( 'NONE', #289, 6.500000000000000888 ) ;
#118 = DIRECTION ( 'NONE',  ( -1.000000000000000000, 0.000000000000000000, 0.000000000000000000 ) ) ;
#119 = CARTESIAN_POINT ( 'NONE',  ( 0.000000000000000000, 0.000000000000000000, 0.000000000000000000 ) ) ;
#120 = CYLINDRICAL_SURFACE ( 'NONE', #281, 10.00000000000000000 ) ;
#121 = FACE_BOUND ( 'NONE', #357, .T. ) ;
#122 = EDGE_CURVE ( 'NONE', #35, #158, #334, .T. ) ;
#123 = DIRECTION ( 'NONE',  ( -0.000000000000000000, -0.000000000000000000, -1.000000000000000000 ) ) ;
#124 = EDGE_LOOP ( 'NONE', ( #278, #336, #49, #5 ) ) ;
#125 = CIRCLE ( 'NONE', #354, 3.000000000000000444 ) ;
#126 = APPLICATION_CONTEXT ( 'configuration controlled 3d designs of mechanical parts and assemblies' ) ;
#127 = ORIENTED_EDGE ( 'NONE', *, *, #116, .T. ) ;
#128 = EDGE_CURVE ( 'NONE', #280, #109, #76, .T. ) ;
#129 = PERSON_AND_ORGANIZATION ( #21, #317 ) ;
#130 = ORIENTED_EDGE ( 'NONE', *, *, #200, .T. ) ;
#131 = EDGE_LOOP ( 'NONE', ( #159, #194, #273, #368 ) ) ;
#132 = COORDINATED_UNIVERSAL_TIME_OFFSET ( 1, 0, .AHEAD. ) ;
#133 = CIRCLE ( 'NONE', #188, 3.000000000000000444 ) ;
#134 = LOCAL_TIME ( 16, 52, 10.00000000000000000, #91 ) ;
#135 = EDGE_CURVE ( 'NONE', #109, #356, #196, .T. ) ;
#136 = ORIENTED_EDGE ( 'NONE', *, *, #140, .F. ) ;
#137 = CARTESIAN_POINT ( 'NONE',  ( -6.000000000000000888, 0.000000000000000000, 757.0000000000000000 ) ) ;
#138 = DIRECTION ( 'NONE',  ( 0.000000000000000000, 0.000000000000000000, 1.000000000000000000 ) ) ;
#139 = CYLINDRICAL_SURFACE ( 'NONE', #163, 6.000000000000000888 ) ;
#140 = EDGE_CURVE ( 'NONE', #340, #94, #133, .T. ) ;
#141 = EDGE_LOOP ( 'NONE', ( #81, #213 ) ) ;
#142 = DIRECTION ( 'NONE',  ( 1.000000000000000000, 0.000000000000000000, 0.000000000000000000 ) ) ;
#143 = EDGE_LOOP ( 'NONE', ( #326, #161, #270, #68 ) ) ;
#144 = DIRECTION ( 'NONE',  ( -0.000000000000000000, -0.000000000000000000, -1.000000000000000000 ) ) ;
#145 = DIRECTION ( 'NONE',  ( 1.000000000000000000, 0.000000000000000000, -0.000000000000000000 ) ) ;
#146 = CARTESIAN_POINT ( 'NONE',  ( 0.000000000000000000, 0.000000000000000000, 7.000000000000000000 ) ) ;
#147 = ADVANCED_FACE ( 'NONE', ( #207 ), #4, .F. ) ;
#148 = AXIS2_PLACEMENT_3D ( 'NONE', #366, #106, #221 ) ;
#149 = AXIS2_PLACEMENT_3D ( 'NONE', #202, #56, #295 ) ;
#150 = DIRECTION ( 'NONE',  ( -1.000000000000000000, 0.000000000000000000, 0.000000000000000000 ) ) ;
#151 = AXIS2_PLACEMENT_3D ( 'NONE', #186, #160, #369 ) ;
#152 = EDGE_CURVE ( 'NONE', #158, #333, #173, .T. ) ;
#153 =( NAMED_UNIT ( * ) PLANE_ANGLE_UNIT ( ) SI_UNIT ( $, .RADIAN. ) );
#154 = ORIENTED_EDGE ( 'NONE', *, *, #152, .F. ) ;
#155 = CARTESIAN_POINT ( 'NONE',  ( -6.000000000000000888, 0.000000000000000000, 7.499999999999951150 ) ) ;
#156 = ADVANCED_FACE ( 'NONE', ( #31 ), #89, .F. ) ;
#157 = DIRECTION ( 'NONE',  ( -1.000000000000000000, 0.000000000000000000, 0.000000000000000000 ) ) ;
#158 = VERTEX_POINT ( 'NONE', #73 ) ;
#159 = ORIENTED_EDGE ( 'NONE', *, *, #116, .F. ) ;
#160 = DIRECTION ( 'NONE',  ( 0.000000000000000000, 0.000000000000000000, 1.000000000000000000 ) ) ;
#161 = ORIENTED_EDGE ( 'NONE', *, *, #372, .T. ) ;
#162 = CARTESIAN_POINT ( 'NONE',  ( 0.000000000000000000, 0.000000000000000000, 7.499999999999951150 ) ) ;
#163 = AXIS2_PLACEMENT_3D ( 'NONE', #370, #256, #259 ) ;
#164 = VERTEX_POINT ( 'NONE', #67 ) ;
#165 = CARTESIAN_POINT ( 'NONE',  ( 0.000000000000000000, 0.000000000000000000, 0.000000000000000000 ) ) ;
#166 = CARTESIAN_POINT ( 'NONE',  ( -10.00000000000000000, 0.000000000000000000, 7.000000000000000000 ) ) ;
#167 = CC_DESIGN_DATE_AND_TIME_ASSIGNMENT ( #307, #38, ( #87 ) ) ;
#168 = AXIS2_PLACEMENT_3D ( 'NONE', #328, #299, #157 ) ;
#169 = AXIS2_PLACEMENT_3D ( 'NONE', #9, #215, #284 ) ;
#170 = APPROVAL_ROLE ( '' ) ;
#171 = COORDINATED_UNIVERSAL_TIME_OFFSET ( 1, 0, .AHEAD. ) ;
#172 = CARTESIAN_POINT ( 'NONE',  ( -3.000000000000000444, 0.000000000000000000, 757.0000000000000000 ) ) ;
#173 = CIRCLE ( 'NONE', #211, 6.000000000000000888 ) ;
#174 = CC_DESIGN_APPROVAL ( #302, ( #87 ) ) ;
#175 = FACE_OUTER_BOUND ( 'NONE', #102, .T. ) ;
#176 = DIRECTION ( 'NONE',  ( -0.000000000000000000, -0.000000000000000000, -1.000000000000000000 ) ) ;
#177 = PRODUCT_RELATED_PRODUCT_CATEGORY ( 'detail', '', ( #347 ) ) ;
#178 = EDGE_LOOP ( 'NONE', ( #282, #154, #130, #218 ) ) ;
#179 = CARTESIAN_POINT ( 'NONE',  ( 0.000000000000000000, 0.000000000000000000, 0.000000000000000000 ) ) ;
#180 = ORIENTED_EDGE ( 'NONE', *, *, #212, .F. ) ;
#181 = CIRCLE ( 'NONE', #96, 0.5000000000000004441 ) ;
#182 = ORIENTED_EDGE ( 'NONE', *, *, #374, .T. ) ;
#183 = PERSON_AND_ORGANIZATION_ROLE ( 'design_supplier' ) ;
#184 = DIRECTION ( 'NONE',  ( 1.000000000000000000, 0.000000000000000000, 0.000000000000000000 ) ) ;
#185 = SHAPE_DEFINITION_REPRESENTATION ( #53, #229 ) ;
#186 = CARTESIAN_POINT ( 'NONE',  ( 0.000000000000000000, 0.000000000000000000, 7.499999999999951150 ) ) ;
#187 = APPROVAL_ROLE ( '' ) ;
#188 = AXIS2_PLACEMENT_3D ( 'NONE', #115, #240, #380 ) ;
#189 =( GEOMETRIC_REPRESENTATION_CONTEXT ( 3 ) GLOBAL_UNCERTAINTY_ASSIGNED_CONTEXT ( ( #308 ) ) GLOBAL_UNIT_ASSIGNED_CONTEXT ( ( #263, #153, #376 ) ) REPRESENTATION_CONTEXT ( 'NONE', 'WORKASPACE' ) );
#190 = CARTESIAN_POINT ( 'NONE',  ( -3.000000000000000444, 0.000000000000000000, 0.000000000000000000 ) ) ;
#191 = DIRECTION ( 'NONE',  ( 0.000000000000000000, 0.000000000000000000, 1.000000000000000000 ) ) ;
#192 = CC_DESIGN_PERSON_AND_ORGANIZATION_ASSIGNMENT ( #248, #66, ( #87 ) ) ;
#193 = FACE_OUTER_BOUND ( 'NONE', #124, .T. ) ;
#194 = ORIENTED_EDGE ( 'NONE', *, *, #122, .T. ) ;
#195 = APPROVAL_PERSON_ORGANIZATION ( #322, #8, #170 ) ;
#196 = LINE ( 'NONE', #166, #296 ) ;
#197 = LINE ( 'NONE', #137, #237 ) ;
#198 = CARTESIAN_POINT ( 'NONE',  ( 0.000000000000000000, 0.000000000000000000, 7.499999999999951150 ) ) ;
#199 = CARTESIAN_POINT ( 'NONE',  ( 0.000000000000000000, 0.000000000000000000, 7.000000000000000000 ) ) ;
#200 = EDGE_CURVE ( 'NONE', #158, #208, #360, .T. ) ;
#201 = MECHANICAL_CONTEXT ( 'NONE', #43, 'mechanical' ) ;
#202 = CARTESIAN_POINT ( 'NONE',  ( 0.000000000000000000, 0.000000000000000000, 7.000000000000000000 ) ) ;
#203 = LINE ( 'NONE', #172, #349 ) ;
#204 = CC_DESIGN_PERSON_AND_ORGANIZATION_ASSIGNMENT ( #129, #279, ( #247 ) ) ;
#205 = DIRECTION ( 'NONE',  ( 0.000000000000000000, 0.000000000000000000, 1.000000000000000000 ) ) ;
#206 = ORIENTED_EDGE ( 'NONE', *, *, #108, .T. ) ;
#207 = FACE_OUTER_BOUND ( 'NONE', #301, .T. ) ;
#208 = VERTEX_POINT ( 'NONE', #104 ) ;
#209 = APPROVAL_DATE_TIME ( #274, #234 ) ;
#210 = VERTEX_POINT ( 'NONE', #359 ) ;
#211 = AXIS2_PLACEMENT_3D ( 'NONE', #198, #236, #266 ) ;
#212 = EDGE_CURVE ( 'NONE', #333, #158, #311, .T. ) ;
#213 = ORIENTED_EDGE ( 'NONE', *, *, #128, .T. ) ;
#214 = CALENDAR_DATE ( 2022, 8, 7 ) ;
#215 = DIRECTION ( 'NONE',  ( 0.000000000000000000, -1.000000000000000000, 0.000000000000000000 ) ) ;
#216 = EDGE_LOOP ( 'NONE', ( #180, #2, #39, #243 ) ) ;
#217 = CALENDAR_DATE ( 2022, 8, 7 ) ;
#218 = ORIENTED_EDGE ( 'NONE', *, *, #374, .F. ) ;
#219 = EDGE_CURVE ( 'NONE', #164, #10, #230, .T. ) ;
#220 = TOROIDAL_SURFACE ( 'NONE', #86, 6.500000000000000888, 0.5000000000000000000 ) ;
#221 = DIRECTION ( 'NONE',  ( 1.000000000000000000, 0.000000000000000000, 0.000000000000000000 ) ) ;
#222 = DIRECTION ( 'NONE',  ( 1.000000000000000000, 0.000000000000000000, 0.000000000000000000 ) ) ;
#223 = FACE_OUTER_BOUND ( 'NONE', #216, .T. ) ;
#224 = CARTESIAN_POINT ( 'NONE',  ( 10.00000000000000000, 1.224646799147353256E-15, 7.000000000000000000 ) ) ;
#225 = AXIS2_PLACEMENT_3D ( 'NONE', #381, #232, #264 ) ;
#226 = DIRECTION ( 'NONE',  ( 0.000000000000000000, 0.000000000000000000, 1.000000000000000000 ) ) ;
#227 = PERSON_AND_ORGANIZATION ( #21, #317 ) ;
#228 = DIRECTION ( 'NONE',  ( 1.000000000000000000, 0.000000000000000000, -0.000000000000000000 ) ) ;
#229 = ADVANCED_BREP_SHAPE_REPRESENTATION ( '8faf', ( #250, #51 ), #189 ) ;
#230 = CIRCLE ( 'NONE', #97, 3.000000000000000444 ) ;
#231 = LINE ( 'NONE', #351, #63 ) ;
#232 = DIRECTION ( 'NONE',  ( 0.000000000000000000, 0.000000000000000000, 1.000000000000000000 ) ) ;
#233 = LINE ( 'NONE', #30, #15 ) ;
#234 = APPROVAL ( #95, 'NEURÈENÝ' ) ;
#235 = DIRECTION ( 'NONE',  ( 0.000000000000000000, 0.000000000000000000, 1.000000000000000000 ) ) ;
#236 = DIRECTION ( 'NONE',  ( 0.000000000000000000, 0.000000000000000000, 1.000000000000000000 ) ) ;
#237 = VECTOR ( 'NONE', #257, 1000.000000000000000 ) ;
#238 = CC_DESIGN_APPROVAL ( #8, ( #44 ) ) ;
#239 = ORIENTED_EDGE ( 'NONE', *, *, #37, .T. ) ;
#240 = DIRECTION ( 'NONE',  ( 0.000000000000000000, 0.000000000000000000, 1.000000000000000000 ) ) ;
#241 = EDGE_LOOP ( 'NONE', ( #72, #61, #329, #90 ) ) ;
#242 = DIRECTION ( 'NONE',  ( 0.000000000000000000, 0.000000000000000000, 1.000000000000000000 ) ) ;
#243 = ORIENTED_EDGE ( 'NONE', *, *, #200, .F. ) ;
#244 = PERSON_AND_ORGANIZATION ( #21, #317 ) ;
#245 = DIRECTION ( 'NONE',  ( 1.000000000000000000, 0.000000000000000000, -0.000000000000000000 ) ) ;
#246 = EDGE_LOOP ( 'NONE', ( #306, #182 ) ) ;
#247 = PRODUCT_DEFINITION_FORMATION_WITH_SPECIFIED_SOURCE ( 'LIBOVOLNÝ', '', #347, .NOT_KNOWN. ) ;
#248 = PERSON_AND_ORGANIZATION ( #21, #317 ) ;
#249 = DESIGN_CONTEXT ( 'detailed design', #126, 'design' ) ;
#250 = MANIFOLD_SOLID_BREP ( 'Odebrat vysunutím3', #260 ) ;
#251 = ORIENTED_EDGE ( 'NONE', *, *, #17, .F. ) ;
#252 = ADVANCED_FACE ( 'NONE', ( #371, #111 ), #320, .T. ) ;
#253 = DIRECTION ( 'NONE',  ( 1.000000000000000000, 0.000000000000000000, 0.000000000000000000 ) ) ;
#254 = DIRECTION ( 'NONE',  ( -1.000000000000000000, 1.224646799147351482E-16, 0.000000000000000000 ) ) ;
#255 = VECTOR ( 'NONE', #80, 1000.000000000000000 ) ;
#256 = DIRECTION ( 'NONE',  ( -0.000000000000000000, -0.000000000000000000, -1.000000000000000000 ) ) ;
#257 = DIRECTION ( 'NONE',  ( -0.000000000000000000, -0.000000000000000000, -1.000000000000000000 ) ) ;
#258 = ADVANCED_FACE ( 'NONE', ( #379 ), #26, .T. ) ;
#259 = DIRECTION ( 'NONE',  ( -1.000000000000000000, 0.000000000000000000, 0.000000000000000000 ) ) ;
#260 = CLOSED_SHELL ( 'NONE', ( #147, #93, #268, #258, #314, #252, #262, #82, #291, #12, #156 ) ) ;
#261 = CARTESIAN_POINT ( 'NONE',  ( 0.000000000000000000, 0.000000000000000000, 757.0000000000000000 ) ) ;
#262 = ADVANCED_FACE ( 'NONE', ( #121, #175 ), #88, .F. ) ;
#263 =( LENGTH_UNIT ( ) NAMED_UNIT ( * ) SI_UNIT ( .MILLI., .METRE. ) );
#264 = DIRECTION ( 'NONE',  ( 1.000000000000000000, 0.000000000000000000, 0.000000000000000000 ) ) ;
#265 = AXIS2_PLACEMENT_3D ( 'NONE', #45, #191, #316 ) ;
#266 = DIRECTION ( 'NONE',  ( 1.000000000000000000, 0.000000000000000000, 0.000000000000000000 ) ) ;
#267 = CARTESIAN_POINT ( 'NONE',  ( 3.000000000000000444, 3.673940397442060361E-16, 757.0000000000000000 ) ) ;
#268 = ADVANCED_FACE ( 'NONE', ( #337 ), #269, .T. ) ;
#269 = CYLINDRICAL_SURFACE ( 'NONE', #272, 6.000000000000000888 ) ;
#270 = ORIENTED_EDGE ( 'NONE', *, *, #321, .T. ) ;
#271 = CALENDAR_DATE ( 2022, 8, 7 ) ;
#272 = AXIS2_PLACEMENT_3D ( 'NONE', #24, #27, #118 ) ;
#273 = ORIENTED_EDGE ( 'NONE', *, *, #152, .T. ) ;
#274 = DATE_AND_TIME ( #217, #297 ) ;
#275 = ORIENTED_EDGE ( 'NONE', *, *, #276, .T. ) ;
#276 = EDGE_CURVE ( 'NONE', #340, #164, #231, .T. ) ;
#277 = CARTESIAN_POINT ( 'NONE',  ( 0.000000000000000000, 0.000000000000000000, 757.0000000000000000 ) ) ;
#278 = ORIENTED_EDGE ( 'NONE', *, *, #122, .F. ) ;
#279 = PERSON_AND_ORGANIZATION_ROLE ( 'creator' ) ;
#280 = VERTEX_POINT ( 'NONE', #224 ) ;
#281 = AXIS2_PLACEMENT_3D ( 'NONE', #199, #323, #150 ) ;
#282 = ORIENTED_EDGE ( 'NONE', *, *, #57, .F. ) ;
#283 = DIRECTION ( 'NONE',  ( 0.000000000000000000, 0.000000000000000000, 1.000000000000000000 ) ) ;
#284 = DIRECTION ( 'NONE',  ( 0.000000000000000000, 0.000000000000000000, -1.000000000000000000 ) ) ;
#285 = CIRCLE ( 'NONE', #225, 10.00000000000000000 ) ;
#286 = EDGE_LOOP ( 'NONE', ( #46, #33, #36, #206 ) ) ;
#287 = DIRECTION ( 'NONE',  ( 0.000000000000000000, 0.000000000000000000, 1.000000000000000000 ) ) ;
#288 = DIRECTION ( 'NONE',  ( 0.000000000000000000, 0.000000000000000000, -1.000000000000000000 ) ) ;
#289 = AXIS2_PLACEMENT_3D ( 'NONE', #338, #79, #74 ) ;
#290 = CC_DESIGN_APPROVAL ( #234, ( #247 ) ) ;
#291 = ADVANCED_FACE ( 'NONE', ( #110, #343 ), #19, .T. ) ;
#292 = DATE_AND_TIME ( #373, #28 ) ;
#293 = CALENDAR_DATE ( 2022, 8, 7 ) ;
#294 = DIRECTION ( 'NONE',  ( 1.000000000000000000, 0.000000000000000000, 0.000000000000000000 ) ) ;
#295 = DIRECTION ( 'NONE',  ( -1.000000000000000000, 0.000000000000000000, 0.000000000000000000 ) ) ;
#296 = VECTOR ( 'NONE', #144, 1000.000000000000000 ) ;
#297 = LOCAL_TIME ( 16, 52, 10.00000000000000000, #312 ) ;
#298 = CARTESIAN_POINT ( 'NONE',  ( -6.000000000000000888, 0.000000000000000000, 757.0000000000000000 ) ) ;
#299 = DIRECTION ( 'NONE',  ( 0.000000000000000000, 0.000000000000000000, -1.000000000000000000 ) ) ;
#300 = PERSON_AND_ORGANIZATION ( #21, #317 ) ;
#301 = EDGE_LOOP ( 'NONE', ( #239, #275, #65, #99 ) ) ;
#302 = APPROVAL ( #40, 'NEURÈENÝ' ) ;
#303 = CIRCLE ( 'NONE', #365, 6.000000000000000888 ) ;
#304 = ORIENTED_EDGE ( 'NONE', *, *, #321, .F. ) ;
#305 = PERSON_AND_ORGANIZATION ( #21, #317 ) ;
#306 = ORIENTED_EDGE ( 'NONE', *, *, #77, .T. ) ;
#307 = DATE_AND_TIME ( #271, #134 ) ;
#308 = UNCERTAINTY_MEASURE_WITH_UNIT (LENGTH_MEASURE( 1.000000000000000082E-05 ), #263, 'distance_accuracy_value', 'NONE');
#309 = VERTEX_POINT ( 'NONE', #378 ) ;
#310 = CC_DESIGN_DATE_AND_TIME_ASSIGNMENT ( #25, #363, ( #44 ) ) ;
#311 = CIRCLE ( 'NONE', #151, 6.000000000000000888 ) ;
#312 = COORDINATED_UNIVERSAL_TIME_OFFSET ( 1, 0, .AHEAD. ) ;
#313 = FACE_OUTER_BOUND ( 'NONE', #178, .T. ) ;
#314 = ADVANCED_FACE ( 'NONE', ( #353 ), #120, .T. ) ;
#315 = ORIENTED_EDGE ( 'NONE', *, *, #37, .F. ) ;
#316 = DIRECTION ( 'NONE',  ( 1.000000000000000000, 0.000000000000000000, 0.000000000000000000 ) ) ;
#317 = ORGANIZATION ( 'NEURÈENÝ', 'NEURÈENÝ', '' ) ;
#318 = AXIS2_PLACEMENT_3D ( 'NONE', #59, #176, #85 ) ;
#319 = DIRECTION ( 'NONE',  ( 0.000000000000000000, 0.000000000000000000, 1.000000000000000000 ) ) ;
#320 = PLANE ( 'NONE',  #377 ) ;
#321 = EDGE_CURVE ( 'NONE', #309, #356, #285, .T. ) ;
#322 = PERSON_AND_ORGANIZATION ( #21, #317 ) ;
#323 = DIRECTION ( 'NONE',  ( -0.000000000000000000, -0.000000000000000000, -1.000000000000000000 ) ) ;
#324 = CC_DESIGN_PERSON_AND_ORGANIZATION_ASSIGNMENT ( #227, #348, ( #44 ) ) ;
#325 = CARTESIAN_POINT ( 'NONE',  ( 0.000000000000000000, 0.000000000000000000, 7.000000000000000000 ) ) ;
#326 = ORIENTED_EDGE ( 'NONE', *, *, #128, .F. ) ;
#327 = CC_DESIGN_PERSON_AND_ORGANIZATION_ASSIGNMENT ( #244, #183, ( #247 ) ) ;
#328 = CARTESIAN_POINT ( 'NONE',  ( 0.000000000000000000, 0.000000000000000000, 757.0000000000000000 ) ) ;
#329 = ORIENTED_EDGE ( 'NONE', *, *, #135, .T. ) ;
#330 = DIRECTION ( 'NONE',  ( -1.000000000000000000, 0.000000000000000000, 0.000000000000000000 ) ) ;
#331 = EDGE_LOOP ( 'NONE', ( #364, #127 ) ) ;
#332 = CARTESIAN_POINT ( 'NONE',  ( 0.000000000000000000, 0.000000000000000000, 757.0000000000000000 ) ) ;
#333 = VERTEX_POINT ( 'NONE', #155 ) ;
#334 = LINE ( 'NONE', #107, #255 ) ;
#335 = TOROIDAL_SURFACE ( 'NONE', #69, 6.500000000000000888, 0.5000000000000000000 ) ;
#336 = ORIENTED_EDGE ( 'NONE', *, *, #64, .F. ) ;
#337 = FACE_OUTER_BOUND ( 'NONE', #131, .T. ) ;
#338 = CARTESIAN_POINT ( 'NONE',  ( 0.000000000000000000, 0.000000000000000000, 7.000000000000000000 ) ) ;
#339 = EDGE_CURVE ( 'NONE', #109, #280, #105, .T. ) ;
#340 = VERTEX_POINT ( 'NONE', #267 ) ;
#341 = CARTESIAN_POINT ( 'NONE',  ( -3.000000000000000444, 0.000000000000000000, 757.0000000000000000 ) ) ;
#342 = APPROVAL_PERSON_ORGANIZATION ( #305, #302, #1 ) ;
#343 = FACE_OUTER_BOUND ( 'NONE', #331, .T. ) ;
#344 = DIRECTION ( 'NONE',  ( 1.000000000000000000, 0.000000000000000000, 0.000000000000000000 ) ) ;
#345 = DIRECTION ( 'NONE',  ( 0.000000000000000000, 0.000000000000000000, 1.000000000000000000 ) ) ;
#346 = APPLICATION_PROTOCOL_DEFINITION ( 'international standard', 'config_control_design', 1994, #126 ) ;
#347 = PRODUCT ( '8faf', '8faf', '', ( #201 ) ) ;
#348 = PERSON_AND_ORGANIZATION_ROLE ( 'creator' ) ;
#349 = VECTOR ( 'NONE', #29, 1000.000000000000000 ) ;
#350 = EDGE_CURVE ( 'NONE', #94, #10, #203, .T. ) ;
#351 = CARTESIAN_POINT ( 'NONE',  ( 3.000000000000000444, 3.673940397442060361E-16, 757.0000000000000000 ) ) ;
#352 = CARTESIAN_POINT ( 'NONE',  ( -10.00000000000000000, 0.000000000000000000, 0.000000000000000000 ) ) ;
#353 = FACE_OUTER_BOUND ( 'NONE', #241, .T. ) ;
#354 = AXIS2_PLACEMENT_3D ( 'NONE', #179, #6, #184 ) ;
#355 = CIRCLE ( 'NONE', #318, 6.500000000000000888 ) ;
#356 = VERTEX_POINT ( 'NONE', #352 ) ;
#357 = EDGE_LOOP ( 'NONE', ( #62, #92 ) ) ;
#358 = DATE_AND_TIME ( #214, #58 ) ;
#359 = CARTESIAN_POINT ( 'NONE',  ( -6.500000000000000888, 7.960204194457796463E-16, 6.999999999999975131 ) ) ;
#360 = CIRCLE ( 'NONE', #169, 0.5000000000000004441 ) ;
#361 = VERTEX_POINT ( 'NONE', #298 ) ;
#362 = DIRECTION ( 'NONE',  ( 1.000000000000000000, 0.000000000000000000, 0.000000000000000000 ) ) ;
#363 = DATE_TIME_ROLE ( 'creation_date' ) ;
#364 = ORIENTED_EDGE ( 'NONE', *, *, #64, .T. ) ;
#365 = AXIS2_PLACEMENT_3D ( 'NONE', #332, #100, #362 ) ;
#366 = CARTESIAN_POINT ( 'NONE',  ( 0.000000000000000000, 0.000000000000000000, 757.0000000000000000 ) ) ;
#367 = CC_DESIGN_PERSON_AND_ORGANIZATION_ASSIGNMENT ( #300, #32, ( #347 ) ) ;
#368 = ORIENTED_EDGE ( 'NONE', *, *, #23, .F. ) ;
#369 = DIRECTION ( 'NONE',  ( 1.000000000000000000, 0.000000000000000000, 0.000000000000000000 ) ) ;
#370 = CARTESIAN_POINT ( 'NONE',  ( 0.000000000000000000, 0.000000000000000000, 757.0000000000000000 ) ) ;
#371 = FACE_BOUND ( 'NONE', #246, .T. ) ;
#372 = EDGE_CURVE ( 'NONE', #280, #309, #233, .T. ) ;
#373 = CALENDAR_DATE ( 2022, 8, 7 ) ;
#374 = EDGE_CURVE ( 'NONE', #210, #208, #355, .T. ) ;
#375 = CIRCLE ( 'NONE', #148, 6.000000000000000888 ) ;
#376 =( NAMED_UNIT ( * ) SI_UNIT ( $, .STERADIAN. ) SOLID_ANGLE_UNIT ( ) );
#377 = AXIS2_PLACEMENT_3D ( 'NONE', #146, #345, #228 ) ;
#378 = CARTESIAN_POINT ( 'NONE',  ( 10.00000000000000000, 1.224646799147353256E-15, 0.000000000000000000 ) ) ;
#379 = FACE_OUTER_BOUND ( 'NONE', #143, .T. ) ;
#380 = DIRECTION ( 'NONE',  ( 1.000000000000000000, 0.000000000000000000, 0.000000000000000000 ) ) ;
#381 = CARTESIAN_POINT ( 'NONE',  ( 0.000000000000000000, 0.000000000000000000, 0.000000000000000000 ) ) ;
ENDSEC;
END-ISO-10303-21;
