ISO-10303-21;
HEADER;
FILE_DESCRIPTION (( 'STEP AP203' ),
    '1' );
FILE_NAME ('0ba2.STEP',
    '2022-07-08T14:50:32',
    ( '' ),
    ( '' ),
    'SwSTEP 2.0',
    'SolidWorks 2019',
    '' );
FILE_SCHEMA (( 'CONFIG_CONTROL_DESIGN' ));
ENDSEC;

DATA;
#1 = CARTESIAN_POINT ( 'NONE',  ( 0.000000000000000000, 0.000000000000000000, 5.500000000000005329 ) ) ;
#2 = AXIS2_PLACEMENT_3D ( 'NONE', #271, #16, #44 ) ;
#3 = DIRECTION ( 'NONE',  ( 1.000000000000000000, 0.000000000000000000, 0.000000000000000000 ) ) ;
#4 = EDGE_CURVE ( 'NONE', #314, #79, #356, .T. ) ;
#5 = DIRECTION ( 'NONE',  ( 1.000000000000000000, 0.000000000000000000, 0.000000000000000000 ) ) ;
#6 = PERSON_AND_ORGANIZATION ( #40, #133 ) ;
#7 = FACE_OUTER_BOUND ( 'NONE', #100, .T. ) ;
#8 = AXIS2_PLACEMENT_3D ( 'NONE', #254, #111, #350 ) ;
#9 = AXIS2_PLACEMENT_3D ( 'NONE', #143, #258, #3 ) ;
#10 = CYLINDRICAL_SURFACE ( 'NONE', #70, 3.100000000000000089 ) ;
#11 = CARTESIAN_POINT ( 'NONE',  ( 0.000000000000000000, 0.000000000000000000, 205.0000000000000284 ) ) ;
#12 = PERSON_AND_ORGANIZATION ( #40, #133 ) ;
#13 = ORIENTED_EDGE ( 'NONE', *, *, #94, .T. ) ;
#14 = VECTOR ( 'NONE', #166, 1000.000000000000000 ) ;
#15 = AXIS2_PLACEMENT_3D ( 'NONE', #321, #261, #67 ) ;
#16 = DIRECTION ( 'NONE',  ( -0.000000000000000000, -0.000000000000000000, -1.000000000000000000 ) ) ;
#17 = ORIENTED_EDGE ( 'NONE', *, *, #189, .T. ) ;
#18 = EDGE_CURVE ( 'NONE', #371, #219, #194, .T. ) ;
#19 = DIRECTION ( 'NONE',  ( -1.000000000000000000, 0.000000000000000000, 0.000000000000000000 ) ) ;
#20 = VERTEX_POINT ( 'NONE', #289 ) ;
#21 = PERSON_AND_ORGANIZATION_ROLE ( 'design_owner' ) ;
#22 = ORIENTED_EDGE ( 'NONE', *, *, #24, .T. ) ;
#23 = ORIENTED_EDGE ( 'NONE', *, *, #57, .F. ) ;
#24 = EDGE_CURVE ( 'NONE', #47, #278, #195, .T. ) ;
#25 = CARTESIAN_POINT ( 'NONE',  ( 0.000000000000000000, 0.000000000000000000, 5.000000000000000000 ) ) ;
#26 = CARTESIAN_POINT ( 'NONE',  ( 3.100000000000000089, 3.796405077356794918E-16, 205.0000000000000284 ) ) ;
#27 = PRODUCT ( '0ba2', '0ba2', '', ( #75 ) ) ;
#28 = LOCAL_TIME ( 16, 50, 32.00000000000000000, #178 ) ;
#29 = LINE ( 'NONE', #252, #251 ) ;
#30 = EDGE_CURVE ( 'NONE', #217, #275, #221, .T. ) ;
#31 = CARTESIAN_POINT ( 'NONE',  ( -5.000000000000000000, 0.000000000000000000, 205.0000000000000284 ) ) ;
#32 = DIRECTION ( 'NONE',  ( 1.000000000000000000, 0.000000000000000000, 0.000000000000000000 ) ) ;
#33 = DIRECTION ( 'NONE',  ( -1.000000000000000000, 0.000000000000000000, 0.000000000000000000 ) ) ;
#34 = ADVANCED_FACE ( 'NONE', ( #55, #138 ), #171, .T. ) ;
#35 = CYLINDRICAL_SURFACE ( 'NONE', #103, 5.000000000000000000 ) ;
#36 = DIRECTION ( 'NONE',  ( 0.000000000000000000, 0.000000000000000000, 1.000000000000000000 ) ) ;
#37 = DIRECTION ( 'NONE',  ( -0.000000000000000000, -0.000000000000000000, -1.000000000000000000 ) ) ;
#38 = APPROVAL_ROLE ( '' ) ;
#39 = CARTESIAN_POINT ( 'NONE',  ( 0.000000000000000000, 0.000000000000000000, 5.000000000000000000 ) ) ;
#40 = PERSON ( 'NEURÈENÝ', 'NEURÈENÝ', 'NEURÈENÝ', ('NEURÈENÝ'), ('NEURÈENÝ'), ('NEURÈENÝ') ) ;
#41 = APPLICATION_PROTOCOL_DEFINITION ( 'international standard', 'config_control_design', 1994, #326 ) ;
#42 = ORIENTED_EDGE ( 'NONE', *, *, #120, .F. ) ;
#43 = DATE_AND_TIME ( #279, #361 ) ;
#44 = DIRECTION ( 'NONE',  ( 1.000000000000000000, 0.000000000000000000, 0.000000000000000000 ) ) ;
#45 = ORIENTED_EDGE ( 'NONE', *, *, #189, .F. ) ;
#46 = AXIS2_PLACEMENT_3D ( 'NONE', #283, #226, #84 ) ;
#47 = VERTEX_POINT ( 'NONE', #288 ) ;
#48 = FACE_OUTER_BOUND ( 'NONE', #209, .T. ) ;
#49 = VERTEX_POINT ( 'NONE', #31 ) ;
#50 = PERSON_AND_ORGANIZATION ( #40, #133 ) ;
#51 = ADVANCED_FACE ( 'NONE', ( #167 ), #285, .T. ) ;
#52 = EDGE_LOOP ( 'NONE', ( #154, #228 ) ) ;
#53 = APPROVAL_PERSON_ORGANIZATION ( #179, #63, #243 ) ;
#54 = ORIENTED_EDGE ( 'NONE', *, *, #24, .F. ) ;
#55 = FACE_BOUND ( 'NONE', #102, .T. ) ;
#56 = DIRECTION ( 'NONE',  ( 1.000000000000000000, 0.000000000000000000, 0.000000000000000000 ) ) ;
#57 = EDGE_CURVE ( 'NONE', #79, #275, #139, .T. ) ;
#58 = TOROIDAL_SURFACE ( 'NONE', #369, 5.500000000000000000, 0.5000000000000000000 ) ;
#59 = LOCAL_TIME ( 16, 50, 32.00000000000000000, #105 ) ;
#60 = DIRECTION ( 'NONE',  ( 0.000000000000000000, 0.000000000000000000, 1.000000000000000000 ) ) ;
#61 = LINE ( 'NONE', #82, #338 ) ;
#62 = DIRECTION ( 'NONE',  ( 0.000000000000000000, 0.000000000000000000, 1.000000000000000000 ) ) ;
#63 = APPROVAL ( #267, 'NEURÈENÝ' ) ;
#64 = FACE_OUTER_BOUND ( 'NONE', #215, .T. ) ;
#65 = VECTOR ( 'NONE', #349, 1000.000000000000000 ) ;
#66 = FACE_OUTER_BOUND ( 'NONE', #363, .T. ) ;
#67 = DIRECTION ( 'NONE',  ( 1.000000000000000000, 0.000000000000000000, -0.000000000000000000 ) ) ;
#68 = PRODUCT_DEFINITION ( 'NEZNÁMÝ', '', #155, #364 ) ;
#69 = CYLINDRICAL_SURFACE ( 'NONE', #306, 3.100000000000000089 ) ;
#70 = AXIS2_PLACEMENT_3D ( 'NONE', #235, #172, #33 ) ;
#71 = PERSON_AND_ORGANIZATION ( #40, #133 ) ;
#72 = ORIENTED_EDGE ( 'NONE', *, *, #311, .F. ) ;
#73 = CC_DESIGN_DATE_AND_TIME_ASSIGNMENT ( #144, #259, ( #68 ) ) ;
#74 = CALENDAR_DATE ( 2022, 8, 7 ) ;
#75 = MECHANICAL_CONTEXT ( 'NONE', #326, 'mechanical' ) ;
#76 = ORIENTED_EDGE ( 'NONE', *, *, #256, .T. ) ;
#77 = SHAPE_DEFINITION_REPRESENTATION ( #378, #286 ) ;
#78 = LOCAL_TIME ( 16, 50, 32.00000000000000000, #213 ) ;
#79 = VERTEX_POINT ( 'NONE', #89 ) ;
#80 = EDGE_LOOP ( 'NONE', ( #367, #333 ) ) ;
#81 = APPROVAL_DATE_TIME ( #344, #170 ) ;
#82 = CARTESIAN_POINT ( 'NONE',  ( -3.100000000000000089, 0.000000000000000000, 205.0000000000000284 ) ) ;
#83 = CLOSED_SHELL ( 'NONE', ( #297, #205, #185, #51, #374, #246, #277, #212, #34, #225, #202 ) ) ;
#84 = DIRECTION ( 'NONE',  ( 1.000000000000000000, 0.000000000000000000, 0.000000000000000000 ) ) ;
#85 = ORIENTED_EDGE ( 'NONE', *, *, #269, .T. ) ;
#86 = EDGE_CURVE ( 'NONE', #314, #217, #61, .T. ) ;
#87 = CARTESIAN_POINT ( 'NONE',  ( 5.500000000000000000, 0.000000000000000000, 5.000000000000002665 ) ) ;
#88 = AXIS2_PLACEMENT_3D ( 'NONE', #122, #36, #5 ) ;
#89 = CARTESIAN_POINT ( 'NONE',  ( 3.100000000000000089, 3.796405077356794918E-16, 205.0000000000000284 ) ) ;
#90 = FACE_OUTER_BOUND ( 'NONE', #190, .T. ) ;
#91 = CARTESIAN_POINT ( 'NONE',  ( 0.000000000000000000, 0.000000000000000000, 5.000000000000000000 ) ) ;
#92 = FACE_OUTER_BOUND ( 'NONE', #157, .T. ) ;
#93 = FACE_BOUND ( 'NONE', #308, .T. ) ;
#94 = EDGE_CURVE ( 'NONE', #49, #365, #253, .T. ) ;
#95 = CARTESIAN_POINT ( 'NONE',  ( -8.000000000000000000, 0.000000000000000000, 0.000000000000000000 ) ) ;
#96 = DIRECTION ( 'NONE',  ( -0.000000000000000000, -0.000000000000000000, -1.000000000000000000 ) ) ;
#97 = ORIENTED_EDGE ( 'NONE', *, *, #290, .F. ) ;
#98 = PERSON_AND_ORGANIZATION_ROLE ( 'classification_officer' ) ;
#99 = CARTESIAN_POINT ( 'NONE',  ( 0.000000000000000000, 0.000000000000000000, 0.000000000000000000 ) ) ;
#100 = EDGE_LOOP ( 'NONE', ( #248, #85, #182, #244 ) ) ;
#101 = DATE_AND_TIME ( #74, #78 ) ;
#102 = EDGE_LOOP ( 'NONE', ( #268, #152 ) ) ;
#103 = AXIS2_PLACEMENT_3D ( 'NONE', #234, #37, #298 ) ;
#104 = ORIENTED_EDGE ( 'NONE', *, *, #30, .T. ) ;
#105 = COORDINATED_UNIVERSAL_TIME_OFFSET ( 1, 0, .AHEAD. ) ;
#106 = EDGE_LOOP ( 'NONE', ( #273, #45, #180, #131 ) ) ;
#107 = DIRECTION ( 'NONE',  ( -0.000000000000000000, -0.000000000000000000, -1.000000000000000000 ) ) ;
#108 = CIRCLE ( 'NONE', #352, 3.100000000000000089 ) ;
#109 = AXIS2_PLACEMENT_3D ( 'NONE', #159, #96, #19 ) ;
#110 = DIRECTION ( 'NONE',  ( 1.000000000000000000, 0.000000000000000000, 0.000000000000000000 ) ) ;
#111 = DIRECTION ( 'NONE',  ( -0.000000000000000000, -0.000000000000000000, -1.000000000000000000 ) ) ;
#112 = CARTESIAN_POINT ( 'NONE',  ( 0.000000000000000000, 0.000000000000000000, 0.000000000000000000 ) ) ;
#113 = CIRCLE ( 'NONE', #328, 3.100000000000000089 ) ;
#114 =( GEOMETRIC_REPRESENTATION_CONTEXT ( 3 ) GLOBAL_UNCERTAINTY_ASSIGNED_CONTEXT ( ( #127 ) ) GLOBAL_UNIT_ASSIGNED_CONTEXT ( ( #186, #240, #370 ) ) REPRESENTATION_CONTEXT ( 'NONE', 'WORKASPACE' ) );
#115 = DIRECTION ( 'NONE',  ( 0.000000000000000000, 0.000000000000000000, 1.000000000000000000 ) ) ;
#116 = CARTESIAN_POINT ( 'NONE',  ( 5.000000000000000000, 6.123233995736766282E-16, 5.500000000000005329 ) ) ;
#117 = CARTESIAN_POINT ( 'NONE',  ( -5.500000000000000000, 6.735557395310442023E-16, 5.000000000000002665 ) ) ;
#118 = CARTESIAN_POINT ( 'NONE',  ( 0.000000000000000000, 0.000000000000000000, 5.000000000000000000 ) ) ;
#119 = AXIS2_PLACEMENT_3D ( 'NONE', #220, #60, #56 ) ;
#120 = EDGE_CURVE ( 'NONE', #275, #217, #108, .T. ) ;
#121 = CIRCLE ( 'NONE', #9, 5.000000000000000000 ) ;
#122 = CARTESIAN_POINT ( 'NONE',  ( 0.000000000000000000, 0.000000000000000000, 5.500000000000005329 ) ) ;
#123 = DIRECTION ( 'NONE',  ( 1.000000000000000000, 0.000000000000000000, 0.000000000000000000 ) ) ;
#124 = EDGE_CURVE ( 'NONE', #79, #314, #113, .T. ) ;
#125 = ORIENTED_EDGE ( 'NONE', *, *, #291, .T. ) ;
#126 = CIRCLE ( 'NONE', #376, 8.000000000000000000 ) ;
#127 = UNCERTAINTY_MEASURE_WITH_UNIT (LENGTH_MEASURE( 1.000000000000000082E-05 ), #186, 'distance_accuracy_value', 'NONE');
#128 = ORIENTED_EDGE ( 'NONE', *, *, #124, .T. ) ;
#129 = MANIFOLD_SOLID_BREP ( 'Odebrat vysunutím3', #83 ) ;
#130 = EDGE_LOOP ( 'NONE', ( #309, #22, #373, #341 ) ) ;
#131 = ORIENTED_EDGE ( 'NONE', *, *, #136, .F. ) ;
#132 = CIRCLE ( 'NONE', #191, 0.5000000000000004441 ) ;
#133 = ORGANIZATION ( 'NEURÈENÝ', 'NEURÈENÝ', '' ) ;
#134 = ORIENTED_EDGE ( 'NONE', *, *, #120, .T. ) ;
#135 = DIRECTION ( 'NONE',  ( 1.000000000000000000, 0.000000000000000000, 0.000000000000000000 ) ) ;
#136 = EDGE_CURVE ( 'NONE', #211, #188, #153, .T. ) ;
#137 = ORIENTED_EDGE ( 'NONE', *, *, #158, .T. ) ;
#138 = FACE_OUTER_BOUND ( 'NONE', #80, .T. ) ;
#139 = LINE ( 'NONE', #26, #293 ) ;
#140 = DIRECTION ( 'NONE',  ( -0.000000000000000000, -0.000000000000000000, -1.000000000000000000 ) ) ;
#141 = TOROIDAL_SURFACE ( 'NONE', #214, 5.500000000000000000, 0.5000000000000000000 ) ;
#142 = CC_DESIGN_APPROVAL ( #63, ( #68 ) ) ;
#143 = CARTESIAN_POINT ( 'NONE',  ( 0.000000000000000000, 0.000000000000000000, 205.0000000000000284 ) ) ;
#144 = DATE_AND_TIME ( #324, #28 ) ;
#145 = DIRECTION ( 'NONE',  ( 1.000000000000000000, 0.000000000000000000, 0.000000000000000000 ) ) ;
#146 = FACE_OUTER_BOUND ( 'NONE', #52, .T. ) ;
#147 = AXIS2_PLACEMENT_3D ( 'NONE', #39, #230, #296 ) ;
#148 = AXIS2_PLACEMENT_3D ( 'NONE', #91, #354, #208 ) ;
#149 = COORDINATED_UNIVERSAL_TIME_OFFSET ( 1, 0, .AHEAD. ) ;
#150 = CARTESIAN_POINT ( 'NONE',  ( 0.000000000000000000, 0.000000000000000000, 205.0000000000000284 ) ) ;
#151 = APPROVAL_DATE_TIME ( #301, #63 ) ;
#152 = ORIENTED_EDGE ( 'NONE', *, *, #124, .F. ) ;
#153 = CIRCLE ( 'NONE', #177, 5.500000000000000000 ) ;
#154 = ORIENTED_EDGE ( 'NONE', *, *, #346, .F. ) ;
#155 = PRODUCT_DEFINITION_FORMATION_WITH_SPECIFIED_SOURCE ( 'LIBOVOLNÝ', '', #27, .NOT_KNOWN. ) ;
#156 = CARTESIAN_POINT ( 'NONE',  ( 5.500000000000000000, 0.000000000000000000, 5.500000000000005329 ) ) ;
#157 = EDGE_LOOP ( 'NONE', ( #23, #128, #250, #104 ) ) ;
#158 = EDGE_CURVE ( 'NONE', #20, #305, #29, .T. ) ;
#159 = CARTESIAN_POINT ( 'NONE',  ( 0.000000000000000000, 0.000000000000000000, 5.000000000000000000 ) ) ;
#160 = EDGE_LOOP ( 'NONE', ( #336, #42 ) ) ;
#161 = APPROVAL_ROLE ( '' ) ;
#162 = ORIENTED_EDGE ( 'NONE', *, *, #94, .F. ) ;
#163 = CIRCLE ( 'NONE', #255, 5.000000000000000000 ) ;
#164 = CIRCLE ( 'NONE', #148, 8.000000000000000000 ) ;
#165 = PERSON_AND_ORGANIZATION ( #40, #133 ) ;
#166 = DIRECTION ( 'NONE',  ( -0.000000000000000000, -0.000000000000000000, -1.000000000000000000 ) ) ;
#167 = FACE_OUTER_BOUND ( 'NONE', #130, .T. ) ;
#168 = DIRECTION ( 'NONE',  ( -0.000000000000000000, -0.000000000000000000, -1.000000000000000000 ) ) ;
#169 = DIRECTION ( 'NONE',  ( 1.000000000000000000, 0.000000000000000000, -0.000000000000000000 ) ) ;
#170 = APPROVAL ( #276, 'NEURÈENÝ' ) ;
#171 = PLANE ( 'NONE',  #227 ) ;
#172 = DIRECTION ( 'NONE',  ( 0.000000000000000000, 0.000000000000000000, -1.000000000000000000 ) ) ;
#173 = DIRECTION ( 'NONE',  ( 1.000000000000000000, 0.000000000000000000, 0.000000000000000000 ) ) ;
#174 = PLANE ( 'NONE',  #147 ) ;
#175 = DIRECTION ( 'NONE',  ( 1.000000000000000000, 0.000000000000000000, 0.000000000000000000 ) ) ;
#176 = DIRECTION ( 'NONE',  ( 1.000000000000000000, 0.000000000000000000, 0.000000000000000000 ) ) ;
#177 = AXIS2_PLACEMENT_3D ( 'NONE', #25, #168, #135 ) ;
#178 = COORDINATED_UNIVERSAL_TIME_OFFSET ( 1, 0, .AHEAD. ) ;
#179 = PERSON_AND_ORGANIZATION ( #40, #133 ) ;
#180 = ORIENTED_EDGE ( 'NONE', *, *, #329, .T. ) ;
#181 = CYLINDRICAL_SURFACE ( 'NONE', #109, 8.000000000000000000 ) ;
#182 = ORIENTED_EDGE ( 'NONE', *, *, #368, .F. ) ;
#183 = CARTESIAN_POINT ( 'NONE',  ( 0.000000000000000000, 0.000000000000000000, 0.000000000000000000 ) ) ;
#184 = ORIENTED_EDGE ( 'NONE', *, *, #136, .T. ) ;
#185 = ADVANCED_FACE ( 'NONE', ( #193 ), #379, .T. ) ;
#186 =( LENGTH_UNIT ( ) NAMED_UNIT ( * ) SI_UNIT ( .MILLI., .METRE. ) );
#187 = ORIENTED_EDGE ( 'NONE', *, *, #158, .F. ) ;
#188 = VERTEX_POINT ( 'NONE', #87 ) ;
#189 = EDGE_CURVE ( 'NONE', #305, #365, #163, .T. ) ;
#190 = EDGE_LOOP ( 'NONE', ( #223, #343, #134, #242 ) ) ;
#191 = AXIS2_PLACEMENT_3D ( 'NONE', #265, #327, #263 ) ;
#192 = CC_DESIGN_SECURITY_CLASSIFICATION ( #245, ( #155 ) ) ;
#193 = FACE_OUTER_BOUND ( 'NONE', #280, .T. ) ;
#194 = LINE ( 'NONE', #313, #14 ) ;
#195 = LINE ( 'NONE', #375, #299 ) ;
#196 = CIRCLE ( 'NONE', #88, 5.000000000000000000 ) ;
#197 = CC_DESIGN_PERSON_AND_ORGANIZATION_ASSIGNMENT ( #247, #334, ( #155 ) ) ;
#198 = LOCAL_TIME ( 16, 50, 32.00000000000000000, #237 ) ;
#199 = DIRECTION ( 'NONE',  ( 0.000000000000000000, 0.000000000000000000, -1.000000000000000000 ) ) ;
#200 = CARTESIAN_POINT ( 'NONE',  ( 8.000000000000000000, 9.797174393178825657E-16, 0.000000000000000000 ) ) ;
#201 = DIRECTION ( 'NONE',  ( 0.000000000000000000, 0.000000000000000000, -1.000000000000000000 ) ) ;
#202 = ADVANCED_FACE ( 'NONE', ( #92 ), #69, .F. ) ;
#203 = CARTESIAN_POINT ( 'NONE',  ( 0.000000000000000000, 0.000000000000000000, 5.500000000000005329 ) ) ;
#204 = PLANE ( 'NONE',  #15 ) ;
#205 = ADVANCED_FACE ( 'NONE', ( #7 ), #141, .F. ) ;
#206 = DIRECTION ( 'NONE',  ( 1.000000000000000000, 0.000000000000000000, 0.000000000000000000 ) ) ;
#207 = AXIS2_PLACEMENT_3D ( 'NONE', #183, #330, #332 ) ;
#208 = DIRECTION ( 'NONE',  ( 1.000000000000000000, 0.000000000000000000, 0.000000000000000000 ) ) ;
#209 = EDGE_LOOP ( 'NONE', ( #54, #72, #302, #241 ) ) ;
#210 = CARTESIAN_POINT ( 'NONE',  ( -8.000000000000000000, 0.000000000000000000, 5.000000000000000000 ) ) ;
#211 = VERTEX_POINT ( 'NONE', #117 ) ;
#212 = ADVANCED_FACE ( 'NONE', ( #64 ), #35, .T. ) ;
#213 = COORDINATED_UNIVERSAL_TIME_OFFSET ( 1, 0, .AHEAD. ) ;
#214 = AXIS2_PLACEMENT_3D ( 'NONE', #203, #353, #175 ) ;
#215 = EDGE_LOOP ( 'NONE', ( #187, #238, #13, #76 ) ) ;
#216 = CIRCLE ( 'NONE', #222, 8.000000000000000000 ) ;
#217 = VERTEX_POINT ( 'NONE', #358 ) ;
#218 = CC_DESIGN_PERSON_AND_ORGANIZATION_ASSIGNMENT ( #304, #21, ( #27 ) ) ;
#219 = VERTEX_POINT ( 'NONE', #95 ) ;
#220 = CARTESIAN_POINT ( 'NONE',  ( 0.000000000000000000, 0.000000000000000000, 205.0000000000000284 ) ) ;
#221 = CIRCLE ( 'NONE', #46, 3.100000000000000089 ) ;
#222 = AXIS2_PLACEMENT_3D ( 'NONE', #99, #307, #206 ) ;
#223 = ORIENTED_EDGE ( 'NONE', *, *, #4, .T. ) ;
#224 = DIRECTION ( 'NONE',  ( -1.000000000000000000, 0.000000000000000000, 0.000000000000000000 ) ) ;
#225 = ADVANCED_FACE ( 'NONE', ( #357 ), #58, .F. ) ;
#226 = DIRECTION ( 'NONE',  ( -0.000000000000000000, -0.000000000000000000, -1.000000000000000000 ) ) ;
#227 = AXIS2_PLACEMENT_3D ( 'NONE', #380, #317, #169 ) ;
#228 = ORIENTED_EDGE ( 'NONE', *, *, #229, .F. ) ;
#229 = EDGE_CURVE ( 'NONE', #278, #219, #360, .T. ) ;
#230 = DIRECTION ( 'NONE',  ( 0.000000000000000000, 0.000000000000000000, 1.000000000000000000 ) ) ;
#231 = FACE_BOUND ( 'NONE', #160, .T. ) ;
#232 = PERSON_AND_ORGANIZATION_ROLE ( 'creator' ) ;
#233 = CIRCLE ( 'NONE', #2, 5.500000000000000000 ) ;
#234 = CARTESIAN_POINT ( 'NONE',  ( 0.000000000000000000, 0.000000000000000000, 205.0000000000000284 ) ) ;
#235 = CARTESIAN_POINT ( 'NONE',  ( 0.000000000000000000, 0.000000000000000000, 205.0000000000000284 ) ) ;
#236 = CC_DESIGN_DATE_AND_TIME_ASSIGNMENT ( #101, #337, ( #245 ) ) ;
#237 = COORDINATED_UNIVERSAL_TIME_OFFSET ( 1, 0, .AHEAD. ) ;
#238 = ORIENTED_EDGE ( 'NONE', *, *, #303, .F. ) ;
#239 = PRODUCT_RELATED_PRODUCT_CATEGORY ( 'detail', '', ( #27 ) ) ;
#240 =( NAMED_UNIT ( * ) PLANE_ANGLE_UNIT ( ) SI_UNIT ( $, .RADIAN. ) );
#241 = ORIENTED_EDGE ( 'NONE', *, *, #346, .T. ) ;
#242 = ORIENTED_EDGE ( 'NONE', *, *, #86, .F. ) ;
#243 = APPROVAL_ROLE ( '' ) ;
#244 = ORIENTED_EDGE ( 'NONE', *, *, #329, .F. ) ;
#245 = SECURITY_CLASSIFICATION ( '', '', #372 ) ;
#246 = ADVANCED_FACE ( 'NONE', ( #93, #66 ), #174, .T. ) ;
#247 = PERSON_AND_ORGANIZATION ( #40, #133 ) ;
#248 = ORIENTED_EDGE ( 'NONE', *, *, #256, .F. ) ;
#249 = DIRECTION ( 'NONE',  ( -0.000000000000000000, -0.000000000000000000, -1.000000000000000000 ) ) ;
#250 = ORIENTED_EDGE ( 'NONE', *, *, #86, .T. ) ;
#251 = VECTOR ( 'NONE', #140, 1000.000000000000000 ) ;
#252 = CARTESIAN_POINT ( 'NONE',  ( 5.000000000000000000, 6.123233995736766282E-16, 205.0000000000000284 ) ) ;
#253 = LINE ( 'NONE', #377, #65 ) ;
#254 = CARTESIAN_POINT ( 'NONE',  ( 0.000000000000000000, 0.000000000000000000, 205.0000000000000284 ) ) ;
#255 = AXIS2_PLACEMENT_3D ( 'NONE', #1, #115, #145 ) ;
#256 = EDGE_CURVE ( 'NONE', #365, #305, #196, .T. ) ;
#257 = CC_DESIGN_APPROVAL ( #315, ( #155 ) ) ;
#258 = DIRECTION ( 'NONE',  ( 0.000000000000000000, 0.000000000000000000, 1.000000000000000000 ) ) ;
#259 = DATE_TIME_ROLE ( 'creation_date' ) ;
#260 = CARTESIAN_POINT ( 'NONE',  ( 3.100000000000000089, 3.796405077356794918E-16, 0.000000000000000000 ) ) ;
#261 = DIRECTION ( 'NONE',  ( 0.000000000000000000, 0.000000000000000000, 1.000000000000000000 ) ) ;
#262 = APPROVAL_PERSON_ORGANIZATION ( #165, #170, #161 ) ;
#263 = DIRECTION ( 'NONE',  ( -1.000000000000000000, 1.224646799147351482E-16, 0.000000000000000000 ) ) ;
#264 = CC_DESIGN_PERSON_AND_ORGANIZATION_ASSIGNMENT ( #71, #310, ( #155 ) ) ;
#265 = CARTESIAN_POINT ( 'NONE',  ( -5.500000000000000000, 6.735557395310442023E-16, 5.500000000000005329 ) ) ;
#266 = APPROVAL_STATUS ( 'not_yet_approved' ) ;
#267 = APPROVAL_STATUS ( 'not_yet_approved' ) ;
#268 = ORIENTED_EDGE ( 'NONE', *, *, #4, .F. ) ;
#269 = EDGE_CURVE ( 'NONE', #365, #211, #132, .T. ) ;
#270 = AXIS2_PLACEMENT_3D ( 'NONE', #348, #249, #224 ) ;
#271 = CARTESIAN_POINT ( 'NONE',  ( 0.000000000000000000, 0.000000000000000000, 5.000000000000000000 ) ) ;
#272 = AXIS2_PLACEMENT_3D ( 'NONE', #11, #62, #123 ) ;
#273 = ORIENTED_EDGE ( 'NONE', *, *, #269, .F. ) ;
#274 = DIRECTION ( 'NONE',  ( 0.000000000000000000, -1.000000000000000000, 0.000000000000000000 ) ) ;
#275 = VERTEX_POINT ( 'NONE', #260 ) ;
#276 = APPROVAL_STATUS ( 'not_yet_approved' ) ;
#277 = ADVANCED_FACE ( 'NONE', ( #231, #146 ), #204, .F. ) ;
#278 = VERTEX_POINT ( 'NONE', #200 ) ;
#279 = CALENDAR_DATE ( 2022, 8, 7 ) ;
#280 = EDGE_LOOP ( 'NONE', ( #97, #137, #17, #162 ) ) ;
#281 = CIRCLE ( 'NONE', #340, 0.5000000000000004441 ) ;
#282 = CALENDAR_DATE ( 2022, 8, 7 ) ;
#283 = CARTESIAN_POINT ( 'NONE',  ( 0.000000000000000000, 0.000000000000000000, 0.000000000000000000 ) ) ;
#284 = APPLICATION_CONTEXT ( 'configuration controlled 3d designs of mechanical parts and assemblies' ) ;
#285 = CYLINDRICAL_SURFACE ( 'NONE', #270, 8.000000000000000000 ) ;
#286 = ADVANCED_BREP_SHAPE_REPRESENTATION ( '0ba2', ( #129, #207 ), #114 ) ;
#287 = DIRECTION ( 'NONE',  ( 0.000000000000000000, 0.000000000000000000, 1.000000000000000000 ) ) ;
#288 = CARTESIAN_POINT ( 'NONE',  ( 8.000000000000000000, 9.797174393178825657E-16, 5.000000000000000000 ) ) ;
#289 = CARTESIAN_POINT ( 'NONE',  ( 5.000000000000000000, 6.123233995736766282E-16, 205.0000000000000284 ) ) ;
#290 = EDGE_CURVE ( 'NONE', #20, #49, #294, .T. ) ;
#291 = EDGE_CURVE ( 'NONE', #47, #371, #126, .T. ) ;
#292 = DIRECTION ( 'NONE',  ( 0.000000000000000000, 0.000000000000000000, 1.000000000000000000 ) ) ;
#293 = VECTOR ( 'NONE', #351, 1000.000000000000000 ) ;
#294 = CIRCLE ( 'NONE', #272, 5.000000000000000000 ) ;
#295 = DIRECTION ( 'NONE',  ( -1.000000000000000000, 0.000000000000000000, 0.000000000000000000 ) ) ;
#296 = DIRECTION ( 'NONE',  ( 1.000000000000000000, 0.000000000000000000, -0.000000000000000000 ) ) ;
#297 = ADVANCED_FACE ( 'NONE', ( #90 ), #10, .F. ) ;
#298 = DIRECTION ( 'NONE',  ( -1.000000000000000000, 0.000000000000000000, 0.000000000000000000 ) ) ;
#299 = VECTOR ( 'NONE', #107, 1000.000000000000000 ) ;
#300 = CARTESIAN_POINT ( 'NONE',  ( 0.000000000000000000, 0.000000000000000000, 5.500000000000005329 ) ) ;
#301 = DATE_AND_TIME ( #359, #198 ) ;
#302 = ORIENTED_EDGE ( 'NONE', *, *, #18, .T. ) ;
#303 = EDGE_CURVE ( 'NONE', #49, #20, #121, .T. ) ;
#304 = PERSON_AND_ORGANIZATION ( #40, #133 ) ;
#305 = VERTEX_POINT ( 'NONE', #116 ) ;
#306 = AXIS2_PLACEMENT_3D ( 'NONE', #150, #201, #295 ) ;
#307 = DIRECTION ( 'NONE',  ( 0.000000000000000000, 0.000000000000000000, 1.000000000000000000 ) ) ;
#308 = EDGE_LOOP ( 'NONE', ( #345, #184 ) ) ;
#309 = ORIENTED_EDGE ( 'NONE', *, *, #291, .F. ) ;
#310 = PERSON_AND_ORGANIZATION_ROLE ( 'creator' ) ;
#311 = EDGE_CURVE ( 'NONE', #371, #47, #164, .T. ) ;
#312 = ORIENTED_EDGE ( 'NONE', *, *, #311, .T. ) ;
#313 = CARTESIAN_POINT ( 'NONE',  ( -8.000000000000000000, 0.000000000000000000, 5.000000000000000000 ) ) ;
#314 = VERTEX_POINT ( 'NONE', #335 ) ;
#315 = APPROVAL ( #266, 'NEURÈENÝ' ) ;
#316 = CARTESIAN_POINT ( 'NONE',  ( 0.000000000000000000, 0.000000000000000000, 205.0000000000000284 ) ) ;
#317 = DIRECTION ( 'NONE',  ( 0.000000000000000000, 0.000000000000000000, 1.000000000000000000 ) ) ;
#318 = AXIS2_PLACEMENT_3D ( 'NONE', #355, #323, #176 ) ;
#319 = CC_DESIGN_APPROVAL ( #170, ( #245 ) ) ;
#320 = DIRECTION ( 'NONE',  ( -0.000000000000000000, -0.000000000000000000, -1.000000000000000000 ) ) ;
#321 = CARTESIAN_POINT ( 'NONE',  ( 0.000000000000000000, 0.000000000000000000, 0.000000000000000000 ) ) ;
#322 = DIRECTION ( 'NONE',  ( 0.000000000000000000, 0.000000000000000000, 1.000000000000000000 ) ) ;
#323 = DIRECTION ( 'NONE',  ( 0.000000000000000000, 0.000000000000000000, 1.000000000000000000 ) ) ;
#324 = CALENDAR_DATE ( 2022, 8, 7 ) ;
#325 = DIRECTION ( 'NONE',  ( 1.000000000000000000, 0.000000000000000000, 0.000000000000000000 ) ) ;
#326 = APPLICATION_CONTEXT ( 'configuration controlled 3d designs of mechanical parts and assemblies' ) ;
#327 = DIRECTION ( 'NONE',  ( 1.224646799147353207E-16, 1.000000000000000000, -0.000000000000000000 ) ) ;
#328 = AXIS2_PLACEMENT_3D ( 'NONE', #316, #287, #32 ) ;
#329 = EDGE_CURVE ( 'NONE', #305, #188, #281, .T. ) ;
#330 = DIRECTION ( 'NONE',  ( 0.000000000000000000, 0.000000000000000000, 1.000000000000000000 ) ) ;
#331 = APPROVAL_DATE_TIME ( #43, #315 ) ;
#332 = DIRECTION ( 'NONE',  ( 1.000000000000000000, 0.000000000000000000, 0.000000000000000000 ) ) ;
#333 = ORIENTED_EDGE ( 'NONE', *, *, #290, .T. ) ;
#334 = PERSON_AND_ORGANIZATION_ROLE ( 'design_supplier' ) ;
#335 = CARTESIAN_POINT ( 'NONE',  ( -3.100000000000000089, 0.000000000000000000, 205.0000000000000284 ) ) ;
#336 = ORIENTED_EDGE ( 'NONE', *, *, #30, .F. ) ;
#337 = DATE_TIME_ROLE ( 'classification_date' ) ;
#338 = VECTOR ( 'NONE', #199, 1000.000000000000000 ) ;
#339 = APPLICATION_PROTOCOL_DEFINITION ( 'international standard', 'config_control_design', 1994, #284 ) ;
#340 = AXIS2_PLACEMENT_3D ( 'NONE', #156, #274, #362 ) ;
#341 = ORIENTED_EDGE ( 'NONE', *, *, #18, .F. ) ;
#342 = CC_DESIGN_PERSON_AND_ORGANIZATION_ASSIGNMENT ( #12, #232, ( #68 ) ) ;
#343 = ORIENTED_EDGE ( 'NONE', *, *, #57, .T. ) ;
#344 = DATE_AND_TIME ( #282, #59 ) ;
#345 = ORIENTED_EDGE ( 'NONE', *, *, #368, .T. ) ;
#346 = EDGE_CURVE ( 'NONE', #219, #278, #216, .T. ) ;
#347 = APPROVAL_PERSON_ORGANIZATION ( #6, #315, #38 ) ;
#348 = CARTESIAN_POINT ( 'NONE',  ( 0.000000000000000000, 0.000000000000000000, 5.000000000000000000 ) ) ;
#349 = DIRECTION ( 'NONE',  ( -0.000000000000000000, -0.000000000000000000, -1.000000000000000000 ) ) ;
#350 = DIRECTION ( 'NONE',  ( -1.000000000000000000, 0.000000000000000000, 0.000000000000000000 ) ) ;
#351 = DIRECTION ( 'NONE',  ( 0.000000000000000000, 0.000000000000000000, -1.000000000000000000 ) ) ;
#352 = AXIS2_PLACEMENT_3D ( 'NONE', #112, #320, #110 ) ;
#353 = DIRECTION ( 'NONE',  ( 0.000000000000000000, 0.000000000000000000, 1.000000000000000000 ) ) ;
#354 = DIRECTION ( 'NONE',  ( 0.000000000000000000, 0.000000000000000000, 1.000000000000000000 ) ) ;
#355 = CARTESIAN_POINT ( 'NONE',  ( 0.000000000000000000, 0.000000000000000000, 0.000000000000000000 ) ) ;
#356 = CIRCLE ( 'NONE', #119, 3.100000000000000089 ) ;
#357 = FACE_OUTER_BOUND ( 'NONE', #106, .T. ) ;
#358 = CARTESIAN_POINT ( 'NONE',  ( -3.100000000000000089, 0.000000000000000000, 0.000000000000000000 ) ) ;
#359 = CALENDAR_DATE ( 2022, 8, 7 ) ;
#360 = CIRCLE ( 'NONE', #318, 8.000000000000000000 ) ;
#361 = LOCAL_TIME ( 16, 50, 32.00000000000000000, #149 ) ;
#362 = DIRECTION ( 'NONE',  ( 0.000000000000000000, 0.000000000000000000, -1.000000000000000000 ) ) ;
#363 = EDGE_LOOP ( 'NONE', ( #312, #125 ) ) ;
#364 = DESIGN_CONTEXT ( 'detailed design', #284, 'design' ) ;
#365 = VERTEX_POINT ( 'NONE', #366 ) ;
#366 = CARTESIAN_POINT ( 'NONE',  ( -5.000000000000000000, 0.000000000000000000, 5.500000000000005329 ) ) ;
#367 = ORIENTED_EDGE ( 'NONE', *, *, #303, .T. ) ;
#368 = EDGE_CURVE ( 'NONE', #188, #211, #233, .T. ) ;
#369 = AXIS2_PLACEMENT_3D ( 'NONE', #300, #322, #173 ) ;
#370 =( NAMED_UNIT ( * ) SI_UNIT ( $, .STERADIAN. ) SOLID_ANGLE_UNIT ( ) );
#371 = VERTEX_POINT ( 'NONE', #210 ) ;
#372 = SECURITY_CLASSIFICATION_LEVEL ( 'unclassified' ) ;
#373 = ORIENTED_EDGE ( 'NONE', *, *, #229, .T. ) ;
#374 = ADVANCED_FACE ( 'NONE', ( #48 ), #181, .T. ) ;
#375 = CARTESIAN_POINT ( 'NONE',  ( 8.000000000000000000, 9.797174393178825657E-16, 5.000000000000000000 ) ) ;
#376 = AXIS2_PLACEMENT_3D ( 'NONE', #118, #292, #325 ) ;
#377 = CARTESIAN_POINT ( 'NONE',  ( -5.000000000000000000, 0.000000000000000000, 205.0000000000000284 ) ) ;
#378 = PRODUCT_DEFINITION_SHAPE ( 'NONE', 'NONE',  #68 ) ;
#379 = CYLINDRICAL_SURFACE ( 'NONE', #8, 5.000000000000000000 ) ;
#380 = CARTESIAN_POINT ( 'NONE',  ( 0.000000000000000000, 0.000000000000000000, 205.0000000000000284 ) ) ;
#381 = CC_DESIGN_PERSON_AND_ORGANIZATION_ASSIGNMENT ( #50, #98, ( #245 ) ) ;
ENDSEC;
END-ISO-10303-21;
