ISO-10303-21;
HEADER;
FILE_DESCRIPTION (( 'STEP AP203' ),
    '1' );
FILE_NAME ('d583.STEP',
    '2022-07-08T15:43:34',
    ( '' ),
    ( '' ),
    'SwSTEP 2.0',
    'SolidWorks 2019',
    '' );
FILE_SCHEMA (( 'CONFIG_CONTROL_DESIGN' ));
ENDSEC;

DATA;
#1 = DIRECTION ( 'NONE',  ( -1.000000000000000000, 0.000000000000000000, 0.000000000000000000 ) ) ;
#2 = AXIS2_PLACEMENT_3D ( 'NONE', #315, #177, #324 ) ;
#3 = CC_DESIGN_DATE_AND_TIME_ASSIGNMENT ( #135, #30, ( #92 ) ) ;
#4 = VERTEX_POINT ( 'NONE', #280 ) ;
#5 = CARTESIAN_POINT ( 'NONE',  ( 0.000000000000000000, 0.000000000000000000, 0.000000000000000000 ) ) ;
#6 = CIRCLE ( 'NONE', #316, 5.000000000000000000 ) ;
#7 = EDGE_LOOP ( 'NONE', ( #100, #35, #72, #121 ) ) ;
#8 = CARTESIAN_POINT ( 'NONE',  ( -5.000000000000000000, 0.000000000000000000, 3.000000000000000000 ) ) ;
#9 = EDGE_LOOP ( 'NONE', ( #373, #85, #354, #39 ) ) ;
#10 = APPROVAL ( #340, 'NEURÈENÝ' ) ;
#11 = CALENDAR_DATE ( 2022, 8, 7 ) ;
#12 = ORIENTED_EDGE ( 'NONE', *, *, #73, .F. ) ;
#13 = CC_DESIGN_APPROVAL ( #206, ( #289 ) ) ;
#14 = CARTESIAN_POINT ( 'NONE',  ( 0.000000000000000000, 0.000000000000000000, 0.000000000000000000 ) ) ;
#15 = CARTESIAN_POINT ( 'NONE',  ( 0.000000000000000000, 0.000000000000000000, 78.00000000000000000 ) ) ;
#16 = DIRECTION ( 'NONE',  ( 1.000000000000000000, 0.000000000000000000, 0.000000000000000000 ) ) ;
#17 = EDGE_CURVE ( 'NONE', #4, #248, #179, .T. ) ;
#18 = CARTESIAN_POINT ( 'NONE',  ( 1.600000000000000089, 1.959434878635765230E-16, 78.00000000000000000 ) ) ;
#19 = CARTESIAN_POINT ( 'NONE',  ( 0.000000000000000000, 0.000000000000000000, 3.000000000000000000 ) ) ;
#20 = CARTESIAN_POINT ( 'NONE',  ( -2.500000000000000000, 0.000000000000000000, 78.00000000000000000 ) ) ;
#21 = CARTESIAN_POINT ( 'NONE',  ( 0.000000000000000000, 0.000000000000000000, 0.000000000000000000 ) ) ;
#22 = EDGE_CURVE ( 'NONE', #236, #4, #46, .T. ) ;
#23 = SHAPE_DEFINITION_REPRESENTATION ( #110, #230 ) ;
#24 = ORIENTED_EDGE ( 'NONE', *, *, #80, .F. ) ;
#25 = COORDINATED_UNIVERSAL_TIME_OFFSET ( 1, 0, .AHEAD. ) ;
#26 = DIRECTION ( 'NONE',  ( 0.000000000000000000, 0.000000000000000000, -1.000000000000000000 ) ) ;
#27 = AXIS2_PLACEMENT_3D ( 'NONE', #19, #99, #235 ) ;
#28 = PERSON_AND_ORGANIZATION ( #338, #246 ) ;
#29 = FACE_BOUND ( 'NONE', #66, .T. ) ;
#30 = DATE_TIME_ROLE ( 'creation_date' ) ;
#31 = PRODUCT ( 'd583', 'd583', '', ( #366 ) ) ;
#32 = DIRECTION ( 'NONE',  ( -0.000000000000000000, -0.000000000000000000, -1.000000000000000000 ) ) ;
#33 = CIRCLE ( 'NONE', #301, 2.500000000000000000 ) ;
#34 = PRODUCT_RELATED_PRODUCT_CATEGORY ( 'detail', '', ( #31 ) ) ;
#35 = ORIENTED_EDGE ( 'NONE', *, *, #369, .F. ) ;
#36 = CARTESIAN_POINT ( 'NONE',  ( 2.799999999999999822, 0.000000000000000000, 2.999999999999998668 ) ) ;
#37 = VECTOR ( 'NONE', #44, 1000.000000000000000 ) ;
#38 = APPROVAL_STATUS ( 'not_yet_approved' ) ;
#39 = ORIENTED_EDGE ( 'NONE', *, *, #271, .T. ) ;
#40 = DIRECTION ( 'NONE',  ( 1.000000000000000000, 0.000000000000000000, 0.000000000000000000 ) ) ;
#41 = ORIENTED_EDGE ( 'NONE', *, *, #369, .T. ) ;
#42 = AXIS2_PLACEMENT_3D ( 'NONE', #48, #304, #312 ) ;
#43 = ORIENTED_EDGE ( 'NONE', *, *, #323, .F. ) ;
#44 = DIRECTION ( 'NONE',  ( 0.000000000000000000, 0.000000000000000000, -1.000000000000000000 ) ) ;
#45 = EDGE_CURVE ( 'NONE', #372, #4, #33, .T. ) ;
#46 = LINE ( 'NONE', #222, #103 ) ;
#47 = CARTESIAN_POINT ( 'NONE',  ( 0.000000000000000000, 0.000000000000000000, 3.299999999999997158 ) ) ;
#48 = CARTESIAN_POINT ( 'NONE',  ( 0.000000000000000000, 0.000000000000000000, 78.00000000000000000 ) ) ;
#49 = DIRECTION ( 'NONE',  ( 0.000000000000000000, 0.000000000000000000, 1.000000000000000000 ) ) ;
#50 = CC_DESIGN_PERSON_AND_ORGANIZATION_ASSIGNMENT ( #52, #348, ( #289 ) ) ;
#51 = AXIS2_PLACEMENT_3D ( 'NONE', #326, #32, #322 ) ;
#52 = PERSON_AND_ORGANIZATION ( #338, #246 ) ;
#53 = DIRECTION ( 'NONE',  ( 1.000000000000000000, 0.000000000000000000, -0.000000000000000000 ) ) ;
#54 = APPROVAL_DATE_TIME ( #311, #206 ) ;
#55 = ORIENTED_EDGE ( 'NONE', *, *, #271, .F. ) ;
#56 = CARTESIAN_POINT ( 'NONE',  ( 0.000000000000000000, 0.000000000000000000, 78.00000000000000000 ) ) ;
#57 = AXIS2_PLACEMENT_3D ( 'NONE', #89, #260, #231 ) ;
#58 = CIRCLE ( 'NONE', #353, 2.799999999999999822 ) ;
#59 = ADVANCED_FACE ( 'NONE', ( #191, #190 ), #307, .F. ) ;
#60 = DIRECTION ( 'NONE',  ( 0.000000000000000000, 0.000000000000000000, 1.000000000000000000 ) ) ;
#61 = CIRCLE ( 'NONE', #208, 0.2999999999999999334 ) ;
#62 = DIRECTION ( 'NONE',  ( -1.000000000000000000, 0.000000000000000000, 0.000000000000000000 ) ) ;
#63 = EDGE_LOOP ( 'NONE', ( #69, #229 ) ) ;
#64 = DIRECTION ( 'NONE',  ( 1.000000000000000000, 0.000000000000000000, -0.000000000000000000 ) ) ;
#65 = ORIENTED_EDGE ( 'NONE', *, *, #175, .F. ) ;
#66 = EDGE_LOOP ( 'NONE', ( #217, #202 ) ) ;
#67 = CYLINDRICAL_SURFACE ( 'NONE', #327, 2.500000000000000000 ) ;
#68 = DIRECTION ( 'NONE',  ( 0.000000000000000000, 0.000000000000000000, 1.000000000000000000 ) ) ;
#69 = ORIENTED_EDGE ( 'NONE', *, *, #141, .T. ) ;
#70 = DIRECTION ( 'NONE',  ( -0.000000000000000000, -0.000000000000000000, -1.000000000000000000 ) ) ;
#71 = APPLICATION_PROTOCOL_DEFINITION ( 'international standard', 'config_control_design', 1994, #114 ) ;
#72 = ORIENTED_EDGE ( 'NONE', *, *, #17, .T. ) ;
#73 = EDGE_CURVE ( 'NONE', #176, #240, #111, .T. ) ;
#74 = CARTESIAN_POINT ( 'NONE',  ( 0.000000000000000000, 0.000000000000000000, 3.299999999999997158 ) ) ;
#75 = EDGE_LOOP ( 'NONE', ( #184, #125, #267, #243 ) ) ;
#76 = APPROVAL_PERSON_ORGANIZATION ( #180, #197, #149 ) ;
#77 = DIRECTION ( 'NONE',  ( 1.000000000000000000, 0.000000000000000000, -0.000000000000000000 ) ) ;
#78 = PERSON_AND_ORGANIZATION_ROLE ( 'creator' ) ;
#79 = FACE_OUTER_BOUND ( 'NONE', #7, .T. ) ;
#80 = EDGE_CURVE ( 'NONE', #95, #295, #123, .T. ) ;
#81 = DIRECTION ( 'NONE',  ( -0.000000000000000000, -0.000000000000000000, -1.000000000000000000 ) ) ;
#82 = EDGE_CURVE ( 'NONE', #151, #236, #342, .T. ) ;
#83 = CIRCLE ( 'NONE', #252, 1.600000000000000089 ) ;
#84 = DIRECTION ( 'NONE',  ( 0.000000000000000000, 0.000000000000000000, -1.000000000000000000 ) ) ;
#85 = ORIENTED_EDGE ( 'NONE', *, *, #226, .T. ) ;
#86 = CARTESIAN_POINT ( 'NONE',  ( -5.000000000000000000, 0.000000000000000000, 3.000000000000000000 ) ) ;
#87 = ORIENTED_EDGE ( 'NONE', *, *, #192, .F. ) ;
#88 = ADVANCED_FACE ( 'NONE', ( #274, #165 ), #160, .T. ) ;
#89 = CARTESIAN_POINT ( 'NONE',  ( 0.000000000000000000, 0.000000000000000000, 78.00000000000000000 ) ) ;
#90 = VERTEX_POINT ( 'NONE', #134 ) ;
#91 = CARTESIAN_POINT ( 'NONE',  ( -1.600000000000000089, 0.000000000000000000, 78.00000000000000000 ) ) ;
#92 = PRODUCT_DEFINITION ( 'NEZNÁMÝ', '', #289, #185 ) ;
#93 = EDGE_LOOP ( 'NONE', ( #65, #363, #150, #325 ) ) ;
#94 = LINE ( 'NONE', #91, #37 ) ;
#95 = VERTEX_POINT ( 'NONE', #281 ) ;
#96 = CIRCLE ( 'NONE', #368, 5.000000000000000000 ) ;
#97 = LOCAL_TIME ( 17, 43, 34.00000000000000000, #25 ) ;
#98 = DIRECTION ( 'NONE',  ( 0.000000000000000000, -1.000000000000000000, 0.000000000000000000 ) ) ;
#99 = DIRECTION ( 'NONE',  ( -0.000000000000000000, -0.000000000000000000, -1.000000000000000000 ) ) ;
#100 = ORIENTED_EDGE ( 'NONE', *, *, #255, .F. ) ;
#101 = ORIENTED_EDGE ( 'NONE', *, *, #175, .T. ) ;
#102 = ORIENTED_EDGE ( 'NONE', *, *, #255, .T. ) ;
#103 = VECTOR ( 'NONE', #70, 1000.000000000000000 ) ;
#104 = APPROVAL_PERSON_ORGANIZATION ( #379, #10, #286 ) ;
#105 = APPROVAL_DATE_TIME ( #167, #197 ) ;
#106 = DIRECTION ( 'NONE',  ( -0.000000000000000000, -0.000000000000000000, -1.000000000000000000 ) ) ;
#107 = CC_DESIGN_PERSON_AND_ORGANIZATION_ASSIGNMENT ( #193, #224, ( #289 ) ) ;
#108 = CYLINDRICAL_SURFACE ( 'NONE', #186, 1.600000000000000089 ) ;
#109 = CALENDAR_DATE ( 2022, 8, 7 ) ;
#110 = PRODUCT_DEFINITION_SHAPE ( 'NONE', 'NONE',  #92 ) ;
#111 = CIRCLE ( 'NONE', #237, 5.000000000000000000 ) ;
#112 = AXIS2_PLACEMENT_3D ( 'NONE', #257, #291, #64 ) ;
#113 = CARTESIAN_POINT ( 'NONE',  ( 0.000000000000000000, 0.000000000000000000, 3.000000000000000000 ) ) ;
#114 = APPLICATION_CONTEXT ( 'configuration controlled 3d designs of mechanical parts and assemblies' ) ;
#115 = ORIENTED_EDGE ( 'NONE', *, *, #350, .T. ) ;
#116 = CYLINDRICAL_SURFACE ( 'NONE', #51, 5.000000000000000000 ) ;
#117 = ORIENTED_EDGE ( 'NONE', *, *, #17, .F. ) ;
#118 = UNCERTAINTY_MEASURE_WITH_UNIT (LENGTH_MEASURE( 1.000000000000000082E-05 ), #129, 'distance_accuracy_value', 'NONE');
#119 = CARTESIAN_POINT ( 'NONE',  ( 5.000000000000000000, 6.123233995736766282E-16, 3.000000000000000000 ) ) ;
#120 = ORIENTED_EDGE ( 'NONE', *, *, #45, .F. ) ;
#121 = ORIENTED_EDGE ( 'NONE', *, *, #298, .F. ) ;
#122 = EDGE_CURVE ( 'NONE', #148, #232, #83, .T. ) ;
#123 = CIRCLE ( 'NONE', #170, 1.600000000000000089 ) ;
#124 = CIRCLE ( 'NONE', #2, 1.600000000000000089 ) ;
#125 = ORIENTED_EDGE ( 'NONE', *, *, #82, .F. ) ;
#126 = FACE_OUTER_BOUND ( 'NONE', #182, .T. ) ;
#127 = DIRECTION ( 'NONE',  ( 1.000000000000000000, 0.000000000000000000, 0.000000000000000000 ) ) ;
#128 = ORIENTED_EDGE ( 'NONE', *, *, #323, .T. ) ;
#129 =( LENGTH_UNIT ( ) NAMED_UNIT ( * ) SI_UNIT ( .MILLI., .METRE. ) );
#130 = CC_DESIGN_APPROVAL ( #197, ( #92 ) ) ;
#131 = DIRECTION ( 'NONE',  ( -0.000000000000000000, -0.000000000000000000, -1.000000000000000000 ) ) ;
#132 = PERSON_AND_ORGANIZATION ( #338, #246 ) ;
#133 = DIRECTION ( 'NONE',  ( 0.000000000000000000, 0.000000000000000000, 1.000000000000000000 ) ) ;
#134 = CARTESIAN_POINT ( 'NONE',  ( -2.799999999999999822, 3.429011037612589276E-16, 2.999999999999998668 ) ) ;
#135 = DATE_AND_TIME ( #109, #97 ) ;
#136 = DIRECTION ( 'NONE',  ( 1.224646799147353207E-16, 1.000000000000000000, -0.000000000000000000 ) ) ;
#137 = LOCAL_TIME ( 17, 43, 34.00000000000000000, #265 ) ;
#138 = FACE_OUTER_BOUND ( 'NONE', #93, .T. ) ;
#139 = SECURITY_CLASSIFICATION_LEVEL ( 'unclassified' ) ;
#140 = LINE ( 'NONE', #86, #261 ) ;
#141 = EDGE_CURVE ( 'NONE', #240, #176, #6, .T. ) ;
#142 = VECTOR ( 'NONE', #241, 1000.000000000000000 ) ;
#143 = DIRECTION ( 'NONE',  ( 0.000000000000000000, 0.000000000000000000, 1.000000000000000000 ) ) ;
#144 = EDGE_CURVE ( 'NONE', #232, #95, #276, .T. ) ;
#145 = VERTEX_POINT ( 'NONE', #216 ) ;
#146 = CIRCLE ( 'NONE', #238, 2.500000000000000000 ) ;
#147 = DIRECTION ( 'NONE',  ( 1.000000000000000000, 0.000000000000000000, 0.000000000000000000 ) ) ;
#148 = VERTEX_POINT ( 'NONE', #337 ) ;
#149 = APPROVAL_ROLE ( '' ) ;
#150 = ORIENTED_EDGE ( 'NONE', *, *, #188, .T. ) ;
#151 = VERTEX_POINT ( 'NONE', #20 ) ;
#152 = DIRECTION ( 'NONE',  ( 0.000000000000000000, 0.000000000000000000, 1.000000000000000000 ) ) ;
#153 = AXIS2_PLACEMENT_3D ( 'NONE', #275, #296, #245 ) ;
#154 = CC_DESIGN_APPROVAL ( #10, ( #221 ) ) ;
#155 = EDGE_LOOP ( 'NONE', ( #12, #101, #128, #262 ) ) ;
#156 = DIRECTION ( 'NONE',  ( 1.000000000000000000, 0.000000000000000000, 0.000000000000000000 ) ) ;
#157 = DIRECTION ( 'NONE',  ( 0.000000000000000000, 0.000000000000000000, 1.000000000000000000 ) ) ;
#158 = DIRECTION ( 'NONE',  ( 0.000000000000000000, 0.000000000000000000, 1.000000000000000000 ) ) ;
#159 = CC_DESIGN_PERSON_AND_ORGANIZATION_ASSIGNMENT ( #132, #78, ( #92 ) ) ;
#160 = PLANE ( 'NONE',  #220 ) ;
#161 = APPROVAL_ROLE ( '' ) ;
#162 = AXIS2_PLACEMENT_3D ( 'NONE', #210, #183, #16 ) ;
#163 = CARTESIAN_POINT ( 'NONE',  ( 0.000000000000000000, 0.000000000000000000, 3.000000000000000000 ) ) ;
#164 = APPROVAL_DATE_TIME ( #195, #10 ) ;
#165 = FACE_OUTER_BOUND ( 'NONE', #330, .T. ) ;
#166 = ADVANCED_FACE ( 'NONE', ( #228 ), #287, .T. ) ;
#167 = DATE_AND_TIME ( #11, #137 ) ;
#168 = FACE_OUTER_BOUND ( 'NONE', #9, .T. ) ;
#169 = DIRECTION ( 'NONE',  ( -0.000000000000000000, -0.000000000000000000, -1.000000000000000000 ) ) ;
#170 = AXIS2_PLACEMENT_3D ( 'NONE', #21, #131, #310 ) ;
#171 = TOROIDAL_SURFACE ( 'NONE', #199, 2.799999999999999822, 0.2999999999999999889 ) ;
#172 = DATE_AND_TIME ( #249, #269 ) ;
#173 = DIRECTION ( 'NONE',  ( 1.000000000000000000, 0.000000000000000000, 0.000000000000000000 ) ) ;
#174 = LOCAL_TIME ( 17, 43, 34.00000000000000000, #314 ) ;
#175 = EDGE_CURVE ( 'NONE', #176, #145, #356, .T. ) ;
#176 = VERTEX_POINT ( 'NONE', #264 ) ;
#177 = DIRECTION ( 'NONE',  ( 0.000000000000000000, 0.000000000000000000, 1.000000000000000000 ) ) ;
#178 = ORIENTED_EDGE ( 'NONE', *, *, #313, .F. ) ;
#179 = CIRCLE ( 'NONE', #268, 0.2999999999999999334 ) ;
#180 = PERSON_AND_ORGANIZATION ( #338, #246 ) ;
#181 = DIRECTION ( 'NONE',  ( 1.000000000000000000, 0.000000000000000000, 0.000000000000000000 ) ) ;
#182 = EDGE_LOOP ( 'NONE', ( #194, #297, #41, #178 ) ) ;
#183 = DIRECTION ( 'NONE',  ( 0.000000000000000000, 0.000000000000000000, 1.000000000000000000 ) ) ;
#184 = ORIENTED_EDGE ( 'NONE', *, *, #22, .F. ) ;
#185 = DESIGN_CONTEXT ( 'detailed design', #114, 'design' ) ;
#186 = AXIS2_PLACEMENT_3D ( 'NONE', #358, #84, #1 ) ;
#187 = DIRECTION ( 'NONE',  ( 1.000000000000000000, 0.000000000000000000, 0.000000000000000000 ) ) ;
#188 = EDGE_CURVE ( 'NONE', #240, #293, #140, .T. ) ;
#189 = DIRECTION ( 'NONE',  ( 0.000000000000000000, 0.000000000000000000, 1.000000000000000000 ) ) ;
#190 = FACE_OUTER_BOUND ( 'NONE', #300, .T. ) ;
#191 = FACE_BOUND ( 'NONE', #360, .T. ) ;
#192 = EDGE_CURVE ( 'NONE', #293, #145, #96, .T. ) ;
#193 = PERSON_AND_ORGANIZATION ( #338, #246 ) ;
#194 = ORIENTED_EDGE ( 'NONE', *, *, #350, .F. ) ;
#195 = DATE_AND_TIME ( #223, #320 ) ;
#196 = CARTESIAN_POINT ( 'NONE',  ( 1.600000000000000089, 1.959434878635765230E-16, 78.00000000000000000 ) ) ;
#197 = APPROVAL ( #38, 'NEURÈENÝ' ) ;
#198 = CARTESIAN_POINT ( 'NONE',  ( -5.000000000000000000, 0.000000000000000000, 0.000000000000000000 ) ) ;
#199 = AXIS2_PLACEMENT_3D ( 'NONE', #318, #60, #173 ) ;
#200 = APPLICATION_CONTEXT ( 'configuration controlled 3d designs of mechanical parts and assemblies' ) ;
#201 = CARTESIAN_POINT ( 'NONE',  ( -1.600000000000000089, 0.000000000000000000, 0.000000000000000000 ) ) ;
#202 = ORIENTED_EDGE ( 'NONE', *, *, #298, .T. ) ;
#203 = DIRECTION ( 'NONE',  ( -0.000000000000000000, -0.000000000000000000, -1.000000000000000000 ) ) ;
#204 = ORIENTED_EDGE ( 'NONE', *, *, #122, .F. ) ;
#205 = DIRECTION ( 'NONE',  ( 1.000000000000000000, 0.000000000000000000, 0.000000000000000000 ) ) ;
#206 = APPROVAL ( #251, 'NEURÈENÝ' ) ;
#207 = EDGE_LOOP ( 'NONE', ( #120, #102, #332, #117 ) ) ;
#208 = AXIS2_PLACEMENT_3D ( 'NONE', #254, #136, #349 ) ;
#209 = ORIENTED_EDGE ( 'NONE', *, *, #80, .T. ) ;
#210 = CARTESIAN_POINT ( 'NONE',  ( 0.000000000000000000, 0.000000000000000000, 0.000000000000000000 ) ) ;
#211 = EDGE_LOOP ( 'NONE', ( #357, #247, #209, #250 ) ) ;
#212 = DIRECTION ( 'NONE',  ( 0.000000000000000000, 0.000000000000000000, 1.000000000000000000 ) ) ;
#213 = VECTOR ( 'NONE', #169, 1000.000000000000000 ) ;
#214 = PERSON_AND_ORGANIZATION ( #338, #246 ) ;
#215 = AXIS2_PLACEMENT_3D ( 'NONE', #113, #106, #62 ) ;
#216 = CARTESIAN_POINT ( 'NONE',  ( 5.000000000000000000, 6.123233995736766282E-16, 0.000000000000000000 ) ) ;
#217 = ORIENTED_EDGE ( 'NONE', *, *, #345, .T. ) ;
#218 = ADVANCED_FACE ( 'NONE', ( #138 ), #352, .T. ) ;
#219 = DIRECTION ( 'NONE',  ( 0.000000000000000000, 0.000000000000000000, -1.000000000000000000 ) ) ;
#220 = AXIS2_PLACEMENT_3D ( 'NONE', #244, #133, #53 ) ;
#221 = SECURITY_CLASSIFICATION ( '', '', #139 ) ;
#222 = CARTESIAN_POINT ( 'NONE',  ( 2.500000000000000000, 3.061616997868383141E-16, 78.00000000000000000 ) ) ;
#223 = CALENDAR_DATE ( 2022, 8, 7 ) ;
#224 = PERSON_AND_ORGANIZATION_ROLE ( 'creator' ) ;
#225 = FACE_OUTER_BOUND ( 'NONE', #63, .T. ) ;
#226 = EDGE_CURVE ( 'NONE', #232, #148, #124, .T. ) ;
#227 = CC_DESIGN_DATE_AND_TIME_ASSIGNMENT ( #172, #308, ( #221 ) ) ;
#228 = FACE_OUTER_BOUND ( 'NONE', #75, .T. ) ;
#229 = ORIENTED_EDGE ( 'NONE', *, *, #73, .T. ) ;
#230 = ADVANCED_BREP_SHAPE_REPRESENTATION ( 'd583', ( #259, #162 ), #370 ) ;
#231 = DIRECTION ( 'NONE',  ( -1.000000000000000000, 0.000000000000000000, 0.000000000000000000 ) ) ;
#232 = VERTEX_POINT ( 'NONE', #196 ) ;
#233 = PLANE ( 'NONE',  #112 ) ;
#234 = ORIENTED_EDGE ( 'NONE', *, *, #226, .F. ) ;
#235 = DIRECTION ( 'NONE',  ( 1.000000000000000000, 0.000000000000000000, 0.000000000000000000 ) ) ;
#236 = VERTEX_POINT ( 'NONE', #285 ) ;
#237 = AXIS2_PLACEMENT_3D ( 'NONE', #163, #189, #187 ) ;
#238 = AXIS2_PLACEMENT_3D ( 'NONE', #47, #152, #40 ) ;
#239 = CARTESIAN_POINT ( 'NONE',  ( 0.000000000000000000, 0.000000000000000000, 78.00000000000000000 ) ) ;
#240 = VERTEX_POINT ( 'NONE', #8 ) ;
#241 = DIRECTION ( 'NONE',  ( -0.000000000000000000, -0.000000000000000000, -1.000000000000000000 ) ) ;
#242 = ADVANCED_FACE ( 'NONE', ( #29, #225 ), #233, .T. ) ;
#243 = ORIENTED_EDGE ( 'NONE', *, *, #45, .T. ) ;
#244 = CARTESIAN_POINT ( 'NONE',  ( 0.000000000000000000, 0.000000000000000000, 78.00000000000000000 ) ) ;
#245 = DIRECTION ( 'NONE',  ( 1.000000000000000000, 0.000000000000000000, 0.000000000000000000 ) ) ;
#246 = ORGANIZATION ( 'NEURÈENÝ', 'NEURÈENÝ', '' ) ;
#247 = ORIENTED_EDGE ( 'NONE', *, *, #144, .T. ) ;
#248 = VERTEX_POINT ( 'NONE', #36 ) ;
#249 = CALENDAR_DATE ( 2022, 8, 7 ) ;
#250 = ORIENTED_EDGE ( 'NONE', *, *, #374, .F. ) ;
#251 = APPROVAL_STATUS ( 'not_yet_approved' ) ;
#252 = AXIS2_PLACEMENT_3D ( 'NONE', #15, #157, #127 ) ;
#253 = DIRECTION ( 'NONE',  ( -1.000000000000000000, 0.000000000000000000, 0.000000000000000000 ) ) ;
#254 = CARTESIAN_POINT ( 'NONE',  ( -2.799999999999999822, 3.429011037612588783E-16, 3.299999999999997158 ) ) ;
#255 = EDGE_CURVE ( 'NONE', #372, #90, #61, .T. ) ;
#256 = CALENDAR_DATE ( 2022, 8, 7 ) ;
#257 = CARTESIAN_POINT ( 'NONE',  ( 0.000000000000000000, 0.000000000000000000, 3.000000000000000000 ) ) ;
#258 = ADVANCED_FACE ( 'NONE', ( #380 ), #108, .F. ) ;
#259 = MANIFOLD_SOLID_BREP ( 'Odebrat vysunutím3', #283 ) ;
#260 = DIRECTION ( 'NONE',  ( -0.000000000000000000, -0.000000000000000000, -1.000000000000000000 ) ) ;
#261 = VECTOR ( 'NONE', #203, 1000.000000000000000 ) ;
#262 = ORIENTED_EDGE ( 'NONE', *, *, #188, .F. ) ;
#263 = AXIS2_PLACEMENT_3D ( 'NONE', #266, #68, #181 ) ;
#264 = CARTESIAN_POINT ( 'NONE',  ( 5.000000000000000000, 6.123233995736766282E-16, 3.000000000000000000 ) ) ;
#265 = COORDINATED_UNIVERSAL_TIME_OFFSET ( 1, 0, .AHEAD. ) ;
#266 = CARTESIAN_POINT ( 'NONE',  ( 0.000000000000000000, 0.000000000000000000, 78.00000000000000000 ) ) ;
#267 = ORIENTED_EDGE ( 'NONE', *, *, #313, .T. ) ;
#268 = AXIS2_PLACEMENT_3D ( 'NONE', #339, #98, #219 ) ;
#269 = LOCAL_TIME ( 17, 43, 34.00000000000000000, #381 ) ;
#270 = CARTESIAN_POINT ( 'NONE',  ( -2.500000000000000000, 0.000000000000000000, 78.00000000000000000 ) ) ;
#271 = EDGE_CURVE ( 'NONE', #295, #95, #302, .T. ) ;
#272 = ORIENTED_EDGE ( 'NONE', *, *, #82, .T. ) ;
#273 =( NAMED_UNIT ( * ) PLANE_ANGLE_UNIT ( ) SI_UNIT ( $, .RADIAN. ) );
#274 = FACE_BOUND ( 'NONE', #344, .T. ) ;
#275 = CARTESIAN_POINT ( 'NONE',  ( 0.000000000000000000, 0.000000000000000000, 3.299999999999997158 ) ) ;
#276 = LINE ( 'NONE', #18, #319 ) ;
#277 = ADVANCED_FACE ( 'NONE', ( #347 ), #116, .T. ) ;
#278 = AXIS2_PLACEMENT_3D ( 'NONE', #306, #49, #77 ) ;
#279 = PERSON_AND_ORGANIZATION_ROLE ( 'classification_officer' ) ;
#280 = CARTESIAN_POINT ( 'NONE',  ( 2.500000000000000000, 3.061616997868383141E-16, 3.299999999999997158 ) ) ;
#281 = CARTESIAN_POINT ( 'NONE',  ( 1.600000000000000089, 1.959434878635765230E-16, 0.000000000000000000 ) ) ;
#282 = CYLINDRICAL_SURFACE ( 'NONE', #335, 1.600000000000000089 ) ;
#283 = CLOSED_SHELL ( 'NONE', ( #258, #355, #305, #277, #218, #242, #59, #166, #88, #292, #284 ) ) ;
#284 = ADVANCED_FACE ( 'NONE', ( #168 ), #282, .F. ) ;
#285 = CARTESIAN_POINT ( 'NONE',  ( 2.500000000000000000, 3.061616997868383141E-16, 78.00000000000000000 ) ) ;
#286 = APPROVAL_ROLE ( '' ) ;
#287 = CYLINDRICAL_SURFACE ( 'NONE', #57, 2.500000000000000000 ) ;
#288 = CC_DESIGN_PERSON_AND_ORGANIZATION_ASSIGNMENT ( #346, #279, ( #221 ) ) ;
#289 = PRODUCT_DEFINITION_FORMATION_WITH_SPECIFIED_SOURCE ( 'LIBOVOLNÝ', '', #31, .NOT_KNOWN. ) ;
#290 = CARTESIAN_POINT ( 'NONE',  ( 0.000000000000000000, 0.000000000000000000, 3.000000000000000000 ) ) ;
#291 = DIRECTION ( 'NONE',  ( 0.000000000000000000, 0.000000000000000000, 1.000000000000000000 ) ) ;
#292 = ADVANCED_FACE ( 'NONE', ( #79 ), #171, .F. ) ;
#293 = VERTEX_POINT ( 'NONE', #198 ) ;
#294 = CIRCLE ( 'NONE', #263, 2.500000000000000000 ) ;
#295 = VERTEX_POINT ( 'NONE', #201 ) ;
#296 = DIRECTION ( 'NONE',  ( 0.000000000000000000, 0.000000000000000000, 1.000000000000000000 ) ) ;
#297 = ORIENTED_EDGE ( 'NONE', *, *, #22, .T. ) ;
#298 = EDGE_CURVE ( 'NONE', #90, #248, #58, .T. ) ;
#299 = LINE ( 'NONE', #270, #142 ) ;
#300 = EDGE_LOOP ( 'NONE', ( #87, #43 ) ) ;
#301 = AXIS2_PLACEMENT_3D ( 'NONE', #74, #341, #375 ) ;
#302 = CIRCLE ( 'NONE', #343, 1.600000000000000089 ) ;
#303 = DIRECTION ( 'NONE',  ( 1.000000000000000000, 0.000000000000000000, 0.000000000000000000 ) ) ;
#304 = DIRECTION ( 'NONE',  ( 0.000000000000000000, 0.000000000000000000, 1.000000000000000000 ) ) ;
#305 = ADVANCED_FACE ( 'NONE', ( #126 ), #67, .T. ) ;
#306 = CARTESIAN_POINT ( 'NONE',  ( 0.000000000000000000, 0.000000000000000000, 0.000000000000000000 ) ) ;
#307 = PLANE ( 'NONE',  #278 ) ;
#308 = DATE_TIME_ROLE ( 'classification_date' ) ;
#309 = AXIS2_PLACEMENT_3D ( 'NONE', #14, #158, #156 ) ;
#310 = DIRECTION ( 'NONE',  ( 1.000000000000000000, 0.000000000000000000, 0.000000000000000000 ) ) ;
#311 = DATE_AND_TIME ( #256, #174 ) ;
#312 = DIRECTION ( 'NONE',  ( 1.000000000000000000, 0.000000000000000000, 0.000000000000000000 ) ) ;
#313 = EDGE_CURVE ( 'NONE', #151, #372, #299, .T. ) ;
#314 = COORDINATED_UNIVERSAL_TIME_OFFSET ( 1, 0, .AHEAD. ) ;
#315 = CARTESIAN_POINT ( 'NONE',  ( 0.000000000000000000, 0.000000000000000000, 78.00000000000000000 ) ) ;
#316 = AXIS2_PLACEMENT_3D ( 'NONE', #365, #212, #334 ) ;
#317 = CIRCLE ( 'NONE', #309, 5.000000000000000000 ) ;
#318 = CARTESIAN_POINT ( 'NONE',  ( 0.000000000000000000, 0.000000000000000000, 3.299999999999997158 ) ) ;
#319 = VECTOR ( 'NONE', #367, 1000.000000000000000 ) ;
#320 = LOCAL_TIME ( 17, 43, 34.00000000000000000, #377 ) ;
#321 = TOROIDAL_SURFACE ( 'NONE', #153, 2.799999999999999822, 0.2999999999999999889 ) ;
#322 = DIRECTION ( 'NONE',  ( -1.000000000000000000, 0.000000000000000000, 0.000000000000000000 ) ) ;
#323 = EDGE_CURVE ( 'NONE', #145, #293, #317, .T. ) ;
#324 = DIRECTION ( 'NONE',  ( 1.000000000000000000, 0.000000000000000000, 0.000000000000000000 ) ) ;
#325 = ORIENTED_EDGE ( 'NONE', *, *, #192, .T. ) ;
#326 = CARTESIAN_POINT ( 'NONE',  ( 0.000000000000000000, 0.000000000000000000, 3.000000000000000000 ) ) ;
#327 = AXIS2_PLACEMENT_3D ( 'NONE', #239, #331, #359 ) ;
#328 = DIRECTION ( 'NONE',  ( -0.000000000000000000, -0.000000000000000000, -1.000000000000000000 ) ) ;
#329 = CC_DESIGN_PERSON_AND_ORGANIZATION_ASSIGNMENT ( #214, #336, ( #31 ) ) ;
#330 = EDGE_LOOP ( 'NONE', ( #272, #115 ) ) ;
#331 = DIRECTION ( 'NONE',  ( -0.000000000000000000, -0.000000000000000000, -1.000000000000000000 ) ) ;
#332 = ORIENTED_EDGE ( 'NONE', *, *, #345, .F. ) ;
#333 =( NAMED_UNIT ( * ) SI_UNIT ( $, .STERADIAN. ) SOLID_ANGLE_UNIT ( ) );
#334 = DIRECTION ( 'NONE',  ( 1.000000000000000000, 0.000000000000000000, 0.000000000000000000 ) ) ;
#335 = AXIS2_PLACEMENT_3D ( 'NONE', #56, #26, #253 ) ;
#336 = PERSON_AND_ORGANIZATION_ROLE ( 'design_owner' ) ;
#337 = CARTESIAN_POINT ( 'NONE',  ( -1.600000000000000089, 0.000000000000000000, 78.00000000000000000 ) ) ;
#338 = PERSON ( 'NEURÈENÝ', 'NEURÈENÝ', 'NEURÈENÝ', ('NEURÈENÝ'), ('NEURÈENÝ'), ('NEURÈENÝ') ) ;
#339 = CARTESIAN_POINT ( 'NONE',  ( 2.799999999999999822, 0.000000000000000000, 3.299999999999997158 ) ) ;
#340 = APPROVAL_STATUS ( 'not_yet_approved' ) ;
#341 = DIRECTION ( 'NONE',  ( 0.000000000000000000, 0.000000000000000000, 1.000000000000000000 ) ) ;
#342 = CIRCLE ( 'NONE', #42, 2.500000000000000000 ) ;
#343 = AXIS2_PLACEMENT_3D ( 'NONE', #5, #81, #147 ) ;
#344 = EDGE_LOOP ( 'NONE', ( #204, #234 ) ) ;
#345 = EDGE_CURVE ( 'NONE', #248, #90, #361, .T. ) ;
#346 = PERSON_AND_ORGANIZATION ( #338, #246 ) ;
#347 = FACE_OUTER_BOUND ( 'NONE', #155, .T. ) ;
#348 = PERSON_AND_ORGANIZATION_ROLE ( 'design_supplier' ) ;
#349 = DIRECTION ( 'NONE',  ( -1.000000000000000000, 1.224646799147353207E-16, 0.000000000000000000 ) ) ;
#350 = EDGE_CURVE ( 'NONE', #236, #151, #294, .T. ) ;
#351 = APPROVAL_PERSON_ORGANIZATION ( #28, #206, #161 ) ;
#352 = CYLINDRICAL_SURFACE ( 'NONE', #215, 5.000000000000000000 ) ;
#353 = AXIS2_PLACEMENT_3D ( 'NONE', #290, #328, #303 ) ;
#354 = ORIENTED_EDGE ( 'NONE', *, *, #374, .T. ) ;
#355 = ADVANCED_FACE ( 'NONE', ( #362 ), #321, .F. ) ;
#356 = LINE ( 'NONE', #119, #213 ) ;
#357 = ORIENTED_EDGE ( 'NONE', *, *, #122, .T. ) ;
#358 = CARTESIAN_POINT ( 'NONE',  ( 0.000000000000000000, 0.000000000000000000, 78.00000000000000000 ) ) ;
#359 = DIRECTION ( 'NONE',  ( -1.000000000000000000, 0.000000000000000000, 0.000000000000000000 ) ) ;
#360 = EDGE_LOOP ( 'NONE', ( #55, #24 ) ) ;
#361 = CIRCLE ( 'NONE', #27, 2.799999999999999822 ) ;
#362 = FACE_OUTER_BOUND ( 'NONE', #207, .T. ) ;
#363 = ORIENTED_EDGE ( 'NONE', *, *, #141, .F. ) ;
#364 = CARTESIAN_POINT ( 'NONE',  ( -2.500000000000000000, 0.000000000000000000, 3.299999999999997158 ) ) ;
#365 = CARTESIAN_POINT ( 'NONE',  ( 0.000000000000000000, 0.000000000000000000, 3.000000000000000000 ) ) ;
#366 = MECHANICAL_CONTEXT ( 'NONE', #200, 'mechanical' ) ;
#367 = DIRECTION ( 'NONE',  ( 0.000000000000000000, 0.000000000000000000, -1.000000000000000000 ) ) ;
#368 = AXIS2_PLACEMENT_3D ( 'NONE', #378, #143, #205 ) ;
#369 = EDGE_CURVE ( 'NONE', #4, #372, #146, .T. ) ;
#370 =( GEOMETRIC_REPRESENTATION_CONTEXT ( 3 ) GLOBAL_UNCERTAINTY_ASSIGNED_CONTEXT ( ( #118 ) ) GLOBAL_UNIT_ASSIGNED_CONTEXT ( ( #129, #273, #333 ) ) REPRESENTATION_CONTEXT ( 'NONE', 'WORKASPACE' ) );
#371 = APPLICATION_PROTOCOL_DEFINITION ( 'international standard', 'config_control_design', 1994, #200 ) ;
#372 = VERTEX_POINT ( 'NONE', #364 ) ;
#373 = ORIENTED_EDGE ( 'NONE', *, *, #144, .F. ) ;
#374 = EDGE_CURVE ( 'NONE', #148, #295, #94, .T. ) ;
#375 = DIRECTION ( 'NONE',  ( 1.000000000000000000, 0.000000000000000000, 0.000000000000000000 ) ) ;
#376 = CC_DESIGN_SECURITY_CLASSIFICATION ( #221, ( #289 ) ) ;
#377 = COORDINATED_UNIVERSAL_TIME_OFFSET ( 1, 0, .AHEAD. ) ;
#378 = CARTESIAN_POINT ( 'NONE',  ( 0.000000000000000000, 0.000000000000000000, 0.000000000000000000 ) ) ;
#379 = PERSON_AND_ORGANIZATION ( #338, #246 ) ;
#380 = FACE_OUTER_BOUND ( 'NONE', #211, .T. ) ;
#381 = COORDINATED_UNIVERSAL_TIME_OFFSET ( 1, 0, .AHEAD. ) ;
ENDSEC;
END-ISO-10303-21;
