ISO-10303-21;
HEADER;
FILE_DESCRIPTION (( 'STEP AP203' ),
    '1' );
FILE_NAME ('d3e9.STEP',
    '2022-07-08T15:48:46',
    ( '' ),
    ( '' ),
    'SwSTEP 2.0',
    'SolidWorks 2019',
    '' );
FILE_SCHEMA (( 'CONFIG_CONTROL_DESIGN' ));
ENDSEC;

DATA;
#1 = CC_DESIGN_SECURITY_CLASSIFICATION ( #43, ( #220 ) ) ;
#2 = CARTESIAN_POINT ( 'NONE',  ( 0.000000000000000000, 0.000000000000000000, 128.0000000000000000 ) ) ;
#3 = ADVANCED_FACE ( 'NONE', ( #206 ), #357, .F. ) ;
#4 = VERTEX_POINT ( 'NONE', #66 ) ;
#5 = ORGANIZATION ( 'NEURÈENÝ', 'NEURÈENÝ', '' ) ;
#6 = DIRECTION ( 'NONE',  ( 0.000000000000000000, 0.000000000000000000, 1.000000000000000000 ) ) ;
#7 = ORIENTED_EDGE ( 'NONE', *, *, #70, .F. ) ;
#8 = CARTESIAN_POINT ( 'NONE',  ( -2.500000000000000000, 0.000000000000000000, 3.299999999999997158 ) ) ;
#9 = CIRCLE ( 'NONE', #37, 2.500000000000000000 ) ;
#10 = CARTESIAN_POINT ( 'NONE',  ( -5.000000000000000000, 0.000000000000000000, 3.000000000000000000 ) ) ;
#11 = CC_DESIGN_PERSON_AND_ORGANIZATION_ASSIGNMENT ( #176, #82, ( #220 ) ) ;
#12 = CALENDAR_DATE ( 2022, 8, 7 ) ;
#13 = DATE_TIME_ROLE ( 'classification_date' ) ;
#14 = CARTESIAN_POINT ( 'NONE',  ( 1.250000000000000000, 1.530808498934191571E-16, 0.000000000000000000 ) ) ;
#15 = CALENDAR_DATE ( 2022, 8, 7 ) ;
#16 = DIRECTION ( 'NONE',  ( -0.000000000000000000, -0.000000000000000000, -1.000000000000000000 ) ) ;
#17 = VECTOR ( 'NONE', #349, 1000.000000000000000 ) ;
#18 = CC_DESIGN_PERSON_AND_ORGANIZATION_ASSIGNMENT ( #111, #119, ( #43 ) ) ;
#19 = EDGE_LOOP ( 'NONE', ( #228, #108, #114, #47 ) ) ;
#20 = EDGE_LOOP ( 'NONE', ( #120, #350 ) ) ;
#21 = CIRCLE ( 'NONE', #78, 5.000000000000000000 ) ;
#22 = PERSON_AND_ORGANIZATION ( #290, #5 ) ;
#23 = CARTESIAN_POINT ( 'NONE',  ( -2.500000000000000000, 0.000000000000000000, 128.0000000000000000 ) ) ;
#24 = ORIENTED_EDGE ( 'NONE', *, *, #102, .F. ) ;
#25 = DIRECTION ( 'NONE',  ( 0.000000000000000000, 0.000000000000000000, 1.000000000000000000 ) ) ;
#26 = ORIENTED_EDGE ( 'NONE', *, *, #192, .T. ) ;
#27 = APPROVAL ( #375, 'NEURÈENÝ' ) ;
#28 = ORIENTED_EDGE ( 'NONE', *, *, #192, .F. ) ;
#29 = EDGE_CURVE ( 'NONE', #86, #186, #264, .T. ) ;
#30 = VECTOR ( 'NONE', #144, 1000.000000000000000 ) ;
#31 = APPLICATION_PROTOCOL_DEFINITION ( 'international standard', 'config_control_design', 1994, #292 ) ;
#32 = DIRECTION ( 'NONE',  ( 0.000000000000000000, 0.000000000000000000, 1.000000000000000000 ) ) ;
#33 = CIRCLE ( 'NONE', #90, 2.799999999999999822 ) ;
#34 = DIRECTION ( 'NONE',  ( -0.000000000000000000, -0.000000000000000000, -1.000000000000000000 ) ) ;
#35 = DIRECTION ( 'NONE',  ( -0.000000000000000000, -0.000000000000000000, -1.000000000000000000 ) ) ;
#36 = ORIENTED_EDGE ( 'NONE', *, *, #139, .T. ) ;
#37 = AXIS2_PLACEMENT_3D ( 'NONE', #135, #141, #298 ) ;
#38 = PRODUCT_RELATED_PRODUCT_CATEGORY ( 'detail', '', ( #270 ) ) ;
#39 = CARTESIAN_POINT ( 'NONE',  ( 0.000000000000000000, 0.000000000000000000, 128.0000000000000000 ) ) ;
#40 = CLOSED_SHELL ( 'NONE', ( #210, #323, #163, #175, #306, #169, #60, #281, #215, #3, #85 ) ) ;
#41 = DIRECTION ( 'NONE',  ( 0.000000000000000000, 0.000000000000000000, 1.000000000000000000 ) ) ;
#42 = EDGE_CURVE ( 'NONE', #231, #311, #319, .T. ) ;
#43 = SECURITY_CLASSIFICATION ( '', '', #340 ) ;
#44 = CYLINDRICAL_SURFACE ( 'NONE', #123, 2.500000000000000000 ) ;
#45 = PRODUCT_DEFINITION_SHAPE ( 'NONE', 'NONE',  #337 ) ;
#46 = LINE ( 'NONE', #173, #30 ) ;
#47 = ORIENTED_EDGE ( 'NONE', *, *, #88, .T. ) ;
#48 = DIRECTION ( 'NONE',  ( -0.000000000000000000, -0.000000000000000000, -1.000000000000000000 ) ) ;
#49 = ORIENTED_EDGE ( 'NONE', *, *, #258, .T. ) ;
#50 = APPROVAL_DATE_TIME ( #226, #27 ) ;
#51 = CARTESIAN_POINT ( 'NONE',  ( -5.000000000000000000, 0.000000000000000000, 3.000000000000000000 ) ) ;
#52 = CIRCLE ( 'NONE', #79, 2.799999999999999822 ) ;
#53 = EDGE_LOOP ( 'NONE', ( #136, #26, #125, #110 ) ) ;
#54 = DATE_TIME_ROLE ( 'creation_date' ) ;
#55 = CARTESIAN_POINT ( 'NONE',  ( 0.000000000000000000, 0.000000000000000000, 3.299999999999997158 ) ) ;
#56 = EDGE_LOOP ( 'NONE', ( #105, #28 ) ) ;
#57 = AXIS2_PLACEMENT_3D ( 'NONE', #380, #263, #284 ) ;
#58 = UNCERTAINTY_MEASURE_WITH_UNIT (LENGTH_MEASURE( 1.000000000000000082E-05 ), #199, 'distance_accuracy_value', 'NONE');
#59 = EDGE_LOOP ( 'NONE', ( #218, #36 ) ) ;
#60 = ADVANCED_FACE ( 'NONE', ( #92, #158 ), #184, .F. ) ;
#61 = DIRECTION ( 'NONE',  ( 0.000000000000000000, 0.000000000000000000, -1.000000000000000000 ) ) ;
#62 = AXIS2_PLACEMENT_3D ( 'NONE', #132, #138, #331 ) ;
#63 = COORDINATED_UNIVERSAL_TIME_OFFSET ( 1, 0, .AHEAD. ) ;
#64 = EDGE_CURVE ( 'NONE', #356, #4, #33, .T. ) ;
#65 = DIRECTION ( 'NONE',  ( 0.000000000000000000, 0.000000000000000000, -1.000000000000000000 ) ) ;
#66 = CARTESIAN_POINT ( 'NONE',  ( -2.799999999999999822, 3.429011037612589276E-16, 2.999999999999998668 ) ) ;
#67 = AXIS2_PLACEMENT_3D ( 'NONE', #307, #48, #279 ) ;
#68 = FACE_OUTER_BOUND ( 'NONE', #53, .T. ) ;
#69 = DIRECTION ( 'NONE',  ( 1.000000000000000000, 0.000000000000000000, 0.000000000000000000 ) ) ;
#70 = EDGE_CURVE ( 'NONE', #311, #81, #325, .T. ) ;
#71 = DIRECTION ( 'NONE',  ( 1.000000000000000000, 0.000000000000000000, 0.000000000000000000 ) ) ;
#72 = ORIENTED_EDGE ( 'NONE', *, *, #146, .F. ) ;
#73 = VECTOR ( 'NONE', #77, 1000.000000000000000 ) ;
#74 = LINE ( 'NONE', #164, #73 ) ;
#75 = EDGE_LOOP ( 'NONE', ( #347, #305 ) ) ;
#76 = EDGE_CURVE ( 'NONE', #247, #191, #137, .T. ) ;
#77 = DIRECTION ( 'NONE',  ( -0.000000000000000000, -0.000000000000000000, -1.000000000000000000 ) ) ;
#78 = AXIS2_PLACEMENT_3D ( 'NONE', #156, #97, #213 ) ;
#79 = AXIS2_PLACEMENT_3D ( 'NONE', #330, #34, #69 ) ;
#80 = CARTESIAN_POINT ( 'NONE',  ( 5.000000000000000000, 6.123233995736766282E-16, 3.000000000000000000 ) ) ;
#81 = VERTEX_POINT ( 'NONE', #211 ) ;
#82 = PERSON_AND_ORGANIZATION_ROLE ( 'creator' ) ;
#83 = CARTESIAN_POINT ( 'NONE',  ( 0.000000000000000000, 0.000000000000000000, 128.0000000000000000 ) ) ;
#84 = ORIENTED_EDGE ( 'NONE', *, *, #131, .T. ) ;
#85 = ADVANCED_FACE ( 'NONE', ( #68 ), #291, .F. ) ;
#86 = VERTEX_POINT ( 'NONE', #182 ) ;
#87 = CARTESIAN_POINT ( 'NONE',  ( 5.000000000000000000, 6.123233995736766282E-16, 3.000000000000000000 ) ) ;
#88 = EDGE_CURVE ( 'NONE', #186, #86, #358, .T. ) ;
#89 = ORIENTED_EDGE ( 'NONE', *, *, #76, .T. ) ;
#90 = AXIS2_PLACEMENT_3D ( 'NONE', #287, #381, #157 ) ;
#91 = DIRECTION ( 'NONE',  ( -1.000000000000000000, 0.000000000000000000, 0.000000000000000000 ) ) ;
#92 = FACE_BOUND ( 'NONE', #312, .T. ) ;
#93 = AXIS2_PLACEMENT_3D ( 'NONE', #332, #190, #239 ) ;
#94 = CC_DESIGN_APPROVAL ( #27, ( #43 ) ) ;
#95 = CC_DESIGN_PERSON_AND_ORGANIZATION_ASSIGNMENT ( #167, #273, ( #220 ) ) ;
#96 = CARTESIAN_POINT ( 'NONE',  ( 0.000000000000000000, 0.000000000000000000, 3.299999999999997158 ) ) ;
#97 = DIRECTION ( 'NONE',  ( 0.000000000000000000, 0.000000000000000000, 1.000000000000000000 ) ) ;
#98 = CARTESIAN_POINT ( 'NONE',  ( 0.000000000000000000, 0.000000000000000000, 128.0000000000000000 ) ) ;
#99 = AXIS2_PLACEMENT_3D ( 'NONE', #55, #230, #341 ) ;
#100 = APPROVAL_PERSON_ORGANIZATION ( #22, #240, #116 ) ;
#101 = FACE_OUTER_BOUND ( 'NONE', #118, .T. ) ;
#102 = EDGE_CURVE ( 'NONE', #241, #308, #21, .T. ) ;
#103 = AXIS2_PLACEMENT_3D ( 'NONE', #98, #212, #322 ) ;
#104 = CARTESIAN_POINT ( 'NONE',  ( 2.799999999999999822, 0.000000000000000000, 3.299999999999997158 ) ) ;
#105 = ORIENTED_EDGE ( 'NONE', *, *, #371, .F. ) ;
#106 = DIRECTION ( 'NONE',  ( -0.000000000000000000, -0.000000000000000000, -1.000000000000000000 ) ) ;
#107 = CARTESIAN_POINT ( 'NONE',  ( 0.000000000000000000, 0.000000000000000000, 3.000000000000000000 ) ) ;
#108 = ORIENTED_EDGE ( 'NONE', *, *, #76, .F. ) ;
#109 = DIRECTION ( 'NONE',  ( -1.000000000000000000, 0.000000000000000000, 0.000000000000000000 ) ) ;
#110 = ORIENTED_EDGE ( 'NONE', *, *, #379, .T. ) ;
#111 = PERSON_AND_ORGANIZATION ( #290, #5 ) ;
#112 = TOROIDAL_SURFACE ( 'NONE', #99, 2.799999999999999822, 0.2999999999999999889 ) ;
#113 = DIRECTION ( 'NONE',  ( -1.000000000000000000, 1.224646799147353207E-16, 0.000000000000000000 ) ) ;
#114 = ORIENTED_EDGE ( 'NONE', *, *, #198, .T. ) ;
#115 = EDGE_CURVE ( 'NONE', #251, #276, #370, .T. ) ;
#116 = APPROVAL_ROLE ( '' ) ;
#117 = FACE_OUTER_BOUND ( 'NONE', #225, .T. ) ;
#118 = EDGE_LOOP ( 'NONE', ( #353, #289, #254, #171 ) ) ;
#119 = PERSON_AND_ORGANIZATION_ROLE ( 'classification_officer' ) ;
#120 = ORIENTED_EDGE ( 'NONE', *, *, #160, .T. ) ;
#121 = DESIGN_CONTEXT ( 'detailed design', #268, 'design' ) ;
#122 = EDGE_CURVE ( 'NONE', #86, #356, #154, .T. ) ;
#123 = AXIS2_PLACEMENT_3D ( 'NONE', #250, #227, #109 ) ;
#124 = DIRECTION ( 'NONE',  ( -1.000000000000000000, 0.000000000000000000, 0.000000000000000000 ) ) ;
#125 = ORIENTED_EDGE ( 'NONE', *, *, #345, .T. ) ;
#126 = APPLICATION_PROTOCOL_DEFINITION ( 'international standard', 'config_control_design', 1994, #268 ) ;
#127 = DIRECTION ( 'NONE',  ( 0.000000000000000000, 0.000000000000000000, 1.000000000000000000 ) ) ;
#128 = APPROVAL_STATUS ( 'not_yet_approved' ) ;
#129 = CARTESIAN_POINT ( 'NONE',  ( 0.000000000000000000, 0.000000000000000000, 0.000000000000000000 ) ) ;
#130 = VERTEX_POINT ( 'NONE', #369 ) ;
#131 = EDGE_CURVE ( 'NONE', #308, #251, #219, .T. ) ;
#132 = CARTESIAN_POINT ( 'NONE',  ( 0.000000000000000000, 0.000000000000000000, 3.000000000000000000 ) ) ;
#133 = AXIS2_PLACEMENT_3D ( 'NONE', #246, #376, #113 ) ;
#134 = AXIS2_PLACEMENT_3D ( 'NONE', #129, #25, #351 ) ;
#135 = CARTESIAN_POINT ( 'NONE',  ( 0.000000000000000000, 0.000000000000000000, 128.0000000000000000 ) ) ;
#136 = ORIENTED_EDGE ( 'NONE', *, *, #42, .F. ) ;
#137 = CIRCLE ( 'NONE', #103, 2.500000000000000000 ) ;
#138 = DIRECTION ( 'NONE',  ( -0.000000000000000000, -0.000000000000000000, -1.000000000000000000 ) ) ;
#139 = EDGE_CURVE ( 'NONE', #4, #356, #52, .T. ) ;
#140 = DIRECTION ( 'NONE',  ( 1.000000000000000000, 0.000000000000000000, 0.000000000000000000 ) ) ;
#141 = DIRECTION ( 'NONE',  ( 0.000000000000000000, 0.000000000000000000, 1.000000000000000000 ) ) ;
#142 = ORIENTED_EDGE ( 'NONE', *, *, #160, .F. ) ;
#143 = COORDINATED_UNIVERSAL_TIME_OFFSET ( 1, 0, .AHEAD. ) ;
#144 = DIRECTION ( 'NONE',  ( -0.000000000000000000, -0.000000000000000000, -1.000000000000000000 ) ) ;
#145 = APPROVAL_ROLE ( '' ) ;
#146 = EDGE_CURVE ( 'NONE', #191, #247, #9, .T. ) ;
#147 = FACE_OUTER_BOUND ( 'NONE', #333, .T. ) ;
#148 = CALENDAR_DATE ( 2022, 8, 7 ) ;
#149 = ORIENTED_EDGE ( 'NONE', *, *, #122, .F. ) ;
#150 = APPROVAL ( #128, 'NEURÈENÝ' ) ;
#151 = FACE_OUTER_BOUND ( 'NONE', #19, .T. ) ;
#152 = ORIENTED_EDGE ( 'NONE', *, *, #262, .F. ) ;
#153 = MANIFOLD_SOLID_BREP ( 'Odebrat vysunutím3', #40 ) ;
#154 = CIRCLE ( 'NONE', #166, 0.2999999999999999334 ) ;
#155 = LOCAL_TIME ( 17, 48, 46.00000000000000000, #143 ) ;
#156 = CARTESIAN_POINT ( 'NONE',  ( 0.000000000000000000, 0.000000000000000000, 3.000000000000000000 ) ) ;
#157 = DIRECTION ( 'NONE',  ( 1.000000000000000000, 0.000000000000000000, 0.000000000000000000 ) ) ;
#158 = FACE_OUTER_BOUND ( 'NONE', #75, .T. ) ;
#159 = VECTOR ( 'NONE', #65, 1000.000000000000000 ) ;
#160 = EDGE_CURVE ( 'NONE', #308, #241, #207, .T. ) ;
#161 = FACE_OUTER_BOUND ( 'NONE', #374, .T. ) ;
#162 = DIRECTION ( 'NONE',  ( 1.000000000000000000, 0.000000000000000000, 0.000000000000000000 ) ) ;
#163 = ADVANCED_FACE ( 'NONE', ( #161 ), #214, .T. ) ;
#164 = CARTESIAN_POINT ( 'NONE',  ( -2.500000000000000000, 0.000000000000000000, 128.0000000000000000 ) ) ;
#165 = FACE_BOUND ( 'NONE', #59, .T. ) ;
#166 = AXIS2_PLACEMENT_3D ( 'NONE', #104, #295, #367 ) ;
#167 = PERSON_AND_ORGANIZATION ( #290, #5 ) ;
#168 = DIRECTION ( 'NONE',  ( 0.000000000000000000, 0.000000000000000000, 1.000000000000000000 ) ) ;
#169 = ADVANCED_FACE ( 'NONE', ( #165, #271 ), #266, .T. ) ;
#170 = CARTESIAN_POINT ( 'NONE',  ( 0.000000000000000000, 0.000000000000000000, 0.000000000000000000 ) ) ;
#171 = ORIENTED_EDGE ( 'NONE', *, *, #345, .F. ) ;
#172 = APPROVAL_DATE_TIME ( #197, #150 ) ;
#173 = CARTESIAN_POINT ( 'NONE',  ( 2.500000000000000000, 3.061616997868383141E-16, 128.0000000000000000 ) ) ;
#174 = SHAPE_DEFINITION_REPRESENTATION ( #45, #343 ) ;
#175 = ADVANCED_FACE ( 'NONE', ( #265 ), #269, .T. ) ;
#176 = PERSON_AND_ORGANIZATION ( #290, #5 ) ;
#177 = CARTESIAN_POINT ( 'NONE',  ( 1.250000000000000000, 1.530808498934191571E-16, 128.0000000000000000 ) ) ;
#178 = ORIENTED_EDGE ( 'NONE', *, *, #64, .F. ) ;
#179 = ORIENTED_EDGE ( 'NONE', *, *, #296, .T. ) ;
#180 = DIRECTION ( 'NONE',  ( 0.000000000000000000, 0.000000000000000000, 1.000000000000000000 ) ) ;
#181 = CC_DESIGN_DATE_AND_TIME_ASSIGNMENT ( #195, #13, ( #43 ) ) ;
#182 = CARTESIAN_POINT ( 'NONE',  ( 2.500000000000000000, 3.061616997868383141E-16, 3.299999999999997158 ) ) ;
#183 = DIRECTION ( 'NONE',  ( 1.000000000000000000, 0.000000000000000000, -0.000000000000000000 ) ) ;
#184 = PLANE ( 'NONE',  #204 ) ;
#185 = PLANE ( 'NONE',  #301 ) ;
#186 = VERTEX_POINT ( 'NONE', #8 ) ;
#187 = FACE_BOUND ( 'NONE', #56, .T. ) ;
#188 = AXIS2_PLACEMENT_3D ( 'NONE', #2, #61, #91 ) ;
#189 = CYLINDRICAL_SURFACE ( 'NONE', #355, 1.250000000000000000 ) ;
#190 = DIRECTION ( 'NONE',  ( 0.000000000000000000, 0.000000000000000000, 1.000000000000000000 ) ) ;
#191 = VERTEX_POINT ( 'NONE', #238 ) ;
#192 = EDGE_CURVE ( 'NONE', #231, #130, #329, .T. ) ;
#193 = CIRCLE ( 'NONE', #133, 0.2999999999999999334 ) ;
#194 = ORIENTED_EDGE ( 'NONE', *, *, #328, .F. ) ;
#195 = DATE_AND_TIME ( #148, #155 ) ;
#196 = DIRECTION ( 'NONE',  ( 1.000000000000000000, 0.000000000000000000, 0.000000000000000000 ) ) ;
#197 = DATE_AND_TIME ( #286, #272 ) ;
#198 = EDGE_CURVE ( 'NONE', #247, #186, #74, .T. ) ;
#199 =( LENGTH_UNIT ( ) NAMED_UNIT ( * ) SI_UNIT ( .MILLI., .METRE. ) );
#200 = AXIS2_PLACEMENT_3D ( 'NONE', #255, #16, #124 ) ;
#201 = CC_DESIGN_APPROVAL ( #150, ( #337 ) ) ;
#202 = LINE ( 'NONE', #346, #17 ) ;
#203 = ORIENTED_EDGE ( 'NONE', *, *, #115, .T. ) ;
#204 = AXIS2_PLACEMENT_3D ( 'NONE', #359, #127, #183 ) ;
#205 = ORIENTED_EDGE ( 'NONE', *, *, #122, .T. ) ;
#206 = FACE_OUTER_BOUND ( 'NONE', #365, .T. ) ;
#207 = CIRCLE ( 'NONE', #248, 5.000000000000000000 ) ;
#208 = PERSON_AND_ORGANIZATION ( #290, #5 ) ;
#209 = ORIENTED_EDGE ( 'NONE', *, *, #29, .F. ) ;
#210 = ADVANCED_FACE ( 'NONE', ( #101 ), #189, .F. ) ;
#211 = CARTESIAN_POINT ( 'NONE',  ( -1.250000000000000000, 0.000000000000000000, 0.000000000000000000 ) ) ;
#212 = DIRECTION ( 'NONE',  ( 0.000000000000000000, 0.000000000000000000, 1.000000000000000000 ) ) ;
#213 = DIRECTION ( 'NONE',  ( 1.000000000000000000, 0.000000000000000000, 0.000000000000000000 ) ) ;
#214 = CYLINDRICAL_SURFACE ( 'NONE', #360, 2.500000000000000000 ) ;
#215 = ADVANCED_FACE ( 'NONE', ( #187, #243 ), #185, .T. ) ;
#216 = AXIS2_PLACEMENT_3D ( 'NONE', #83, #310, #224 ) ;
#217 = CARTESIAN_POINT ( 'NONE',  ( 0.000000000000000000, 0.000000000000000000, 0.000000000000000000 ) ) ;
#218 = ORIENTED_EDGE ( 'NONE', *, *, #64, .T. ) ;
#219 = LINE ( 'NONE', #10, #348 ) ;
#220 = PRODUCT_DEFINITION_FORMATION_WITH_SPECIFIED_SOURCE ( 'LIBOVOLNÝ', '', #270, .NOT_KNOWN. ) ;
#221 = APPROVAL_STATUS ( 'not_yet_approved' ) ;
#222 = CARTESIAN_POINT ( 'NONE',  ( 2.799999999999999822, 0.000000000000000000, 2.999999999999998668 ) ) ;
#223 = APPROVAL_DATE_TIME ( #338, #240 ) ;
#224 = DIRECTION ( 'NONE',  ( 1.000000000000000000, 0.000000000000000000, 0.000000000000000000 ) ) ;
#225 = EDGE_LOOP ( 'NONE', ( #152, #142, #84, #203 ) ) ;
#226 = DATE_AND_TIME ( #309, #361 ) ;
#227 = DIRECTION ( 'NONE',  ( -0.000000000000000000, -0.000000000000000000, -1.000000000000000000 ) ) ;
#228 = ORIENTED_EDGE ( 'NONE', *, *, #258, .F. ) ;
#229 = CIRCLE ( 'NONE', #67, 1.250000000000000000 ) ;
#230 = DIRECTION ( 'NONE',  ( 0.000000000000000000, 0.000000000000000000, 1.000000000000000000 ) ) ;
#231 = VERTEX_POINT ( 'NONE', #177 ) ;
#232 =( NAMED_UNIT ( * ) SI_UNIT ( $, .STERADIAN. ) SOLID_ANGLE_UNIT ( ) );
#233 = CC_DESIGN_DATE_AND_TIME_ASSIGNMENT ( #278, #54, ( #337 ) ) ;
#234 = DIRECTION ( 'NONE',  ( 1.000000000000000000, 0.000000000000000000, 0.000000000000000000 ) ) ;
#235 = AXIS2_PLACEMENT_3D ( 'NONE', #217, #6, #140 ) ;
#236 = DIRECTION ( 'NONE',  ( 1.000000000000000000, 0.000000000000000000, 0.000000000000000000 ) ) ;
#237 = AXIS2_PLACEMENT_3D ( 'NONE', #261, #180, #236 ) ;
#238 = CARTESIAN_POINT ( 'NONE',  ( 2.500000000000000000, 3.061616997868383141E-16, 128.0000000000000000 ) ) ;
#239 = DIRECTION ( 'NONE',  ( 1.000000000000000000, 0.000000000000000000, -0.000000000000000000 ) ) ;
#240 = APPROVAL ( #221, 'NEURÈENÝ' ) ;
#241 = VERTEX_POINT ( 'NONE', #80 ) ;
#242 = DIRECTION ( 'NONE',  ( 0.000000000000000000, 0.000000000000000000, -1.000000000000000000 ) ) ;
#243 = FACE_OUTER_BOUND ( 'NONE', #335, .T. ) ;
#244 = PERSON_AND_ORGANIZATION ( #290, #5 ) ;
#245 = ORIENTED_EDGE ( 'NONE', *, *, #146, .T. ) ;
#246 = CARTESIAN_POINT ( 'NONE',  ( -2.799999999999999822, 3.429011037612588783E-16, 3.299999999999997158 ) ) ;
#247 = VERTEX_POINT ( 'NONE', #23 ) ;
#248 = AXIS2_PLACEMENT_3D ( 'NONE', #107, #41, #162 ) ;
#249 = APPROVAL_PERSON_ORGANIZATION ( #252, #27, #145 ) ;
#250 = CARTESIAN_POINT ( 'NONE',  ( 0.000000000000000000, 0.000000000000000000, 128.0000000000000000 ) ) ;
#251 = VERTEX_POINT ( 'NONE', #304 ) ;
#252 = PERSON_AND_ORGANIZATION ( #290, #5 ) ;
#253 =( NAMED_UNIT ( * ) PLANE_ANGLE_UNIT ( ) SI_UNIT ( $, .RADIAN. ) );
#254 = ORIENTED_EDGE ( 'NONE', *, *, #70, .T. ) ;
#255 = CARTESIAN_POINT ( 'NONE',  ( 0.000000000000000000, 0.000000000000000000, 3.000000000000000000 ) ) ;
#256 = ORIENTED_EDGE ( 'NONE', *, *, #198, .F. ) ;
#257 = CC_DESIGN_APPROVAL ( #240, ( #220 ) ) ;
#258 = EDGE_CURVE ( 'NONE', #191, #86, #46, .T. ) ;
#259 = PERSON_AND_ORGANIZATION ( #290, #5 ) ;
#260 = CARTESIAN_POINT ( 'NONE',  ( 1.250000000000000000, 1.530808498934191571E-16, 128.0000000000000000 ) ) ;
#261 = CARTESIAN_POINT ( 'NONE',  ( 0.000000000000000000, 0.000000000000000000, 3.299999999999997158 ) ) ;
#262 = EDGE_CURVE ( 'NONE', #241, #276, #372, .T. ) ;
#263 = DIRECTION ( 'NONE',  ( 0.000000000000000000, 0.000000000000000000, 1.000000000000000000 ) ) ;
#264 = CIRCLE ( 'NONE', #313, 2.500000000000000000 ) ;
#265 = FACE_OUTER_BOUND ( 'NONE', #280, .T. ) ;
#266 = PLANE ( 'NONE',  #93 ) ;
#267 = ORIENTED_EDGE ( 'NONE', *, *, #379, .F. ) ;
#268 = APPLICATION_CONTEXT ( 'configuration controlled 3d designs of mechanical parts and assemblies' ) ;
#269 = CYLINDRICAL_SURFACE ( 'NONE', #62, 5.000000000000000000 ) ;
#270 = PRODUCT ( 'd3e9', 'd3e9', '', ( #315 ) ) ;
#271 = FACE_OUTER_BOUND ( 'NONE', #20, .T. ) ;
#272 = LOCAL_TIME ( 17, 48, 46.00000000000000000, #63 ) ;
#273 = PERSON_AND_ORGANIZATION_ROLE ( 'design_supplier' ) ;
#274 = DIRECTION ( 'NONE',  ( 1.000000000000000000, 0.000000000000000000, -0.000000000000000000 ) ) ;
#275 = CYLINDRICAL_SURFACE ( 'NONE', #200, 5.000000000000000000 ) ;
#276 = VERTEX_POINT ( 'NONE', #300 ) ;
#277 = CIRCLE ( 'NONE', #216, 1.250000000000000000 ) ;
#278 = DATE_AND_TIME ( #12, #336 ) ;
#279 = DIRECTION ( 'NONE',  ( 1.000000000000000000, 0.000000000000000000, 0.000000000000000000 ) ) ;
#280 = EDGE_LOOP ( 'NONE', ( #24, #363, #179, #282 ) ) ;
#281 = ADVANCED_FACE ( 'NONE', ( #151 ), #44, .T. ) ;
#282 = ORIENTED_EDGE ( 'NONE', *, *, #131, .F. ) ;
#283 = AXIS2_PLACEMENT_3D ( 'NONE', #170, #377, #196 ) ;
#284 = DIRECTION ( 'NONE',  ( 1.000000000000000000, 0.000000000000000000, 0.000000000000000000 ) ) ;
#285 = ORIENTED_EDGE ( 'NONE', *, *, #139, .F. ) ;
#286 = CALENDAR_DATE ( 2022, 8, 7 ) ;
#287 = CARTESIAN_POINT ( 'NONE',  ( 0.000000000000000000, 0.000000000000000000, 3.000000000000000000 ) ) ;
#288 = AXIS2_PLACEMENT_3D ( 'NONE', #362, #326, #71 ) ;
#289 = ORIENTED_EDGE ( 'NONE', *, *, #42, .T. ) ;
#290 = PERSON ( 'NEURÈENÝ', 'NEURÈENÝ', 'NEURÈENÝ', ('NEURÈENÝ'), ('NEURÈENÝ'), ('NEURÈENÝ') ) ;
#291 = CYLINDRICAL_SURFACE ( 'NONE', #188, 1.250000000000000000 ) ;
#292 = APPLICATION_CONTEXT ( 'configuration controlled 3d designs of mechanical parts and assemblies' ) ;
#293 = CC_DESIGN_PERSON_AND_ORGANIZATION_ASSIGNMENT ( #259, #378, ( #270 ) ) ;
#294 = VECTOR ( 'NONE', #339, 1000.000000000000000 ) ;
#295 = DIRECTION ( 'NONE',  ( 0.000000000000000000, -1.000000000000000000, 0.000000000000000000 ) ) ;
#296 = EDGE_CURVE ( 'NONE', #276, #251, #366, .T. ) ;
#297 = DIRECTION ( 'NONE',  ( -1.000000000000000000, 0.000000000000000000, 0.000000000000000000 ) ) ;
#298 = DIRECTION ( 'NONE',  ( 1.000000000000000000, 0.000000000000000000, 0.000000000000000000 ) ) ;
#299 = COORDINATED_UNIVERSAL_TIME_OFFSET ( 1, 0, .AHEAD. ) ;
#300 = CARTESIAN_POINT ( 'NONE',  ( 5.000000000000000000, 6.123233995736766282E-16, 0.000000000000000000 ) ) ;
#301 = AXIS2_PLACEMENT_3D ( 'NONE', #334, #168, #274 ) ;
#302 = ORIENTED_EDGE ( 'NONE', *, *, #29, .T. ) ;
#303 = LOCAL_TIME ( 17, 48, 46.00000000000000000, #344 ) ;
#304 = CARTESIAN_POINT ( 'NONE',  ( -5.000000000000000000, 0.000000000000000000, 0.000000000000000000 ) ) ;
#305 = ORIENTED_EDGE ( 'NONE', *, *, #296, .F. ) ;
#306 = ADVANCED_FACE ( 'NONE', ( #117 ), #275, .T. ) ;
#307 = CARTESIAN_POINT ( 'NONE',  ( 0.000000000000000000, 0.000000000000000000, 0.000000000000000000 ) ) ;
#308 = VERTEX_POINT ( 'NONE', #51 ) ;
#309 = CALENDAR_DATE ( 2022, 8, 7 ) ;
#310 = DIRECTION ( 'NONE',  ( 0.000000000000000000, 0.000000000000000000, 1.000000000000000000 ) ) ;
#311 = VERTEX_POINT ( 'NONE', #14 ) ;
#312 = EDGE_LOOP ( 'NONE', ( #267, #7 ) ) ;
#313 = AXIS2_PLACEMENT_3D ( 'NONE', #96, #32, #234 ) ;
#314 = AXIS2_PLACEMENT_3D ( 'NONE', #317, #316, #352 ) ;
#315 = MECHANICAL_CONTEXT ( 'NONE', #292, 'mechanical' ) ;
#316 = DIRECTION ( 'NONE',  ( -0.000000000000000000, -0.000000000000000000, -1.000000000000000000 ) ) ;
#317 = CARTESIAN_POINT ( 'NONE',  ( 0.000000000000000000, 0.000000000000000000, 0.000000000000000000 ) ) ;
#318 = APPROVAL_ROLE ( '' ) ;
#319 = LINE ( 'NONE', #260, #159 ) ;
#320 =( GEOMETRIC_REPRESENTATION_CONTEXT ( 3 ) GLOBAL_UNCERTAINTY_ASSIGNED_CONTEXT ( ( #58 ) ) GLOBAL_UNIT_ASSIGNED_CONTEXT ( ( #199, #253, #232 ) ) REPRESENTATION_CONTEXT ( 'NONE', 'WORKASPACE' ) );
#321 = APPROVAL_PERSON_ORGANIZATION ( #208, #150, #318 ) ;
#322 = DIRECTION ( 'NONE',  ( 1.000000000000000000, 0.000000000000000000, 0.000000000000000000 ) ) ;
#323 = ADVANCED_FACE ( 'NONE', ( #147 ), #112, .F. ) ;
#324 = CARTESIAN_POINT ( 'NONE',  ( 0.000000000000000000, 0.000000000000000000, 128.0000000000000000 ) ) ;
#325 = CIRCLE ( 'NONE', #314, 1.250000000000000000 ) ;
#326 = DIRECTION ( 'NONE',  ( 0.000000000000000000, 0.000000000000000000, 1.000000000000000000 ) ) ;
#327 = ORIENTED_EDGE ( 'NONE', *, *, #328, .T. ) ;
#328 = EDGE_CURVE ( 'NONE', #186, #4, #193, .T. ) ;
#329 = CIRCLE ( 'NONE', #288, 1.250000000000000000 ) ;
#330 = CARTESIAN_POINT ( 'NONE',  ( 0.000000000000000000, 0.000000000000000000, 3.000000000000000000 ) ) ;
#331 = DIRECTION ( 'NONE',  ( -1.000000000000000000, 0.000000000000000000, 0.000000000000000000 ) ) ;
#332 = CARTESIAN_POINT ( 'NONE',  ( 0.000000000000000000, 0.000000000000000000, 3.000000000000000000 ) ) ;
#333 = EDGE_LOOP ( 'NONE', ( #342, #327, #178, #149 ) ) ;
#334 = CARTESIAN_POINT ( 'NONE',  ( 0.000000000000000000, 0.000000000000000000, 128.0000000000000000 ) ) ;
#335 = EDGE_LOOP ( 'NONE', ( #89, #245 ) ) ;
#336 = LOCAL_TIME ( 17, 48, 46.00000000000000000, #368 ) ;
#337 = PRODUCT_DEFINITION ( 'NEZNÁMÝ', '', #220, #121 ) ;
#338 = DATE_AND_TIME ( #15, #303 ) ;
#339 = DIRECTION ( 'NONE',  ( -0.000000000000000000, -0.000000000000000000, -1.000000000000000000 ) ) ;
#340 = SECURITY_CLASSIFICATION_LEVEL ( 'unclassified' ) ;
#341 = DIRECTION ( 'NONE',  ( 1.000000000000000000, 0.000000000000000000, 0.000000000000000000 ) ) ;
#342 = ORIENTED_EDGE ( 'NONE', *, *, #88, .F. ) ;
#343 = ADVANCED_BREP_SHAPE_REPRESENTATION ( 'd3e9', ( #153, #134 ), #320 ) ;
#344 = COORDINATED_UNIVERSAL_TIME_OFFSET ( 1, 0, .AHEAD. ) ;
#345 = EDGE_CURVE ( 'NONE', #130, #81, #202, .T. ) ;
#346 = CARTESIAN_POINT ( 'NONE',  ( -1.250000000000000000, 0.000000000000000000, 128.0000000000000000 ) ) ;
#347 = ORIENTED_EDGE ( 'NONE', *, *, #115, .F. ) ;
#348 = VECTOR ( 'NONE', #35, 1000.000000000000000 ) ;
#349 = DIRECTION ( 'NONE',  ( 0.000000000000000000, 0.000000000000000000, -1.000000000000000000 ) ) ;
#350 = ORIENTED_EDGE ( 'NONE', *, *, #102, .T. ) ;
#351 = DIRECTION ( 'NONE',  ( 1.000000000000000000, 0.000000000000000000, 0.000000000000000000 ) ) ;
#352 = DIRECTION ( 'NONE',  ( 1.000000000000000000, 0.000000000000000000, 0.000000000000000000 ) ) ;
#353 = ORIENTED_EDGE ( 'NONE', *, *, #371, .T. ) ;
#354 = CC_DESIGN_PERSON_AND_ORGANIZATION_ASSIGNMENT ( #244, #373, ( #337 ) ) ;
#355 = AXIS2_PLACEMENT_3D ( 'NONE', #324, #242, #364 ) ;
#356 = VERTEX_POINT ( 'NONE', #222 ) ;
#357 = TOROIDAL_SURFACE ( 'NONE', #57, 2.799999999999999822, 0.2999999999999999889 ) ;
#358 = CIRCLE ( 'NONE', #237, 2.500000000000000000 ) ;
#359 = CARTESIAN_POINT ( 'NONE',  ( 0.000000000000000000, 0.000000000000000000, 0.000000000000000000 ) ) ;
#360 = AXIS2_PLACEMENT_3D ( 'NONE', #39, #106, #297 ) ;
#361 = LOCAL_TIME ( 17, 48, 46.00000000000000000, #299 ) ;
#362 = CARTESIAN_POINT ( 'NONE',  ( 0.000000000000000000, 0.000000000000000000, 128.0000000000000000 ) ) ;
#363 = ORIENTED_EDGE ( 'NONE', *, *, #262, .T. ) ;
#364 = DIRECTION ( 'NONE',  ( -1.000000000000000000, 0.000000000000000000, 0.000000000000000000 ) ) ;
#365 = EDGE_LOOP ( 'NONE', ( #194, #209, #205, #285 ) ) ;
#366 = CIRCLE ( 'NONE', #283, 5.000000000000000000 ) ;
#367 = DIRECTION ( 'NONE',  ( 0.000000000000000000, 0.000000000000000000, -1.000000000000000000 ) ) ;
#368 = COORDINATED_UNIVERSAL_TIME_OFFSET ( 1, 0, .AHEAD. ) ;
#369 = CARTESIAN_POINT ( 'NONE',  ( -1.250000000000000000, 0.000000000000000000, 128.0000000000000000 ) ) ;
#370 = CIRCLE ( 'NONE', #235, 5.000000000000000000 ) ;
#371 = EDGE_CURVE ( 'NONE', #130, #231, #277, .T. ) ;
#372 = LINE ( 'NONE', #87, #294 ) ;
#373 = PERSON_AND_ORGANIZATION_ROLE ( 'creator' ) ;
#374 = EDGE_LOOP ( 'NONE', ( #72, #49, #302, #256 ) ) ;
#375 = APPROVAL_STATUS ( 'not_yet_approved' ) ;
#376 = DIRECTION ( 'NONE',  ( 1.224646799147353207E-16, 1.000000000000000000, -0.000000000000000000 ) ) ;
#377 = DIRECTION ( 'NONE',  ( 0.000000000000000000, 0.000000000000000000, 1.000000000000000000 ) ) ;
#378 = PERSON_AND_ORGANIZATION_ROLE ( 'design_owner' ) ;
#379 = EDGE_CURVE ( 'NONE', #81, #311, #229, .T. ) ;
#380 = CARTESIAN_POINT ( 'NONE',  ( 0.000000000000000000, 0.000000000000000000, 3.299999999999997158 ) ) ;
#381 = DIRECTION ( 'NONE',  ( -0.000000000000000000, -0.000000000000000000, -1.000000000000000000 ) ) ;
ENDSEC;
END-ISO-10303-21;
