ISO-10303-21;
HEADER;
FILE_DESCRIPTION (( 'STEP AP203' ),
    '1' );
FILE_NAME ('4a18.STEP',
    '2022-07-08T14:34:34',
    ( '' ),
    ( '' ),
    'SwSTEP 2.0',
    'SolidWorks 2019',
    '' );
FILE_SCHEMA (( 'CONFIG_CONTROL_DESIGN' ));
ENDSEC;

DATA;
#1 = FACE_OUTER_BOUND ( 'NONE', #369, .T. ) ;
#2 = PERSON_AND_ORGANIZATION ( #236, #97 ) ;
#3 = CARTESIAN_POINT ( 'NONE',  ( 6.000000000000000888, 7.347880794884120722E-16, 257.0000000000000000 ) ) ;
#4 = EDGE_LOOP ( 'NONE', ( #37, #218 ) ) ;
#5 = DIRECTION ( 'NONE',  ( -0.000000000000000000, -0.000000000000000000, -1.000000000000000000 ) ) ;
#6 = VECTOR ( 'NONE', #352, 1000.000000000000000 ) ;
#7 = FACE_OUTER_BOUND ( 'NONE', #334, .T. ) ;
#8 = CARTESIAN_POINT ( 'NONE',  ( 0.000000000000000000, 0.000000000000000000, 257.0000000000000000 ) ) ;
#9 = ADVANCED_FACE ( 'NONE', ( #75 ), #310, .T. ) ;
#10 = DIRECTION ( 'NONE',  ( 1.000000000000000000, 0.000000000000000000, -0.000000000000000000 ) ) ;
#11 = AXIS2_PLACEMENT_3D ( 'NONE', #159, #274, #10 ) ;
#12 = CC_DESIGN_SECURITY_CLASSIFICATION ( #263, ( #103 ) ) ;
#13 = ORIENTED_EDGE ( 'NONE', *, *, #46, .F. ) ;
#14 = DIRECTION ( 'NONE',  ( -1.000000000000000000, 0.000000000000000000, 0.000000000000000000 ) ) ;
#15 = EDGE_CURVE ( 'NONE', #160, #48, #57, .T. ) ;
#16 = DIRECTION ( 'NONE',  ( 0.000000000000000000, 0.000000000000000000, 1.000000000000000000 ) ) ;
#17 = VERTEX_POINT ( 'NONE', #145 ) ;
#18 = VERTEX_POINT ( 'NONE', #89 ) ;
#19 = CARTESIAN_POINT ( 'NONE',  ( 0.000000000000000000, 0.000000000000000000, 257.0000000000000000 ) ) ;
#20 = ORIENTED_EDGE ( 'NONE', *, *, #15, .T. ) ;
#21 = CIRCLE ( 'NONE', #225, 6.000000000000000888 ) ;
#22 = DATE_TIME_ROLE ( 'creation_date' ) ;
#23 = ORIENTED_EDGE ( 'NONE', *, *, #167, .F. ) ;
#24 = APPROVAL_ROLE ( '' ) ;
#25 = DIRECTION ( 'NONE',  ( -1.000000000000000000, 0.000000000000000000, 0.000000000000000000 ) ) ;
#26 = DATE_AND_TIME ( #176, #332 ) ;
#27 = CARTESIAN_POINT ( 'NONE',  ( 0.000000000000000000, 0.000000000000000000, 257.0000000000000000 ) ) ;
#28 = CARTESIAN_POINT ( 'NONE',  ( 0.000000000000000000, 0.000000000000000000, 0.000000000000000000 ) ) ;
#29 = COORDINATED_UNIVERSAL_TIME_OFFSET ( 1, 0, .AHEAD. ) ;
#30 = ADVANCED_FACE ( 'NONE', ( #142 ), #318, .T. ) ;
#31 = DIRECTION ( 'NONE',  ( 1.000000000000000000, 0.000000000000000000, 0.000000000000000000 ) ) ;
#32 = DIRECTION ( 'NONE',  ( 0.000000000000000000, 0.000000000000000000, 1.000000000000000000 ) ) ;
#33 = CARTESIAN_POINT ( 'NONE',  ( -6.000000000000000888, 0.000000000000000000, 257.0000000000000000 ) ) ;
#34 = LINE ( 'NONE', #182, #319 ) ;
#35 = AXIS2_PLACEMENT_3D ( 'NONE', #193, #47, #71 ) ;
#36 = CARTESIAN_POINT ( 'NONE',  ( 0.000000000000000000, 0.000000000000000000, 7.700000000000012612 ) ) ;
#37 = ORIENTED_EDGE ( 'NONE', *, *, #129, .F. ) ;
#38 = PLANE ( 'NONE',  #11 ) ;
#39 = LINE ( 'NONE', #70, #116 ) ;
#40 = ORIENTED_EDGE ( 'NONE', *, *, #321, .T. ) ;
#41 = DIRECTION ( 'NONE',  ( 0.000000000000000000, 0.000000000000000000, 1.000000000000000000 ) ) ;
#42 = EDGE_CURVE ( 'NONE', #198, #372, #234, .T. ) ;
#43 = AXIS2_PLACEMENT_3D ( 'NONE', #115, #61, #315 ) ;
#44 = DIRECTION ( 'NONE',  ( 1.000000000000000000, 0.000000000000000000, 0.000000000000000000 ) ) ;
#45 = CARTESIAN_POINT ( 'NONE',  ( 0.000000000000000000, 0.000000000000000000, 0.000000000000000000 ) ) ;
#46 = EDGE_CURVE ( 'NONE', #223, #112, #34, .T. ) ;
#47 = DIRECTION ( 'NONE',  ( 0.000000000000000000, 0.000000000000000000, 1.000000000000000000 ) ) ;
#48 = VERTEX_POINT ( 'NONE', #150 ) ;
#49 = AXIS2_PLACEMENT_3D ( 'NONE', #271, #199, #72 ) ;
#50 = CIRCLE ( 'NONE', #35, 4.099999999999999645 ) ;
#51 = CARTESIAN_POINT ( 'NONE',  ( 0.000000000000000000, 0.000000000000000000, 7.000000000000000000 ) ) ;
#52 = ORIENTED_EDGE ( 'NONE', *, *, #42, .T. ) ;
#53 = EDGE_CURVE ( 'NONE', #48, #109, #67, .T. ) ;
#54 = ORIENTED_EDGE ( 'NONE', *, *, #255, .F. ) ;
#55 = TOROIDAL_SURFACE ( 'NONE', #354, 6.700000000000001066, 0.6999999999999999556 ) ;
#56 = DATE_AND_TIME ( #264, #138 ) ;
#57 = LINE ( 'NONE', #3, #309 ) ;
#58 = DIRECTION ( 'NONE',  ( 1.000000000000000000, 0.000000000000000000, 0.000000000000000000 ) ) ;
#59 = PRODUCT_DEFINITION ( 'NEZNÁMÝ', '', #103, #130 ) ;
#60 = COORDINATED_UNIVERSAL_TIME_OFFSET ( 1, 0, .AHEAD. ) ;
#61 = DIRECTION ( 'NONE',  ( 1.224646799147353207E-16, 1.000000000000000000, -0.000000000000000000 ) ) ;
#62 = CALENDAR_DATE ( 2022, 8, 7 ) ;
#63 = FACE_OUTER_BOUND ( 'NONE', #200, .T. ) ;
#64 = DIRECTION ( 'NONE',  ( 1.000000000000000000, 0.000000000000000000, 0.000000000000000000 ) ) ;
#65 = EDGE_CURVE ( 'NONE', #137, #112, #370, .T. ) ;
#66 = DIRECTION ( 'NONE',  ( 0.000000000000000000, 0.000000000000000000, 1.000000000000000000 ) ) ;
#67 = CIRCLE ( 'NONE', #76, 0.7000000000000000666 ) ;
#68 = EDGE_CURVE ( 'NONE', #174, #48, #331, .T. ) ;
#69 = ORIENTED_EDGE ( 'NONE', *, *, #289, .F. ) ;
#70 = CARTESIAN_POINT ( 'NONE',  ( 10.00000000000000000, 1.224646799147353256E-15, 7.000000000000000000 ) ) ;
#71 = DIRECTION ( 'NONE',  ( 1.000000000000000000, 0.000000000000000000, 0.000000000000000000 ) ) ;
#72 = DIRECTION ( 'NONE',  ( 1.000000000000000000, 0.000000000000000000, 0.000000000000000000 ) ) ;
#73 = ADVANCED_FACE ( 'NONE', ( #63 ), #293, .F. ) ;
#74 = CYLINDRICAL_SURFACE ( 'NONE', #248, 6.000000000000000888 ) ;
#75 = FACE_OUTER_BOUND ( 'NONE', #340, .T. ) ;
#76 = AXIS2_PLACEMENT_3D ( 'NONE', #125, #121, #214 ) ;
#77 = CC_DESIGN_APPROVAL ( #283, ( #103 ) ) ;
#78 = DIRECTION ( 'NONE',  ( -0.000000000000000000, -0.000000000000000000, -1.000000000000000000 ) ) ;
#79 = CARTESIAN_POINT ( 'NONE',  ( -10.00000000000000000, 0.000000000000000000, 7.000000000000000000 ) ) ;
#80 = ORIENTED_EDGE ( 'NONE', *, *, #129, .T. ) ;
#81 = ORIENTED_EDGE ( 'NONE', *, *, #98, .F. ) ;
#82 = PERSON_AND_ORGANIZATION ( #236, #97 ) ;
#83 = ORIENTED_EDGE ( 'NONE', *, *, #68, .T. ) ;
#84 = CIRCLE ( 'NONE', #299, 6.700000000000001066 ) ;
#85 = LOCAL_TIME ( 16, 34, 34.00000000000000000, #342 ) ;
#86 = DIRECTION ( 'NONE',  ( 0.000000000000000000, 0.000000000000000000, 1.000000000000000000 ) ) ;
#87 = EDGE_CURVE ( 'NONE', #174, #301, #220, .T. ) ;
#88 = PERSON_AND_ORGANIZATION ( #236, #97 ) ;
#89 = CARTESIAN_POINT ( 'NONE',  ( 4.099999999999999645, 5.021051876504147385E-16, 257.0000000000000000 ) ) ;
#90 = PERSON_AND_ORGANIZATION_ROLE ( 'design_owner' ) ;
#91 = APPROVAL_PERSON_ORGANIZATION ( #379, #273, #233 ) ;
#92 = CARTESIAN_POINT ( 'NONE',  ( -4.099999999999999645, 0.000000000000000000, 0.000000000000000000 ) ) ;
#93 = ADVANCED_FACE ( 'NONE', ( #7 ), #240, .F. ) ;
#94 = CARTESIAN_POINT ( 'NONE',  ( 0.000000000000000000, 0.000000000000000000, 7.700000000000012612 ) ) ;
#95 = PRODUCT ( '4a18', '4a18', '', ( #316 ) ) ;
#96 = VECTOR ( 'NONE', #280, 1000.000000000000000 ) ;
#97 = ORGANIZATION ( 'NEURÈENÝ', 'NEURÈENÝ', '' ) ;
#98 = EDGE_CURVE ( 'NONE', #17, #174, #177, .T. ) ;
#99 = DIRECTION ( 'NONE',  ( -0.000000000000000000, -0.000000000000000000, -1.000000000000000000 ) ) ;
#100 = ORIENTED_EDGE ( 'NONE', *, *, #347, .T. ) ;
#101 = FACE_OUTER_BOUND ( 'NONE', #152, .T. ) ;
#102 = DIRECTION ( 'NONE',  ( 0.000000000000000000, 0.000000000000000000, 1.000000000000000000 ) ) ;
#103 = PRODUCT_DEFINITION_FORMATION_WITH_SPECIFIED_SOURCE ( 'LIBOVOLNÝ', '', #95, .NOT_KNOWN. ) ;
#104 = CARTESIAN_POINT ( 'NONE',  ( 0.000000000000000000, 0.000000000000000000, 0.000000000000000000 ) ) ;
#105 = EDGE_CURVE ( 'NONE', #372, #360, #186, .T. ) ;
#106 = DIRECTION ( 'NONE',  ( -1.000000000000000000, 0.000000000000000000, 0.000000000000000000 ) ) ;
#107 = ORIENTED_EDGE ( 'NONE', *, *, #222, .T. ) ;
#108 = FACE_OUTER_BOUND ( 'NONE', #276, .T. ) ;
#109 = VERTEX_POINT ( 'NONE', #241 ) ;
#110 = CARTESIAN_POINT ( 'NONE',  ( -10.00000000000000000, 0.000000000000000000, 0.000000000000000000 ) ) ;
#111 = ORIENTED_EDGE ( 'NONE', *, *, #195, .F. ) ;
#112 = VERTEX_POINT ( 'NONE', #92 ) ;
#113 = PERSON_AND_ORGANIZATION_ROLE ( 'design_supplier' ) ;
#114 = ADVANCED_FACE ( 'NONE', ( #179, #1 ), #356, .T. ) ;
#115 = CARTESIAN_POINT ( 'NONE',  ( -6.700000000000001066, 8.205133554287267548E-16, 7.700000000000012612 ) ) ;
#116 = VECTOR ( 'NONE', #243, 1000.000000000000000 ) ;
#117 = APPROVAL_DATE_TIME ( #26, #273 ) ;
#118 = DIRECTION ( 'NONE',  ( 0.000000000000000000, 0.000000000000000000, 1.000000000000000000 ) ) ;
#119 = ORIENTED_EDGE ( 'NONE', *, *, #261, .T. ) ;
#120 = APPROVAL_STATUS ( 'not_yet_approved' ) ;
#121 = DIRECTION ( 'NONE',  ( 0.000000000000000000, -1.000000000000000000, 0.000000000000000000 ) ) ;
#122 = CC_DESIGN_PERSON_AND_ORGANIZATION_ASSIGNMENT ( #2, #256, ( #103 ) ) ;
#123 = AXIS2_PLACEMENT_3D ( 'NONE', #262, #322, #31 ) ;
#124 = APPROVAL_PERSON_ORGANIZATION ( #377, #304, #295 ) ;
#125 = CARTESIAN_POINT ( 'NONE',  ( 6.700000000000001066, 0.000000000000000000, 7.700000000000012612 ) ) ;
#126 = CARTESIAN_POINT ( 'NONE',  ( 0.000000000000000000, 0.000000000000000000, 7.000000000000000000 ) ) ;
#127 = DIRECTION ( 'NONE',  ( 0.000000000000000000, 0.000000000000000000, 1.000000000000000000 ) ) ;
#128 = EDGE_LOOP ( 'NONE', ( #134, #254, #311, #80 ) ) ;
#129 = EDGE_CURVE ( 'NONE', #112, #137, #336, .T. ) ;
#130 = DESIGN_CONTEXT ( 'detailed design', #306, 'design' ) ;
#131 = AXIS2_PLACEMENT_3D ( 'NONE', #19, #78, #14 ) ;
#132 = ORIENTED_EDGE ( 'NONE', *, *, #321, .F. ) ;
#133 = AXIS2_PLACEMENT_3D ( 'NONE', #28, #211, #320 ) ;
#134 = ORIENTED_EDGE ( 'NONE', *, *, #347, .F. ) ;
#135 = EDGE_LOOP ( 'NONE', ( #245, #279 ) ) ;
#136 = FACE_BOUND ( 'NONE', #4, .T. ) ;
#137 = VERTEX_POINT ( 'NONE', #184 ) ;
#138 = LOCAL_TIME ( 16, 34, 34.00000000000000000, #373 ) ;
#139 = PERSON_AND_ORGANIZATION ( #236, #97 ) ;
#140 = ORIENTED_EDGE ( 'NONE', *, *, #357, .T. ) ;
#141 = CALENDAR_DATE ( 2022, 8, 7 ) ;
#142 = FACE_OUTER_BOUND ( 'NONE', #194, .T. ) ;
#143 = DATE_AND_TIME ( #175, #85 ) ;
#144 = DIRECTION ( 'NONE',  ( 0.000000000000000000, 0.000000000000000000, 1.000000000000000000 ) ) ;
#145 = CARTESIAN_POINT ( 'NONE',  ( -6.000000000000000888, 0.000000000000000000, 257.0000000000000000 ) ) ;
#146 = AXIS2_PLACEMENT_3D ( 'NONE', #317, #348, #58 ) ;
#147 = DIRECTION ( 'NONE',  ( -0.000000000000000000, -0.000000000000000000, -1.000000000000000000 ) ) ;
#148 = CARTESIAN_POINT ( 'NONE',  ( 0.000000000000000000, 0.000000000000000000, 7.000000000000000000 ) ) ;
#149 = EDGE_CURVE ( 'NONE', #48, #174, #21, .T. ) ;
#150 = CARTESIAN_POINT ( 'NONE',  ( 6.000000000000000888, 7.347880794884120722E-16, 7.700000000000012612 ) ) ;
#151 = CIRCLE ( 'NONE', #202, 10.00000000000000000 ) ;
#152 = EDGE_LOOP ( 'NONE', ( #230, #338, #375, #54 ) ) ;
#153 = DIRECTION ( 'NONE',  ( 1.000000000000000000, 0.000000000000000000, 0.000000000000000000 ) ) ;
#154 = DIRECTION ( 'NONE',  ( 0.000000000000000000, 0.000000000000000000, -1.000000000000000000 ) ) ;
#155 = ADVANCED_FACE ( 'NONE', ( #364 ), #303, .F. ) ;
#156 = CARTESIAN_POINT ( 'NONE',  ( 10.00000000000000000, 1.224646799147353256E-15, 7.000000000000000000 ) ) ;
#157 = FACE_OUTER_BOUND ( 'NONE', #284, .T. ) ;
#158 = CARTESIAN_POINT ( 'NONE',  ( 0.000000000000000000, 0.000000000000000000, 257.0000000000000000 ) ) ;
#159 = CARTESIAN_POINT ( 'NONE',  ( 0.000000000000000000, 0.000000000000000000, 257.0000000000000000 ) ) ;
#160 = VERTEX_POINT ( 'NONE', #217 ) ;
#161 = LOCAL_TIME ( 16, 34, 34.00000000000000000, #231 ) ;
#162 = DIRECTION ( 'NONE',  ( -1.000000000000000000, 0.000000000000000000, 0.000000000000000000 ) ) ;
#163 = ADVANCED_FACE ( 'NONE', ( #328, #157 ), #38, .T. ) ;
#164 = FACE_OUTER_BOUND ( 'NONE', #197, .T. ) ;
#165 = CIRCLE ( 'NONE', #292, 6.000000000000000888 ) ;
#166 = ORIENTED_EDGE ( 'NONE', *, *, #261, .F. ) ;
#167 = EDGE_CURVE ( 'NONE', #109, #301, #180, .T. ) ;
#168 =( NAMED_UNIT ( * ) SI_UNIT ( $, .STERADIAN. ) SOLID_ANGLE_UNIT ( ) );
#169 = ORIENTED_EDGE ( 'NONE', *, *, #105, .T. ) ;
#170 =( LENGTH_UNIT ( ) NAMED_UNIT ( * ) SI_UNIT ( .MILLI., .METRE. ) );
#171 = DIRECTION ( 'NONE',  ( 1.000000000000000000, 0.000000000000000000, 0.000000000000000000 ) ) ;
#172 = ORIENTED_EDGE ( 'NONE', *, *, #222, .F. ) ;
#173 = AXIS2_PLACEMENT_3D ( 'NONE', #51, #281, #237 ) ;
#174 = VERTEX_POINT ( 'NONE', #189 ) ;
#175 = CALENDAR_DATE ( 2022, 8, 7 ) ;
#176 = CALENDAR_DATE ( 2022, 8, 7 ) ;
#177 = LINE ( 'NONE', #33, #359 ) ;
#178 = SECURITY_CLASSIFICATION_LEVEL ( 'unclassified' ) ;
#179 = FACE_BOUND ( 'NONE', #135, .T. ) ;
#180 = CIRCLE ( 'NONE', #196, 6.700000000000001066 ) ;
#181 = AXIS2_PLACEMENT_3D ( 'NONE', #45, #32, #291 ) ;
#182 = CARTESIAN_POINT ( 'NONE',  ( -4.099999999999999645, 0.000000000000000000, 257.0000000000000000 ) ) ;
#183 = ORIENTED_EDGE ( 'NONE', *, *, #105, .F. ) ;
#184 = CARTESIAN_POINT ( 'NONE',  ( 4.099999999999999645, 5.021051876504147385E-16, 0.000000000000000000 ) ) ;
#185 = ORIENTED_EDGE ( 'NONE', *, *, #98, .T. ) ;
#186 = CIRCLE ( 'NONE', #133, 10.00000000000000000 ) ;
#187 = MANIFOLD_SOLID_BREP ( 'Odebrat vysunutím3', #275 ) ;
#188 = DIRECTION ( 'NONE',  ( 1.000000000000000000, 0.000000000000000000, 0.000000000000000000 ) ) ;
#189 = CARTESIAN_POINT ( 'NONE',  ( -6.000000000000000888, 0.000000000000000000, 7.700000000000012612 ) ) ;
#190 = CARTESIAN_POINT ( 'NONE',  ( 0.000000000000000000, 0.000000000000000000, 257.0000000000000000 ) ) ;
#191 = ADVANCED_FACE ( 'NONE', ( #101 ), #55, .F. ) ;
#192 = DIRECTION ( 'NONE',  ( -0.000000000000000000, -0.000000000000000000, -1.000000000000000000 ) ) ;
#193 = CARTESIAN_POINT ( 'NONE',  ( 0.000000000000000000, 0.000000000000000000, 257.0000000000000000 ) ) ;
#194 = EDGE_LOOP ( 'NONE', ( #216, #119, #140, #286 ) ) ;
#195 = EDGE_CURVE ( 'NONE', #198, #308, #151, .T. ) ;
#196 = AXIS2_PLACEMENT_3D ( 'NONE', #358, #99, #365 ) ;
#197 = EDGE_LOOP ( 'NONE', ( #183, #313 ) ) ;
#198 = VERTEX_POINT ( 'NONE', #79 ) ;
#199 = DIRECTION ( 'NONE',  ( 0.000000000000000000, 0.000000000000000000, 1.000000000000000000 ) ) ;
#200 = EDGE_LOOP ( 'NONE', ( #203, #100, #257, #13 ) ) ;
#201 = CC_DESIGN_PERSON_AND_ORGANIZATION_ASSIGNMENT ( #260, #90, ( #95 ) ) ;
#202 = AXIS2_PLACEMENT_3D ( 'NONE', #298, #337, #171 ) ;
#203 = ORIENTED_EDGE ( 'NONE', *, *, #289, .T. ) ;
#204 = AXIS2_PLACEMENT_3D ( 'NONE', #307, #16, #366 ) ;
#205 = CARTESIAN_POINT ( 'NONE',  ( 0.000000000000000000, 0.000000000000000000, 257.0000000000000000 ) ) ;
#206 = PRODUCT_DEFINITION_SHAPE ( 'NONE', 'NONE',  #59 ) ;
#207 = APPROVAL_DATE_TIME ( #258, #283 ) ;
#208 = CARTESIAN_POINT ( 'NONE',  ( 0.000000000000000000, 0.000000000000000000, 7.000000000000000000 ) ) ;
#209 = PRODUCT_RELATED_PRODUCT_CATEGORY ( 'detail', '', ( #95 ) ) ;
#210 = PERSON_AND_ORGANIZATION_ROLE ( 'classification_officer' ) ;
#211 = DIRECTION ( 'NONE',  ( 0.000000000000000000, 0.000000000000000000, 1.000000000000000000 ) ) ;
#212 = AXIS2_PLACEMENT_3D ( 'NONE', #205, #350, #355 ) ;
#213 = APPLICATION_PROTOCOL_DEFINITION ( 'international standard', 'config_control_design', 1994, #306 ) ;
#214 = DIRECTION ( 'NONE',  ( 0.000000000000000000, 0.000000000000000000, -1.000000000000000000 ) ) ;
#215 = CIRCLE ( 'NONE', #49, 10.00000000000000000 ) ;
#216 = ORIENTED_EDGE ( 'NONE', *, *, #326, .F. ) ;
#217 = CARTESIAN_POINT ( 'NONE',  ( 6.000000000000000888, 7.347880794884120722E-16, 257.0000000000000000 ) ) ;
#218 = ORIENTED_EDGE ( 'NONE', *, *, #65, .F. ) ;
#219 = CC_DESIGN_PERSON_AND_ORGANIZATION_ASSIGNMENT ( #349, #113, ( #103 ) ) ;
#220 = CIRCLE ( 'NONE', #43, 0.7000000000000000666 ) ;
#221 = CYLINDRICAL_SURFACE ( 'NONE', #131, 6.000000000000000888 ) ;
#222 = EDGE_CURVE ( 'NONE', #160, #17, #380, .T. ) ;
#223 = VERTEX_POINT ( 'NONE', #363 ) ;
#224 = LINE ( 'NONE', #249, #96 ) ;
#225 = AXIS2_PLACEMENT_3D ( 'NONE', #94, #86, #323 ) ;
#226 = ORIENTED_EDGE ( 'NONE', *, *, #149, .T. ) ;
#227 =( NAMED_UNIT ( * ) PLANE_ANGLE_UNIT ( ) SI_UNIT ( $, .RADIAN. ) );
#228 = EDGE_LOOP ( 'NONE', ( #69, #343 ) ) ;
#229 = APPROVAL_DATE_TIME ( #56, #304 ) ;
#230 = ORIENTED_EDGE ( 'NONE', *, *, #87, .F. ) ;
#231 = COORDINATED_UNIVERSAL_TIME_OFFSET ( 1, 0, .AHEAD. ) ;
#232 = AXIS2_PLACEMENT_3D ( 'NONE', #208, #265, #25 ) ;
#233 = APPROVAL_ROLE ( '' ) ;
#234 = LINE ( 'NONE', #290, #6 ) ;
#235 = CC_DESIGN_PERSON_AND_ORGANIZATION_ASSIGNMENT ( #139, #210, ( #263 ) ) ;
#236 = PERSON ( 'NEURÈENÝ', 'NEURÈENÝ', 'NEURÈENÝ', ('NEURÈENÝ'), ('NEURÈENÝ'), ('NEURÈENÝ') ) ;
#237 = DIRECTION ( 'NONE',  ( -1.000000000000000000, 0.000000000000000000, 0.000000000000000000 ) ) ;
#238 = DATE_TIME_ROLE ( 'classification_date' ) ;
#239 = AXIS2_PLACEMENT_3D ( 'NONE', #148, #296, #267 ) ;
#240 = TOROIDAL_SURFACE ( 'NONE', #146, 6.700000000000001066, 0.6999999999999999556 ) ;
#241 = CARTESIAN_POINT ( 'NONE',  ( 6.700000000000001066, 0.000000000000000000, 7.000000000000006217 ) ) ;
#242 = CC_DESIGN_PERSON_AND_ORGANIZATION_ASSIGNMENT ( #88, #285, ( #59 ) ) ;
#243 = DIRECTION ( 'NONE',  ( -0.000000000000000000, -0.000000000000000000, -1.000000000000000000 ) ) ;
#244 = CC_DESIGN_DATE_AND_TIME_ASSIGNMENT ( #266, #238, ( #263 ) ) ;
#245 = ORIENTED_EDGE ( 'NONE', *, *, #167, .T. ) ;
#246 = AXIS2_PLACEMENT_3D ( 'NONE', #27, #144, #153 ) ;
#247 = PLANE ( 'NONE',  #269 ) ;
#248 = AXIS2_PLACEMENT_3D ( 'NONE', #312, #192, #106 ) ;
#249 = CARTESIAN_POINT ( 'NONE',  ( 4.099999999999999645, 5.021051876504147385E-16, 257.0000000000000000 ) ) ;
#250 = ORIENTED_EDGE ( 'NONE', *, *, #68, .F. ) ;
#251 = DIRECTION ( 'NONE',  ( 1.000000000000000000, 0.000000000000000000, 0.000000000000000000 ) ) ;
#252 = ORIENTED_EDGE ( 'NONE', *, *, #87, .T. ) ;
#253 = AXIS2_PLACEMENT_3D ( 'NONE', #268, #118, #378 ) ;
#254 = ORIENTED_EDGE ( 'NONE', *, *, #367, .T. ) ;
#255 = EDGE_CURVE ( 'NONE', #301, #109, #84, .T. ) ;
#256 = PERSON_AND_ORGANIZATION_ROLE ( 'creator' ) ;
#257 = ORIENTED_EDGE ( 'NONE', *, *, #65, .T. ) ;
#258 = DATE_AND_TIME ( #141, #314 ) ;
#259 = DIRECTION ( 'NONE',  ( 0.000000000000000000, 0.000000000000000000, -1.000000000000000000 ) ) ;
#260 = PERSON_AND_ORGANIZATION ( #236, #97 ) ;
#261 = EDGE_CURVE ( 'NONE', #308, #360, #39, .T. ) ;
#262 = CARTESIAN_POINT ( 'NONE',  ( 0.000000000000000000, 0.000000000000000000, 0.000000000000000000 ) ) ;
#263 = SECURITY_CLASSIFICATION ( '', '', #178 ) ;
#264 = CALENDAR_DATE ( 2022, 8, 7 ) ;
#265 = DIRECTION ( 'NONE',  ( -0.000000000000000000, -0.000000000000000000, -1.000000000000000000 ) ) ;
#266 = DATE_AND_TIME ( #62, #161 ) ;
#267 = DIRECTION ( 'NONE',  ( 1.000000000000000000, 0.000000000000000000, -0.000000000000000000 ) ) ;
#268 = CARTESIAN_POINT ( 'NONE',  ( 0.000000000000000000, 0.000000000000000000, 7.700000000000012612 ) ) ;
#269 = AXIS2_PLACEMENT_3D ( 'NONE', #104, #102, #282 ) ;
#270 = CC_DESIGN_DATE_AND_TIME_ASSIGNMENT ( #143, #22, ( #59 ) ) ;
#271 = CARTESIAN_POINT ( 'NONE',  ( 0.000000000000000000, 0.000000000000000000, 7.000000000000000000 ) ) ;
#272 = DIRECTION ( 'NONE',  ( 1.000000000000000000, 0.000000000000000000, 0.000000000000000000 ) ) ;
#273 = APPROVAL ( #344, 'NEURÈENÝ' ) ;
#274 = DIRECTION ( 'NONE',  ( 0.000000000000000000, 0.000000000000000000, 1.000000000000000000 ) ) ;
#275 = CLOSED_SHELL ( 'NONE', ( #73, #93, #335, #30, #9, #114, #353, #376, #163, #191, #155 ) ) ;
#276 = EDGE_LOOP ( 'NONE', ( #172, #20, #226, #81 ) ) ;
#277 = CC_DESIGN_APPROVAL ( #304, ( #59 ) ) ;
#278 = AXIS2_PLACEMENT_3D ( 'NONE', #8, #154, #162 ) ;
#279 = ORIENTED_EDGE ( 'NONE', *, *, #255, .T. ) ;
#280 = DIRECTION ( 'NONE',  ( 0.000000000000000000, 0.000000000000000000, -1.000000000000000000 ) ) ;
#281 = DIRECTION ( 'NONE',  ( -0.000000000000000000, -0.000000000000000000, -1.000000000000000000 ) ) ;
#282 = DIRECTION ( 'NONE',  ( 1.000000000000000000, 0.000000000000000000, -0.000000000000000000 ) ) ;
#283 = APPROVAL ( #287, 'NEURÈENÝ' ) ;
#284 = EDGE_LOOP ( 'NONE', ( #40, #107 ) ) ;
#285 = PERSON_AND_ORGANIZATION_ROLE ( 'creator' ) ;
#286 = ORIENTED_EDGE ( 'NONE', *, *, #42, .F. ) ;
#287 = APPROVAL_STATUS ( 'not_yet_approved' ) ;
#288 = DIRECTION ( 'NONE',  ( -0.000000000000000000, -0.000000000000000000, -1.000000000000000000 ) ) ;
#289 = EDGE_CURVE ( 'NONE', #223, #18, #345, .T. ) ;
#290 = CARTESIAN_POINT ( 'NONE',  ( -10.00000000000000000, 0.000000000000000000, 7.000000000000000000 ) ) ;
#291 = DIRECTION ( 'NONE',  ( 1.000000000000000000, 0.000000000000000000, 0.000000000000000000 ) ) ;
#292 = AXIS2_PLACEMENT_3D ( 'NONE', #158, #41, #44 ) ;
#293 = CYLINDRICAL_SURFACE ( 'NONE', #212, 4.099999999999999645 ) ;
#294 = CC_DESIGN_APPROVAL ( #273, ( #263 ) ) ;
#295 = APPROVAL_ROLE ( '' ) ;
#296 = DIRECTION ( 'NONE',  ( 0.000000000000000000, 0.000000000000000000, 1.000000000000000000 ) ) ;
#297 = CARTESIAN_POINT ( 'NONE',  ( 0.000000000000000000, 0.000000000000000000, 0.000000000000000000 ) ) ;
#298 = CARTESIAN_POINT ( 'NONE',  ( 0.000000000000000000, 0.000000000000000000, 7.000000000000000000 ) ) ;
#299 = AXIS2_PLACEMENT_3D ( 'NONE', #126, #324, #272 ) ;
#300 =( GEOMETRIC_REPRESENTATION_CONTEXT ( 3 ) GLOBAL_UNCERTAINTY_ASSIGNED_CONTEXT ( ( #341 ) ) GLOBAL_UNIT_ASSIGNED_CONTEXT ( ( #170, #227, #168 ) ) REPRESENTATION_CONTEXT ( 'NONE', 'WORKASPACE' ) );
#301 = VERTEX_POINT ( 'NONE', #302 ) ;
#302 = CARTESIAN_POINT ( 'NONE',  ( -6.700000000000001066, 8.205133554287267548E-16, 7.000000000000006217 ) ) ;
#303 = CYLINDRICAL_SURFACE ( 'NONE', #278, 4.099999999999999645 ) ;
#304 = APPROVAL ( #120, 'NEURÈENÝ' ) ;
#305 = AXIS2_PLACEMENT_3D ( 'NONE', #297, #5, #64 ) ;
#306 = APPLICATION_CONTEXT ( 'configuration controlled 3d designs of mechanical parts and assemblies' ) ;
#307 = CARTESIAN_POINT ( 'NONE',  ( 0.000000000000000000, 0.000000000000000000, 0.000000000000000000 ) ) ;
#308 = VERTEX_POINT ( 'NONE', #156 ) ;
#309 = VECTOR ( 'NONE', #288, 1000.000000000000000 ) ;
#310 = CYLINDRICAL_SURFACE ( 'NONE', #173, 10.00000000000000000 ) ;
#311 = ORIENTED_EDGE ( 'NONE', *, *, #46, .T. ) ;
#312 = CARTESIAN_POINT ( 'NONE',  ( 0.000000000000000000, 0.000000000000000000, 257.0000000000000000 ) ) ;
#313 = ORIENTED_EDGE ( 'NONE', *, *, #357, .F. ) ;
#314 = LOCAL_TIME ( 16, 34, 34.00000000000000000, #60 ) ;
#315 = DIRECTION ( 'NONE',  ( -1.000000000000000000, 1.224646799147353454E-16, 0.000000000000000000 ) ) ;
#316 = MECHANICAL_CONTEXT ( 'NONE', #374, 'mechanical' ) ;
#317 = CARTESIAN_POINT ( 'NONE',  ( 0.000000000000000000, 0.000000000000000000, 7.700000000000012612 ) ) ;
#318 = CYLINDRICAL_SURFACE ( 'NONE', #232, 10.00000000000000000 ) ;
#319 = VECTOR ( 'NONE', #259, 1000.000000000000000 ) ;
#320 = DIRECTION ( 'NONE',  ( 1.000000000000000000, 0.000000000000000000, 0.000000000000000000 ) ) ;
#321 = EDGE_CURVE ( 'NONE', #17, #160, #165, .T. ) ;
#322 = DIRECTION ( 'NONE',  ( -0.000000000000000000, -0.000000000000000000, -1.000000000000000000 ) ) ;
#323 = DIRECTION ( 'NONE',  ( 1.000000000000000000, 0.000000000000000000, 0.000000000000000000 ) ) ;
#324 = DIRECTION ( 'NONE',  ( -0.000000000000000000, -0.000000000000000000, -1.000000000000000000 ) ) ;
#325 = AXIS2_PLACEMENT_3D ( 'NONE', #190, #66, #188 ) ;
#326 = EDGE_CURVE ( 'NONE', #308, #198, #215, .T. ) ;
#327 = ORIENTED_EDGE ( 'NONE', *, *, #326, .T. ) ;
#328 = FACE_BOUND ( 'NONE', #228, .T. ) ;
#329 = EDGE_LOOP ( 'NONE', ( #330, #132, #185, #83 ) ) ;
#330 = ORIENTED_EDGE ( 'NONE', *, *, #15, .F. ) ;
#331 = CIRCLE ( 'NONE', #253, 6.000000000000000888 ) ;
#332 = LOCAL_TIME ( 16, 34, 34.00000000000000000, #29 ) ;
#333 = FACE_OUTER_BOUND ( 'NONE', #329, .T. ) ;
#334 = EDGE_LOOP ( 'NONE', ( #250, #252, #23, #368 ) ) ;
#335 = ADVANCED_FACE ( 'NONE', ( #108 ), #221, .T. ) ;
#336 = CIRCLE ( 'NONE', #305, 4.099999999999999645 ) ;
#337 = DIRECTION ( 'NONE',  ( 0.000000000000000000, 0.000000000000000000, 1.000000000000000000 ) ) ;
#338 = ORIENTED_EDGE ( 'NONE', *, *, #149, .F. ) ;
#339 = APPLICATION_PROTOCOL_DEFINITION ( 'international standard', 'config_control_design', 1994, #374 ) ;
#340 = EDGE_LOOP ( 'NONE', ( #166, #111, #52, #169 ) ) ;
#341 = UNCERTAINTY_MEASURE_WITH_UNIT (LENGTH_MEASURE( 1.000000000000000082E-05 ), #170, 'distance_accuracy_value', 'NONE');
#342 = COORDINATED_UNIVERSAL_TIME_OFFSET ( 1, 0, .AHEAD. ) ;
#343 = ORIENTED_EDGE ( 'NONE', *, *, #367, .F. ) ;
#344 = APPROVAL_STATUS ( 'not_yet_approved' ) ;
#345 = CIRCLE ( 'NONE', #325, 4.099999999999999645 ) ;
#346 = APPROVAL_PERSON_ORGANIZATION ( #82, #283, #24 ) ;
#347 = EDGE_CURVE ( 'NONE', #18, #137, #224, .T. ) ;
#348 = DIRECTION ( 'NONE',  ( 0.000000000000000000, 0.000000000000000000, 1.000000000000000000 ) ) ;
#349 = PERSON_AND_ORGANIZATION ( #236, #97 ) ;
#350 = DIRECTION ( 'NONE',  ( 0.000000000000000000, 0.000000000000000000, -1.000000000000000000 ) ) ;
#351 = SHAPE_DEFINITION_REPRESENTATION ( #206, #361 ) ;
#352 = DIRECTION ( 'NONE',  ( -0.000000000000000000, -0.000000000000000000, -1.000000000000000000 ) ) ;
#353 = ADVANCED_FACE ( 'NONE', ( #136, #164 ), #247, .F. ) ;
#354 = AXIS2_PLACEMENT_3D ( 'NONE', #36, #127, #251 ) ;
#355 = DIRECTION ( 'NONE',  ( -1.000000000000000000, 0.000000000000000000, 0.000000000000000000 ) ) ;
#356 = PLANE ( 'NONE',  #239 ) ;
#357 = EDGE_CURVE ( 'NONE', #360, #372, #381, .T. ) ;
#358 = CARTESIAN_POINT ( 'NONE',  ( 0.000000000000000000, 0.000000000000000000, 7.000000000000000000 ) ) ;
#359 = VECTOR ( 'NONE', #147, 1000.000000000000000 ) ;
#360 = VERTEX_POINT ( 'NONE', #371 ) ;
#361 = ADVANCED_BREP_SHAPE_REPRESENTATION ( '4a18', ( #187, #181 ), #300 ) ;
#362 = ORIENTED_EDGE ( 'NONE', *, *, #195, .T. ) ;
#363 = CARTESIAN_POINT ( 'NONE',  ( -4.099999999999999645, 0.000000000000000000, 257.0000000000000000 ) ) ;
#364 = FACE_OUTER_BOUND ( 'NONE', #128, .T. ) ;
#365 = DIRECTION ( 'NONE',  ( 1.000000000000000000, 0.000000000000000000, 0.000000000000000000 ) ) ;
#366 = DIRECTION ( 'NONE',  ( 1.000000000000000000, 0.000000000000000000, 0.000000000000000000 ) ) ;
#367 = EDGE_CURVE ( 'NONE', #18, #223, #50, .T. ) ;
#368 = ORIENTED_EDGE ( 'NONE', *, *, #53, .F. ) ;
#369 = EDGE_LOOP ( 'NONE', ( #362, #327 ) ) ;
#370 = CIRCLE ( 'NONE', #123, 4.099999999999999645 ) ;
#371 = CARTESIAN_POINT ( 'NONE',  ( 10.00000000000000000, 1.224646799147353256E-15, 0.000000000000000000 ) ) ;
#372 = VERTEX_POINT ( 'NONE', #110 ) ;
#373 = COORDINATED_UNIVERSAL_TIME_OFFSET ( 1, 0, .AHEAD. ) ;
#374 = APPLICATION_CONTEXT ( 'configuration controlled 3d designs of mechanical parts and assemblies' ) ;
#375 = ORIENTED_EDGE ( 'NONE', *, *, #53, .T. ) ;
#376 = ADVANCED_FACE ( 'NONE', ( #333 ), #74, .T. ) ;
#377 = PERSON_AND_ORGANIZATION ( #236, #97 ) ;
#378 = DIRECTION ( 'NONE',  ( 1.000000000000000000, 0.000000000000000000, 0.000000000000000000 ) ) ;
#379 = PERSON_AND_ORGANIZATION ( #236, #97 ) ;
#380 = CIRCLE ( 'NONE', #246, 6.000000000000000888 ) ;
#381 = CIRCLE ( 'NONE', #204, 10.00000000000000000 ) ;
ENDSEC;
END-ISO-10303-21;
