ISO-10303-21;
HEADER;
FILE_DESCRIPTION (( 'STEP AP203' ),
    '1' );
FILE_NAME ('db05.STEP',
    '2022-07-08T15:05:08',
    ( '' ),
    ( '' ),
    'SwSTEP 2.0',
    'SolidWorks 2019',
    '' );
FILE_SCHEMA (( 'CONFIG_CONTROL_DESIGN' ));
ENDSEC;

DATA;
#1 = DIRECTION ( 'NONE',  ( 1.000000000000000000, 0.000000000000000000, 0.000000000000000000 ) ) ;
#2 = APPROVAL ( #110, 'NEURÈENÝ' ) ;
#3 = CARTESIAN_POINT ( 'NONE',  ( 5.000000000000000000, 6.123233995736766282E-16, 230.0000000000000000 ) ) ;
#4 =( GEOMETRIC_REPRESENTATION_CONTEXT ( 3 ) GLOBAL_UNCERTAINTY_ASSIGNED_CONTEXT ( ( #45 ) ) GLOBAL_UNIT_ASSIGNED_CONTEXT ( ( #254, #104, #201 ) ) REPRESENTATION_CONTEXT ( 'NONE', 'WORKASPACE' ) );
#5 = CARTESIAN_POINT ( 'NONE',  ( 0.000000000000000000, 0.000000000000000000, 0.000000000000000000 ) ) ;
#6 = APPLICATION_CONTEXT ( 'configuration controlled 3d designs of mechanical parts and assemblies' ) ;
#7 = DIRECTION ( 'NONE',  ( 1.000000000000000000, 0.000000000000000000, -0.000000000000000000 ) ) ;
#8 = ORIENTED_EDGE ( 'NONE', *, *, #184, .F. ) ;
#9 = EDGE_CURVE ( 'NONE', #50, #129, #366, .T. ) ;
#10 = APPROVAL_ROLE ( '' ) ;
#11 = SHAPE_DEFINITION_REPRESENTATION ( #56, #228 ) ;
#12 = VECTOR ( 'NONE', #90, 1000.000000000000000 ) ;
#13 = CARTESIAN_POINT ( 'NONE',  ( 0.000000000000000000, 0.000000000000000000, 230.0000000000000000 ) ) ;
#14 = FACE_OUTER_BOUND ( 'NONE', #314, .T. ) ;
#15 = PERSON_AND_ORGANIZATION ( #148, #220 ) ;
#16 = CARTESIAN_POINT ( 'NONE',  ( 0.000000000000000000, 0.000000000000000000, 230.0000000000000000 ) ) ;
#17 = ORIENTED_EDGE ( 'NONE', *, *, #99, .F. ) ;
#18 = PERSON_AND_ORGANIZATION ( #148, #220 ) ;
#19 = AXIS2_PLACEMENT_3D ( 'NONE', #117, #240, #358 ) ;
#20 = VERTEX_POINT ( 'NONE', #207 ) ;
#21 = DIRECTION ( 'NONE',  ( -0.000000000000000000, -0.000000000000000000, -1.000000000000000000 ) ) ;
#22 = ORIENTED_EDGE ( 'NONE', *, *, #362, .F. ) ;
#23 = APPROVAL ( #163, 'NEURÈENÝ' ) ;
#24 = PERSON_AND_ORGANIZATION ( #148, #220 ) ;
#25 = EDGE_LOOP ( 'NONE', ( #352, #154, #42, #303 ) ) ;
#26 = EDGE_LOOP ( 'NONE', ( #379, #348 ) ) ;
#27 = CIRCLE ( 'NONE', #279, 5.000000000000000000 ) ;
#28 = CARTESIAN_POINT ( 'NONE',  ( 0.000000000000000000, 0.000000000000000000, 0.000000000000000000 ) ) ;
#29 = AXIS2_PLACEMENT_3D ( 'NONE', #28, #299, #1 ) ;
#30 = CARTESIAN_POINT ( 'NONE',  ( 8.000000000000000000, 9.797174393178825657E-16, 5.000000000000000000 ) ) ;
#31 = AXIS2_PLACEMENT_3D ( 'NONE', #119, #215, #54 ) ;
#32 = CC_DESIGN_APPROVAL ( #126, ( #140 ) ) ;
#33 = CARTESIAN_POINT ( 'NONE',  ( 2.750000000000000000, 3.367778697655221012E-16, 230.0000000000000000 ) ) ;
#34 = CC_DESIGN_DATE_AND_TIME_ASSIGNMENT ( #368, #64, ( #357 ) ) ;
#35 = CARTESIAN_POINT ( 'NONE',  ( 0.000000000000000000, 0.000000000000000000, 5.500000000000005329 ) ) ;
#36 = FACE_OUTER_BOUND ( 'NONE', #52, .T. ) ;
#37 = LOCAL_TIME ( 17, 5, 8.000000000000000000, #304 ) ;
#38 = DIRECTION ( 'NONE',  ( 0.000000000000000000, 0.000000000000000000, 1.000000000000000000 ) ) ;
#39 = PERSON_AND_ORGANIZATION ( #148, #220 ) ;
#40 = CARTESIAN_POINT ( 'NONE',  ( -5.000000000000000000, 0.000000000000000000, 230.0000000000000000 ) ) ;
#41 = EDGE_CURVE ( 'NONE', #175, #141, #321, .T. ) ;
#42 = ORIENTED_EDGE ( 'NONE', *, *, #231, .T. ) ;
#43 = PERSON_AND_ORGANIZATION ( #148, #220 ) ;
#44 = CARTESIAN_POINT ( 'NONE',  ( -5.000000000000000000, 0.000000000000000000, 5.500000000000005329 ) ) ;
#45 = UNCERTAINTY_MEASURE_WITH_UNIT (LENGTH_MEASURE( 1.000000000000000082E-05 ), #254, 'distance_accuracy_value', 'NONE');
#46 = ORIENTED_EDGE ( 'NONE', *, *, #9, .F. ) ;
#47 = DIRECTION ( 'NONE',  ( 1.000000000000000000, 0.000000000000000000, 0.000000000000000000 ) ) ;
#48 = EDGE_CURVE ( 'NONE', #129, #50, #300, .T. ) ;
#49 = LOCAL_TIME ( 17, 5, 8.000000000000000000, #307 ) ;
#50 = VERTEX_POINT ( 'NONE', #325 ) ;
#51 = FACE_OUTER_BOUND ( 'NONE', #169, .T. ) ;
#52 = EDGE_LOOP ( 'NONE', ( #75, #192, #229, #136 ) ) ;
#53 = ORIENTED_EDGE ( 'NONE', *, *, #41, .F. ) ;
#54 = DIRECTION ( 'NONE',  ( 1.000000000000000000, 0.000000000000000000, -0.000000000000000000 ) ) ;
#55 = CARTESIAN_POINT ( 'NONE',  ( 0.000000000000000000, 0.000000000000000000, 230.0000000000000000 ) ) ;
#56 = PRODUCT_DEFINITION_SHAPE ( 'NONE', 'NONE',  #357 ) ;
#57 = AXIS2_PLACEMENT_3D ( 'NONE', #115, #118, #180 ) ;
#58 = CARTESIAN_POINT ( 'NONE',  ( 0.000000000000000000, 0.000000000000000000, 5.000000000000000000 ) ) ;
#59 = EDGE_CURVE ( 'NONE', #135, #190, #308, .T. ) ;
#60 = EDGE_LOOP ( 'NONE', ( #53, #209, #337, #257 ) ) ;
#61 = DIRECTION ( 'NONE',  ( -1.000000000000000000, 0.000000000000000000, 0.000000000000000000 ) ) ;
#62 = DIRECTION ( 'NONE',  ( 0.000000000000000000, 0.000000000000000000, 1.000000000000000000 ) ) ;
#63 = CARTESIAN_POINT ( 'NONE',  ( 0.000000000000000000, 0.000000000000000000, 5.000000000000000000 ) ) ;
#64 = DATE_TIME_ROLE ( 'creation_date' ) ;
#65 = VECTOR ( 'NONE', #369, 1000.000000000000000 ) ;
#66 = EDGE_CURVE ( 'NONE', #182, #175, #284, .T. ) ;
#67 = CARTESIAN_POINT ( 'NONE',  ( -8.000000000000000000, 0.000000000000000000, 5.000000000000000000 ) ) ;
#68 = DATE_AND_TIME ( #124, #271 ) ;
#69 = ORIENTED_EDGE ( 'NONE', *, *, #41, .T. ) ;
#70 = DIRECTION ( 'NONE',  ( -0.000000000000000000, -0.000000000000000000, -1.000000000000000000 ) ) ;
#71 = APPROVAL_PERSON_ORGANIZATION ( #290, #2, #208 ) ;
#72 = DIRECTION ( 'NONE',  ( -0.000000000000000000, -0.000000000000000000, -1.000000000000000000 ) ) ;
#73 = EDGE_LOOP ( 'NONE', ( #377, #310 ) ) ;
#74 = PERSON_AND_ORGANIZATION_ROLE ( 'creator' ) ;
#75 = ORIENTED_EDGE ( 'NONE', *, *, #206, .F. ) ;
#76 = DIRECTION ( 'NONE',  ( 0.000000000000000000, 0.000000000000000000, 1.000000000000000000 ) ) ;
#77 = CLOSED_SHELL ( 'NONE', ( #367, #86, #147, #82, #344, #295, #172, #113, #267, #326, #306 ) ) ;
#78 = DIRECTION ( 'NONE',  ( -1.000000000000000000, 0.000000000000000000, 0.000000000000000000 ) ) ;
#79 = DIRECTION ( 'NONE',  ( 1.000000000000000000, 0.000000000000000000, 0.000000000000000000 ) ) ;
#80 = MECHANICAL_CONTEXT ( 'NONE', #6, 'mechanical' ) ;
#81 = ORIENTED_EDGE ( 'NONE', *, *, #48, .F. ) ;
#82 = ADVANCED_FACE ( 'NONE', ( #361 ), #89, .T. ) ;
#83 = DIRECTION ( 'NONE',  ( 1.224646799147353207E-16, 1.000000000000000000, -0.000000000000000000 ) ) ;
#84 = AXIS2_PLACEMENT_3D ( 'NONE', #100, #305, #47 ) ;
#85 = CARTESIAN_POINT ( 'NONE',  ( 0.000000000000000000, 0.000000000000000000, 5.000000000000000000 ) ) ;
#86 = ADVANCED_FACE ( 'NONE', ( #185 ), #137, .F. ) ;
#87 = FACE_OUTER_BOUND ( 'NONE', #319, .T. ) ;
#88 = AXIS2_PLACEMENT_3D ( 'NONE', #146, #83, #266 ) ;
#89 = CYLINDRICAL_SURFACE ( 'NONE', #179, 8.000000000000000000 ) ;
#90 = DIRECTION ( 'NONE',  ( 0.000000000000000000, 0.000000000000000000, -1.000000000000000000 ) ) ;
#91 = DIRECTION ( 'NONE',  ( -1.000000000000000000, 0.000000000000000000, 0.000000000000000000 ) ) ;
#92 = EDGE_LOOP ( 'NONE', ( #81, #46 ) ) ;
#93 = APPROVAL_DATE_TIME ( #277, #126 ) ;
#94 = CC_DESIGN_APPROVAL ( #23, ( #255 ) ) ;
#95 = PLANE ( 'NONE',  #150 ) ;
#96 = ORIENTED_EDGE ( 'NONE', *, *, #177, .T. ) ;
#97 = APPLICATION_CONTEXT ( 'configuration controlled 3d designs of mechanical parts and assemblies' ) ;
#98 = COORDINATED_UNIVERSAL_TIME_OFFSET ( 1, 0, .AHEAD. ) ;
#99 = EDGE_CURVE ( 'NONE', #134, #235, #204, .T. ) ;
#100 = CARTESIAN_POINT ( 'NONE',  ( 0.000000000000000000, 0.000000000000000000, 0.000000000000000000 ) ) ;
#101 = CARTESIAN_POINT ( 'NONE',  ( 0.000000000000000000, 0.000000000000000000, 230.0000000000000000 ) ) ;
#102 = ORIENTED_EDGE ( 'NONE', *, *, #206, .T. ) ;
#103 = CIRCLE ( 'NONE', #349, 2.750000000000000000 ) ;
#104 =( NAMED_UNIT ( * ) PLANE_ANGLE_UNIT ( ) SI_UNIT ( $, .RADIAN. ) );
#105 = ORIENTED_EDGE ( 'NONE', *, *, #116, .F. ) ;
#106 = DIRECTION ( 'NONE',  ( 1.000000000000000000, 0.000000000000000000, 0.000000000000000000 ) ) ;
#107 = ORIENTED_EDGE ( 'NONE', *, *, #362, .T. ) ;
#108 = EDGE_CURVE ( 'NONE', #141, #20, #270, .T. ) ;
#109 = CARTESIAN_POINT ( 'NONE',  ( 0.000000000000000000, 0.000000000000000000, 0.000000000000000000 ) ) ;
#110 = APPROVAL_STATUS ( 'not_yet_approved' ) ;
#111 = AXIS2_PLACEMENT_3D ( 'NONE', #166, #21, #78 ) ;
#112 = ORIENTED_EDGE ( 'NONE', *, *, #59, .T. ) ;
#113 = ADVANCED_FACE ( 'NONE', ( #36 ), #298, .T. ) ;
#114 = ORIENTED_EDGE ( 'NONE', *, *, #251, .T. ) ;
#115 = CARTESIAN_POINT ( 'NONE',  ( 0.000000000000000000, 0.000000000000000000, 230.0000000000000000 ) ) ;
#116 = EDGE_CURVE ( 'NONE', #235, #134, #248, .T. ) ;
#117 = CARTESIAN_POINT ( 'NONE',  ( 5.500000000000000000, 0.000000000000000000, 5.500000000000005329 ) ) ;
#118 = DIRECTION ( 'NONE',  ( 0.000000000000000000, 0.000000000000000000, 1.000000000000000000 ) ) ;
#119 = CARTESIAN_POINT ( 'NONE',  ( 0.000000000000000000, 0.000000000000000000, 0.000000000000000000 ) ) ;
#120 = CIRCLE ( 'NONE', #311, 5.000000000000000000 ) ;
#121 = CARTESIAN_POINT ( 'NONE',  ( 8.000000000000000000, 9.797174393178825657E-16, 5.000000000000000000 ) ) ;
#122 = CC_DESIGN_PERSON_AND_ORGANIZATION_ASSIGNMENT ( #18, #74, ( #357 ) ) ;
#123 = FACE_OUTER_BOUND ( 'NONE', #60, .T. ) ;
#124 = CALENDAR_DATE ( 2022, 8, 7 ) ;
#125 = CARTESIAN_POINT ( 'NONE',  ( 0.000000000000000000, 0.000000000000000000, 5.000000000000000000 ) ) ;
#126 = APPROVAL ( #301, 'NEURÈENÝ' ) ;
#127 = AXIS2_PLACEMENT_3D ( 'NONE', #58, #313, #278 ) ;
#128 = LINE ( 'NONE', #161, #65 ) ;
#129 = VERTEX_POINT ( 'NONE', #264 ) ;
#130 = SECURITY_CLASSIFICATION_LEVEL ( 'unclassified' ) ;
#131 = CYLINDRICAL_SURFACE ( 'NONE', #243, 2.750000000000000000 ) ;
#132 = PERSON_AND_ORGANIZATION ( #148, #220 ) ;
#133 = AXIS2_PLACEMENT_3D ( 'NONE', #35, #149, #272 ) ;
#134 = VERTEX_POINT ( 'NONE', #297 ) ;
#135 = VERTEX_POINT ( 'NONE', #30 ) ;
#136 = ORIENTED_EDGE ( 'NONE', *, *, #116, .T. ) ;
#137 = TOROIDAL_SURFACE ( 'NONE', #195, 5.500000000000000000, 0.5000000000000000000 ) ;
#138 = VECTOR ( 'NONE', #70, 1000.000000000000000 ) ;
#139 = ORIENTED_EDGE ( 'NONE', *, *, #262, .T. ) ;
#140 = SECURITY_CLASSIFICATION ( '', '', #130 ) ;
#141 = VERTEX_POINT ( 'NONE', #145 ) ;
#142 = DIRECTION ( 'NONE',  ( -1.000000000000000000, 0.000000000000000000, 0.000000000000000000 ) ) ;
#143 = DIRECTION ( 'NONE',  ( -0.000000000000000000, -0.000000000000000000, -1.000000000000000000 ) ) ;
#144 = TOROIDAL_SURFACE ( 'NONE', #378, 5.500000000000000000, 0.5000000000000000000 ) ;
#145 = CARTESIAN_POINT ( 'NONE',  ( 2.750000000000000000, 3.367778697655221012E-16, 0.000000000000000000 ) ) ;
#146 = CARTESIAN_POINT ( 'NONE',  ( -5.500000000000000000, 6.735557395310442023E-16, 5.500000000000005329 ) ) ;
#147 = ADVANCED_FACE ( 'NONE', ( #87 ), #268, .T. ) ;
#148 = PERSON ( 'NEURÈENÝ', 'NEURÈENÝ', 'NEURÈENÝ', ('NEURÈENÝ'), ('NEURÈENÝ'), ('NEURÈENÝ') ) ;
#149 = DIRECTION ( 'NONE',  ( 0.000000000000000000, 0.000000000000000000, 1.000000000000000000 ) ) ;
#150 = AXIS2_PLACEMENT_3D ( 'NONE', #101, #250, #339 ) ;
#151 = CARTESIAN_POINT ( 'NONE',  ( -8.000000000000000000, 0.000000000000000000, 5.000000000000000000 ) ) ;
#152 = DATE_AND_TIME ( #247, #355 ) ;
#153 = LINE ( 'NONE', #338, #227 ) ;
#154 = ORIENTED_EDGE ( 'NONE', *, *, #335, .F. ) ;
#155 = EDGE_CURVE ( 'NONE', #235, #202, #340, .T. ) ;
#156 = PERSON_AND_ORGANIZATION ( #148, #220 ) ;
#157 = MANIFOLD_SOLID_BREP ( 'Odebrat vysunutím3', #77 ) ;
#158 = DIRECTION ( 'NONE',  ( 1.000000000000000000, 0.000000000000000000, 0.000000000000000000 ) ) ;
#159 = CALENDAR_DATE ( 2022, 8, 7 ) ;
#160 = AXIS2_PLACEMENT_3D ( 'NONE', #55, #178, #142 ) ;
#161 = CARTESIAN_POINT ( 'NONE',  ( -5.000000000000000000, 0.000000000000000000, 230.0000000000000000 ) ) ;
#162 = VERTEX_POINT ( 'NONE', #3 ) ;
#163 = APPROVAL_STATUS ( 'not_yet_approved' ) ;
#164 = FACE_BOUND ( 'NONE', #26, .T. ) ;
#165 = CALENDAR_DATE ( 2022, 8, 7 ) ;
#166 = CARTESIAN_POINT ( 'NONE',  ( 0.000000000000000000, 0.000000000000000000, 5.000000000000000000 ) ) ;
#167 = ORIENTED_EDGE ( 'NONE', *, *, #291, .F. ) ;
#168 = APPROVAL_PERSON_ORGANIZATION ( #39, #23, #280 ) ;
#169 = EDGE_LOOP ( 'NONE', ( #376, #69, #234, #167 ) ) ;
#170 = CYLINDRICAL_SURFACE ( 'NONE', #111, 8.000000000000000000 ) ;
#171 = EDGE_LOOP ( 'NONE', ( #198, #17, #96, #210 ) ) ;
#172 = ADVANCED_FACE ( 'NONE', ( #213, #381 ), #380, .F. ) ;
#173 = DIRECTION ( 'NONE',  ( 0.000000000000000000, 0.000000000000000000, -1.000000000000000000 ) ) ;
#174 = ORIENTED_EDGE ( 'NONE', *, *, #177, .F. ) ;
#175 = VERTEX_POINT ( 'NONE', #176 ) ;
#176 = CARTESIAN_POINT ( 'NONE',  ( 2.750000000000000000, 3.367778697655221012E-16, 230.0000000000000000 ) ) ;
#177 = EDGE_CURVE ( 'NONE', #134, #351, #354, .T. ) ;
#178 = DIRECTION ( 'NONE',  ( -0.000000000000000000, -0.000000000000000000, -1.000000000000000000 ) ) ;
#179 = AXIS2_PLACEMENT_3D ( 'NONE', #359, #183, #61 ) ;
#180 = DIRECTION ( 'NONE',  ( 1.000000000000000000, 0.000000000000000000, 0.000000000000000000 ) ) ;
#181 = AXIS2_PLACEMENT_3D ( 'NONE', #365, #302, #91 ) ;
#182 = VERTEX_POINT ( 'NONE', #328 ) ;
#183 = DIRECTION ( 'NONE',  ( -0.000000000000000000, -0.000000000000000000, -1.000000000000000000 ) ) ;
#184 = EDGE_CURVE ( 'NONE', #351, #202, #324, .T. ) ;
#185 = FACE_OUTER_BOUND ( 'NONE', #322, .T. ) ;
#186 = PLANE ( 'NONE',  #205 ) ;
#187 = COORDINATED_UNIVERSAL_TIME_OFFSET ( 1, 0, .AHEAD. ) ;
#188 = EDGE_CURVE ( 'NONE', #175, #182, #103, .T. ) ;
#189 = DIRECTION ( 'NONE',  ( 0.000000000000000000, 0.000000000000000000, 1.000000000000000000 ) ) ;
#190 = VERTEX_POINT ( 'NONE', #151 ) ;
#191 = DIRECTION ( 'NONE',  ( 0.000000000000000000, 0.000000000000000000, 1.000000000000000000 ) ) ;
#192 = ORIENTED_EDGE ( 'NONE', *, *, #251, .F. ) ;
#193 = APPROVAL_DATE_TIME ( #68, #2 ) ;
#194 = DIRECTION ( 'NONE',  ( -0.000000000000000000, -0.000000000000000000, -1.000000000000000000 ) ) ;
#195 = AXIS2_PLACEMENT_3D ( 'NONE', #269, #214, #239 ) ;
#196 = CALENDAR_DATE ( 2022, 8, 7 ) ;
#197 = CARTESIAN_POINT ( 'NONE',  ( 0.000000000000000000, 0.000000000000000000, 230.0000000000000000 ) ) ;
#198 = ORIENTED_EDGE ( 'NONE', *, *, #155, .F. ) ;
#199 = EDGE_CURVE ( 'NONE', #20, #141, #296, .T. ) ;
#200 = COORDINATED_UNIVERSAL_TIME_OFFSET ( 1, 0, .AHEAD. ) ;
#201 =( NAMED_UNIT ( * ) SI_UNIT ( $, .STERADIAN. ) SOLID_ANGLE_UNIT ( ) );
#202 = VERTEX_POINT ( 'NONE', #224 ) ;
#203 = ORIENTED_EDGE ( 'NONE', *, *, #9, .T. ) ;
#204 = CIRCLE ( 'NONE', #241, 5.000000000000000000 ) ;
#205 = AXIS2_PLACEMENT_3D ( 'NONE', #63, #38, #7 ) ;
#206 = EDGE_CURVE ( 'NONE', #162, #134, #153, .T. ) ;
#207 = CARTESIAN_POINT ( 'NONE',  ( -2.750000000000000000, 0.000000000000000000, 0.000000000000000000 ) ) ;
#208 = APPROVAL_ROLE ( '' ) ;
#209 = ORIENTED_EDGE ( 'NONE', *, *, #188, .T. ) ;
#210 = ORIENTED_EDGE ( 'NONE', *, *, #262, .F. ) ;
#211 = CC_DESIGN_PERSON_AND_ORGANIZATION_ASSIGNMENT ( #132, #223, ( #255 ) ) ;
#212 = DIRECTION ( 'NONE',  ( 0.000000000000000000, 0.000000000000000000, 1.000000000000000000 ) ) ;
#213 = FACE_BOUND ( 'NONE', #73, .T. ) ;
#214 = DIRECTION ( 'NONE',  ( 0.000000000000000000, 0.000000000000000000, 1.000000000000000000 ) ) ;
#215 = DIRECTION ( 'NONE',  ( 0.000000000000000000, 0.000000000000000000, 1.000000000000000000 ) ) ;
#216 = FACE_BOUND ( 'NONE', #373, .T. ) ;
#217 = APPROVAL_DATE_TIME ( #282, #23 ) ;
#218 = AXIS2_PLACEMENT_3D ( 'NONE', #109, #232, #79 ) ;
#219 = DESIGN_CONTEXT ( 'detailed design', #97, 'design' ) ;
#220 = ORGANIZATION ( 'NEURÈENÝ', 'NEURÈENÝ', '' ) ;
#221 = DIRECTION ( 'NONE',  ( 0.000000000000000000, 0.000000000000000000, 1.000000000000000000 ) ) ;
#222 = ORIENTED_EDGE ( 'NONE', *, *, #155, .T. ) ;
#223 = PERSON_AND_ORGANIZATION_ROLE ( 'creator' ) ;
#224 = CARTESIAN_POINT ( 'NONE',  ( -5.500000000000000000, 6.735557395310442023E-16, 5.000000000000002665 ) ) ;
#225 = EDGE_LOOP ( 'NONE', ( #289, #112 ) ) ;
#226 = CC_DESIGN_DATE_AND_TIME_ASSIGNMENT ( #152, #275, ( #140 ) ) ;
#227 = VECTOR ( 'NONE', #334, 1000.000000000000000 ) ;
#228 = ADVANCED_BREP_SHAPE_REPRESENTATION ( 'db05', ( #157, #292 ), #4 ) ;
#229 = ORIENTED_EDGE ( 'NONE', *, *, #246, .T. ) ;
#230 = ORIENTED_EDGE ( 'NONE', *, *, #59, .F. ) ;
#231 = EDGE_CURVE ( 'NONE', #190, #129, #283, .T. ) ;
#232 = DIRECTION ( 'NONE',  ( 0.000000000000000000, 0.000000000000000000, 1.000000000000000000 ) ) ;
#233 = AXIS2_PLACEMENT_3D ( 'NONE', #125, #191, #158 ) ;
#234 = ORIENTED_EDGE ( 'NONE', *, *, #108, .T. ) ;
#235 = VERTEX_POINT ( 'NONE', #44 ) ;
#236 = DIRECTION ( 'NONE',  ( 1.000000000000000000, 0.000000000000000000, 0.000000000000000000 ) ) ;
#237 = PRODUCT_RELATED_PRODUCT_CATEGORY ( 'detail', '', ( #360 ) ) ;
#238 = AXIS2_PLACEMENT_3D ( 'NONE', #85, #294, #236 ) ;
#239 = DIRECTION ( 'NONE',  ( 1.000000000000000000, 0.000000000000000000, 0.000000000000000000 ) ) ;
#240 = DIRECTION ( 'NONE',  ( 0.000000000000000000, -1.000000000000000000, 0.000000000000000000 ) ) ;
#241 = AXIS2_PLACEMENT_3D ( 'NONE', #331, #212, #330 ) ;
#242 = CARTESIAN_POINT ( 'NONE',  ( 0.000000000000000000, 0.000000000000000000, 230.0000000000000000 ) ) ;
#243 = AXIS2_PLACEMENT_3D ( 'NONE', #342, #173, #375 ) ;
#244 = LINE ( 'NONE', #363, #12 ) ;
#245 = CYLINDRICAL_SURFACE ( 'NONE', #181, 2.750000000000000000 ) ;
#246 = EDGE_CURVE ( 'NONE', #317, #235, #128, .T. ) ;
#247 = CALENDAR_DATE ( 2022, 8, 7 ) ;
#248 = CIRCLE ( 'NONE', #133, 5.000000000000000000 ) ;
#249 = CARTESIAN_POINT ( 'NONE',  ( 0.000000000000000000, 0.000000000000000000, 5.500000000000005329 ) ) ;
#250 = DIRECTION ( 'NONE',  ( 0.000000000000000000, 0.000000000000000000, 1.000000000000000000 ) ) ;
#251 = EDGE_CURVE ( 'NONE', #317, #162, #27, .T. ) ;
#252 = DIRECTION ( 'NONE',  ( 1.000000000000000000, 0.000000000000000000, 0.000000000000000000 ) ) ;
#253 = VECTOR ( 'NONE', #356, 1000.000000000000000 ) ;
#254 =( LENGTH_UNIT ( ) NAMED_UNIT ( * ) SI_UNIT ( .MILLI., .METRE. ) );
#255 = PRODUCT_DEFINITION_FORMATION_WITH_SPECIFIED_SOURCE ( 'LIBOVOLNÝ', '', #360, .NOT_KNOWN. ) ;
#256 = DIRECTION ( 'NONE',  ( 1.000000000000000000, 0.000000000000000000, 0.000000000000000000 ) ) ;
#257 = ORIENTED_EDGE ( 'NONE', *, *, #199, .T. ) ;
#258 = CC_DESIGN_PERSON_AND_ORGANIZATION_ASSIGNMENT ( #24, #345, ( #360 ) ) ;
#259 = CARTESIAN_POINT ( 'NONE',  ( 0.000000000000000000, 0.000000000000000000, 0.000000000000000000 ) ) ;
#260 = CARTESIAN_POINT ( 'NONE',  ( 5.500000000000000000, 0.000000000000000000, 5.000000000000002665 ) ) ;
#261 = CIRCLE ( 'NONE', #233, 8.000000000000000000 ) ;
#262 = EDGE_CURVE ( 'NONE', #202, #351, #320, .T. ) ;
#263 = ORIENTED_EDGE ( 'NONE', *, *, #231, .F. ) ;
#264 = CARTESIAN_POINT ( 'NONE',  ( -8.000000000000000000, 0.000000000000000000, 0.000000000000000000 ) ) ;
#265 = CC_DESIGN_SECURITY_CLASSIFICATION ( #140, ( #255 ) ) ;
#266 = DIRECTION ( 'NONE',  ( -1.000000000000000000, 1.224646799147351482E-16, 0.000000000000000000 ) ) ;
#267 = ADVANCED_FACE ( 'NONE', ( #164, #14 ), #95, .T. ) ;
#268 = CYLINDRICAL_SURFACE ( 'NONE', #341, 5.000000000000000000 ) ;
#269 = CARTESIAN_POINT ( 'NONE',  ( 0.000000000000000000, 0.000000000000000000, 5.500000000000005329 ) ) ;
#270 = CIRCLE ( 'NONE', #29, 2.750000000000000000 ) ;
#271 = LOCAL_TIME ( 17, 5, 8.000000000000000000, #98 ) ;
#272 = DIRECTION ( 'NONE',  ( 1.000000000000000000, 0.000000000000000000, 0.000000000000000000 ) ) ;
#273 = DIRECTION ( 'NONE',  ( 1.000000000000000000, 0.000000000000000000, 0.000000000000000000 ) ) ;
#274 = EDGE_CURVE ( 'NONE', #135, #50, #370, .T. ) ;
#275 = DATE_TIME_ROLE ( 'classification_date' ) ;
#276 = FACE_OUTER_BOUND ( 'NONE', #171, .T. ) ;
#277 = DATE_AND_TIME ( #159, #312 ) ;
#278 = DIRECTION ( 'NONE',  ( 1.000000000000000000, 0.000000000000000000, 0.000000000000000000 ) ) ;
#279 = AXIS2_PLACEMENT_3D ( 'NONE', #13, #189, #371 ) ;
#280 = APPROVAL_ROLE ( '' ) ;
#281 = DIRECTION ( 'NONE',  ( 0.000000000000000000, 0.000000000000000000, 1.000000000000000000 ) ) ;
#282 = DATE_AND_TIME ( #165, #49 ) ;
#283 = LINE ( 'NONE', #67, #138 ) ;
#284 = CIRCLE ( 'NONE', #57, 2.750000000000000000 ) ;
#285 = DIRECTION ( 'NONE',  ( 0.000000000000000000, 0.000000000000000000, 1.000000000000000000 ) ) ;
#286 = VECTOR ( 'NONE', #194, 1000.000000000000000 ) ;
#287 = APPROVAL_PERSON_ORGANIZATION ( #156, #126, #10 ) ;
#288 = FACE_OUTER_BOUND ( 'NONE', #25, .T. ) ;
#289 = ORIENTED_EDGE ( 'NONE', *, *, #335, .T. ) ;
#290 = PERSON_AND_ORGANIZATION ( #148, #220 ) ;
#291 = EDGE_CURVE ( 'NONE', #182, #20, #244, .T. ) ;
#292 = AXIS2_PLACEMENT_3D ( 'NONE', #259, #76, #256 ) ;
#293 = ORIENTED_EDGE ( 'NONE', *, *, #99, .T. ) ;
#294 = DIRECTION ( 'NONE',  ( 0.000000000000000000, 0.000000000000000000, 1.000000000000000000 ) ) ;
#295 = ADVANCED_FACE ( 'NONE', ( #216, #332 ), #186, .T. ) ;
#296 = CIRCLE ( 'NONE', #84, 2.750000000000000000 ) ;
#297 = CARTESIAN_POINT ( 'NONE',  ( 5.000000000000000000, 6.123233995736766282E-16, 5.500000000000005329 ) ) ;
#298 = CYLINDRICAL_SURFACE ( 'NONE', #160, 5.000000000000000000 ) ;
#299 = DIRECTION ( 'NONE',  ( -0.000000000000000000, -0.000000000000000000, -1.000000000000000000 ) ) ;
#300 = CIRCLE ( 'NONE', #318, 8.000000000000000000 ) ;
#301 = APPROVAL_STATUS ( 'not_yet_approved' ) ;
#302 = DIRECTION ( 'NONE',  ( 0.000000000000000000, 0.000000000000000000, -1.000000000000000000 ) ) ;
#303 = ORIENTED_EDGE ( 'NONE', *, *, #48, .T. ) ;
#304 = COORDINATED_UNIVERSAL_TIME_OFFSET ( 1, 0, .AHEAD. ) ;
#305 = DIRECTION ( 'NONE',  ( -0.000000000000000000, -0.000000000000000000, -1.000000000000000000 ) ) ;
#306 = ADVANCED_FACE ( 'NONE', ( #123 ), #245, .F. ) ;
#307 = COORDINATED_UNIVERSAL_TIME_OFFSET ( 1, 0, .AHEAD. ) ;
#308 = CIRCLE ( 'NONE', #238, 8.000000000000000000 ) ;
#309 = CARTESIAN_POINT ( 'NONE',  ( 0.000000000000000000, 0.000000000000000000, 5.000000000000000000 ) ) ;
#310 = ORIENTED_EDGE ( 'NONE', *, *, #108, .F. ) ;
#311 = AXIS2_PLACEMENT_3D ( 'NONE', #16, #285, #106 ) ;
#312 = LOCAL_TIME ( 17, 5, 8.000000000000000000, #200 ) ;
#313 = DIRECTION ( 'NONE',  ( -0.000000000000000000, -0.000000000000000000, -1.000000000000000000 ) ) ;
#314 = EDGE_LOOP ( 'NONE', ( #114, #107 ) ) ;
#315 = PERSON_AND_ORGANIZATION_ROLE ( 'classification_officer' ) ;
#316 = APPLICATION_PROTOCOL_DEFINITION ( 'international standard', 'config_control_design', 1994, #97 ) ;
#317 = VERTEX_POINT ( 'NONE', #40 ) ;
#318 = AXIS2_PLACEMENT_3D ( 'NONE', #5, #62, #327 ) ;
#319 = EDGE_LOOP ( 'NONE', ( #22, #102, #293, #374 ) ) ;
#320 = CIRCLE ( 'NONE', #329, 5.500000000000000000 ) ;
#321 = LINE ( 'NONE', #33, #253 ) ;
#322 = EDGE_LOOP ( 'NONE', ( #105, #222, #8, #174 ) ) ;
#323 = CC_DESIGN_PERSON_AND_ORGANIZATION_ASSIGNMENT ( #43, #315, ( #140 ) ) ;
#324 = CIRCLE ( 'NONE', #127, 5.500000000000000000 ) ;
#325 = CARTESIAN_POINT ( 'NONE',  ( 8.000000000000000000, 9.797174393178825657E-16, 0.000000000000000000 ) ) ;
#326 = ADVANCED_FACE ( 'NONE', ( #276 ), #144, .F. ) ;
#327 = DIRECTION ( 'NONE',  ( 1.000000000000000000, 0.000000000000000000, 0.000000000000000000 ) ) ;
#328 = CARTESIAN_POINT ( 'NONE',  ( -2.750000000000000000, 0.000000000000000000, 230.0000000000000000 ) ) ;
#329 = AXIS2_PLACEMENT_3D ( 'NONE', #309, #72, #273 ) ;
#330 = DIRECTION ( 'NONE',  ( 1.000000000000000000, 0.000000000000000000, 0.000000000000000000 ) ) ;
#331 = CARTESIAN_POINT ( 'NONE',  ( 0.000000000000000000, 0.000000000000000000, 5.500000000000005329 ) ) ;
#332 = FACE_OUTER_BOUND ( 'NONE', #225, .T. ) ;
#333 = CC_DESIGN_APPROVAL ( #2, ( #357 ) ) ;
#334 = DIRECTION ( 'NONE',  ( -0.000000000000000000, -0.000000000000000000, -1.000000000000000000 ) ) ;
#335 = EDGE_CURVE ( 'NONE', #190, #135, #261, .T. ) ;
#336 = DIRECTION ( 'NONE',  ( 1.000000000000000000, 0.000000000000000000, 0.000000000000000000 ) ) ;
#337 = ORIENTED_EDGE ( 'NONE', *, *, #291, .T. ) ;
#338 = CARTESIAN_POINT ( 'NONE',  ( 5.000000000000000000, 6.123233995736766282E-16, 230.0000000000000000 ) ) ;
#339 = DIRECTION ( 'NONE',  ( 1.000000000000000000, 0.000000000000000000, -0.000000000000000000 ) ) ;
#340 = CIRCLE ( 'NONE', #88, 0.5000000000000004441 ) ;
#341 = AXIS2_PLACEMENT_3D ( 'NONE', #242, #143, #353 ) ;
#342 = CARTESIAN_POINT ( 'NONE',  ( 0.000000000000000000, 0.000000000000000000, 230.0000000000000000 ) ) ;
#343 = EDGE_LOOP ( 'NONE', ( #230, #372, #203, #263 ) ) ;
#344 = ADVANCED_FACE ( 'NONE', ( #288 ), #170, .T. ) ;
#345 = PERSON_AND_ORGANIZATION_ROLE ( 'design_owner' ) ;
#346 = ORIENTED_EDGE ( 'NONE', *, *, #184, .T. ) ;
#347 = APPLICATION_PROTOCOL_DEFINITION ( 'international standard', 'config_control_design', 1994, #6 ) ;
#348 = ORIENTED_EDGE ( 'NONE', *, *, #188, .F. ) ;
#349 = AXIS2_PLACEMENT_3D ( 'NONE', #197, #281, #252 ) ;
#350 = CC_DESIGN_PERSON_AND_ORGANIZATION_ASSIGNMENT ( #15, #364, ( #255 ) ) ;
#351 = VERTEX_POINT ( 'NONE', #260 ) ;
#352 = ORIENTED_EDGE ( 'NONE', *, *, #274, .F. ) ;
#353 = DIRECTION ( 'NONE',  ( -1.000000000000000000, 0.000000000000000000, 0.000000000000000000 ) ) ;
#354 = CIRCLE ( 'NONE', #19, 0.5000000000000004441 ) ;
#355 = LOCAL_TIME ( 17, 5, 8.000000000000000000, #187 ) ;
#356 = DIRECTION ( 'NONE',  ( 0.000000000000000000, 0.000000000000000000, -1.000000000000000000 ) ) ;
#357 = PRODUCT_DEFINITION ( 'NEZNÁMÝ', '', #255, #219 ) ;
#358 = DIRECTION ( 'NONE',  ( 0.000000000000000000, 0.000000000000000000, -1.000000000000000000 ) ) ;
#359 = CARTESIAN_POINT ( 'NONE',  ( 0.000000000000000000, 0.000000000000000000, 5.000000000000000000 ) ) ;
#360 = PRODUCT ( 'db05', 'db05', '', ( #80 ) ) ;
#361 = FACE_OUTER_BOUND ( 'NONE', #343, .T. ) ;
#362 = EDGE_CURVE ( 'NONE', #162, #317, #120, .T. ) ;
#363 = CARTESIAN_POINT ( 'NONE',  ( -2.750000000000000000, 0.000000000000000000, 230.0000000000000000 ) ) ;
#364 = PERSON_AND_ORGANIZATION_ROLE ( 'design_supplier' ) ;
#365 = CARTESIAN_POINT ( 'NONE',  ( 0.000000000000000000, 0.000000000000000000, 230.0000000000000000 ) ) ;
#366 = CIRCLE ( 'NONE', #218, 8.000000000000000000 ) ;
#367 = ADVANCED_FACE ( 'NONE', ( #51 ), #131, .F. ) ;
#368 = DATE_AND_TIME ( #196, #37 ) ;
#369 = DIRECTION ( 'NONE',  ( -0.000000000000000000, -0.000000000000000000, -1.000000000000000000 ) ) ;
#370 = LINE ( 'NONE', #121, #286 ) ;
#371 = DIRECTION ( 'NONE',  ( 1.000000000000000000, 0.000000000000000000, 0.000000000000000000 ) ) ;
#372 = ORIENTED_EDGE ( 'NONE', *, *, #274, .T. ) ;
#373 = EDGE_LOOP ( 'NONE', ( #346, #139 ) ) ;
#374 = ORIENTED_EDGE ( 'NONE', *, *, #246, .F. ) ;
#375 = DIRECTION ( 'NONE',  ( -1.000000000000000000, 0.000000000000000000, 0.000000000000000000 ) ) ;
#376 = ORIENTED_EDGE ( 'NONE', *, *, #66, .T. ) ;
#377 = ORIENTED_EDGE ( 'NONE', *, *, #199, .F. ) ;
#378 = AXIS2_PLACEMENT_3D ( 'NONE', #249, #221, #336 ) ;
#379 = ORIENTED_EDGE ( 'NONE', *, *, #66, .F. ) ;
#380 = PLANE ( 'NONE',  #31 ) ;
#381 = FACE_OUTER_BOUND ( 'NONE', #92, .T. ) ;
ENDSEC;
END-ISO-10303-21;
