ISO-10303-21;
HEADER;
FILE_DESCRIPTION (( 'STEP AP203' ),
    '1' );
FILE_NAME ('aa2b.STEP',
    '2022-07-08T15:36:05',
    ( '' ),
    ( '' ),
    'SwSTEP 2.0',
    'SolidWorks 2019',
    '' );
FILE_SCHEMA (( 'CONFIG_CONTROL_DESIGN' ));
ENDSEC;

DATA;
#1 = DIRECTION ( 'NONE',  ( -0.000000000000000000, -0.000000000000000000, -1.000000000000000000 ) ) ;
#2 = VERTEX_POINT ( 'NONE', #110 ) ;
#3 = DIRECTION ( 'NONE',  ( 0.000000000000000000, 0.000000000000000000, 1.000000000000000000 ) ) ;
#4 = DIRECTION ( 'NONE',  ( 1.000000000000000000, 0.000000000000000000, 0.000000000000000000 ) ) ;
#5 = DIRECTION ( 'NONE',  ( -1.000000000000000000, 0.000000000000000000, 0.000000000000000000 ) ) ;
#6 = DATE_TIME_ROLE ( 'creation_date' ) ;
#7 = DIRECTION ( 'NONE',  ( 0.000000000000000000, 0.000000000000000000, 1.000000000000000000 ) ) ;
#8 = EDGE_CURVE ( 'NONE', #196, #162, #61, .T. ) ;
#9 = PERSON_AND_ORGANIZATION ( #380, #166 ) ;
#10 = DIRECTION ( 'NONE',  ( 1.000000000000000000, 0.000000000000000000, 0.000000000000000000 ) ) ;
#11 = AXIS2_PLACEMENT_3D ( 'NONE', #209, #37, #240 ) ;
#12 = DATE_AND_TIME ( #145, #230 ) ;
#13 = CIRCLE ( 'NONE', #334, 0.5000000000000004441 ) ;
#14 = ADVANCED_FACE ( 'NONE', ( #54 ), #356, .F. ) ;
#15 = CARTESIAN_POINT ( 'NONE',  ( 3.500000000000000444, 0.000000000000000000, 5.000000000000002665 ) ) ;
#16 = VERTEX_POINT ( 'NONE', #83 ) ;
#17 = PERSON_AND_ORGANIZATION_ROLE ( 'creator' ) ;
#18 = DIRECTION ( 'NONE',  ( 0.000000000000000000, -1.000000000000000000, 0.000000000000000000 ) ) ;
#19 = VERTEX_POINT ( 'NONE', #177 ) ;
#20 = AXIS2_PLACEMENT_3D ( 'NONE', #329, #184, #295 ) ;
#21 = DIRECTION ( 'NONE',  ( 0.000000000000000000, 0.000000000000000000, 1.000000000000000000 ) ) ;
#22 = FACE_OUTER_BOUND ( 'NONE', #287, .T. ) ;
#23 = ORIENTED_EDGE ( 'NONE', *, *, #8, .F. ) ;
#24 = ORIENTED_EDGE ( 'NONE', *, *, #292, .T. ) ;
#25 = DIRECTION ( 'NONE',  ( 1.000000000000000000, 0.000000000000000000, 0.000000000000000000 ) ) ;
#26 = EDGE_CURVE ( 'NONE', #307, #28, #171, .T. ) ;
#27 = CC_DESIGN_APPROVAL ( #267, ( #193 ) ) ;
#28 = VERTEX_POINT ( 'NONE', #327 ) ;
#29 = DIRECTION ( 'NONE',  ( -0.000000000000000000, -0.000000000000000000, -1.000000000000000000 ) ) ;
#30 = LINE ( 'NONE', #141, #142 ) ;
#31 =( NAMED_UNIT ( * ) SI_UNIT ( $, .STERADIAN. ) SOLID_ANGLE_UNIT ( ) );
#32 = AXIS2_PLACEMENT_3D ( 'NONE', #318, #197, #56 ) ;
#33 = DIRECTION ( 'NONE',  ( 0.000000000000000000, 0.000000000000000000, 1.000000000000000000 ) ) ;
#34 = APPLICATION_PROTOCOL_DEFINITION ( 'international standard', 'config_control_design', 1994, #237 ) ;
#35 = DIRECTION ( 'NONE',  ( -0.000000000000000000, -0.000000000000000000, -1.000000000000000000 ) ) ;
#36 = DATE_AND_TIME ( #298, #263 ) ;
#37 = DIRECTION ( 'NONE',  ( 0.000000000000000000, 0.000000000000000000, 1.000000000000000000 ) ) ;
#38 = EDGE_CURVE ( 'NONE', #379, #16, #30, .T. ) ;
#39 = CIRCLE ( 'NONE', #151, 3.000000000000000444 ) ;
#40 = CALENDAR_DATE ( 2022, 8, 7 ) ;
#41 = VERTEX_POINT ( 'NONE', #354 ) ;
#42 = DIRECTION ( 'NONE',  ( 0.000000000000000000, 0.000000000000000000, 1.000000000000000000 ) ) ;
#43 = ORIENTED_EDGE ( 'NONE', *, *, #170, .T. ) ;
#44 = VERTEX_POINT ( 'NONE', #323 ) ;
#45 = DIRECTION ( 'NONE',  ( -0.000000000000000000, -0.000000000000000000, -1.000000000000000000 ) ) ;
#46 = EDGE_LOOP ( 'NONE', ( #305, #228 ) ) ;
#47 = CC_DESIGN_APPROVAL ( #67, ( #213 ) ) ;
#48 = LINE ( 'NONE', #310, #84 ) ;
#49 = ORIENTED_EDGE ( 'NONE', *, *, #245, .T. ) ;
#50 = DIRECTION ( 'NONE',  ( -1.000000000000000000, 0.000000000000000000, 0.000000000000000000 ) ) ;
#51 = EDGE_CURVE ( 'NONE', #16, #28, #235, .T. ) ;
#52 = CLOSED_SHELL ( 'NONE', ( #296, #324, #377, #369, #167, #337, #311, #351, #205, #14, #140 ) ) ;
#53 = FACE_BOUND ( 'NONE', #221, .T. ) ;
#54 = FACE_OUTER_BOUND ( 'NONE', #301, .T. ) ;
#55 = CC_DESIGN_APPROVAL ( #161, ( #130 ) ) ;
#56 = DIRECTION ( 'NONE',  ( -1.000000000000000000, 0.000000000000000000, 0.000000000000000000 ) ) ;
#57 = EDGE_CURVE ( 'NONE', #162, #196, #266, .T. ) ;
#58 = AXIS2_PLACEMENT_3D ( 'NONE', #212, #33, #60 ) ;
#59 = ORIENTED_EDGE ( 'NONE', *, *, #26, .F. ) ;
#60 = DIRECTION ( 'NONE',  ( 1.000000000000000000, 0.000000000000000000, 0.000000000000000000 ) ) ;
#61 = CIRCLE ( 'NONE', #308, 3.500000000000000444 ) ;
#62 = DIRECTION ( 'NONE',  ( 0.000000000000000000, 0.000000000000000000, -1.000000000000000000 ) ) ;
#63 = PERSON_AND_ORGANIZATION_ROLE ( 'classification_officer' ) ;
#64 = AXIS2_PLACEMENT_3D ( 'NONE', #216, #42, #180 ) ;
#65 = CYLINDRICAL_SURFACE ( 'NONE', #106, 2.000000000000000000 ) ;
#66 = APPROVAL_ROLE ( '' ) ;
#67 = APPROVAL ( #121, 'NEURÈENÝ' ) ;
#68 = DIRECTION ( 'NONE',  ( 0.000000000000000000, 0.000000000000000000, 1.000000000000000000 ) ) ;
#69 = MECHANICAL_CONTEXT ( 'NONE', #315, 'mechanical' ) ;
#70 = AXIS2_PLACEMENT_3D ( 'NONE', #144, #35, #10 ) ;
#71 = FACE_BOUND ( 'NONE', #376, .T. ) ;
#72 = ORIENTED_EDGE ( 'NONE', *, *, #38, .T. ) ;
#73 = CARTESIAN_POINT ( 'NONE',  ( 0.000000000000000000, 0.000000000000000000, 0.000000000000000000 ) ) ;
#74 = AXIS2_PLACEMENT_3D ( 'NONE', #289, #7, #146 ) ;
#75 = ORIENTED_EDGE ( 'NONE', *, *, #317, .T. ) ;
#76 = CARTESIAN_POINT ( 'NONE',  ( 0.000000000000000000, 0.000000000000000000, 5.000000000000000000 ) ) ;
#77 = AXIS2_PLACEMENT_3D ( 'NONE', #165, #199, #345 ) ;
#78 = DIRECTION ( 'NONE',  ( 1.000000000000000000, 0.000000000000000000, -0.000000000000000000 ) ) ;
#79 = EDGE_CURVE ( 'NONE', #41, #19, #96, .T. ) ;
#80 = EDGE_LOOP ( 'NONE', ( #313, #336, #253, #264 ) ) ;
#81 = ORIENTED_EDGE ( 'NONE', *, *, #8, .T. ) ;
#82 = CYLINDRICAL_SURFACE ( 'NONE', #87, 6.000000000000000888 ) ;
#83 = CARTESIAN_POINT ( 'NONE',  ( 2.000000000000000000, 2.449293598294706414E-16, 0.000000000000000000 ) ) ;
#84 = VECTOR ( 'NONE', #103, 1000.000000000000000 ) ;
#85 = CARTESIAN_POINT ( 'NONE',  ( 0.000000000000000000, 0.000000000000000000, 5.000000000000000000 ) ) ;
#86 = ORIENTED_EDGE ( 'NONE', *, *, #51, .T. ) ;
#87 = AXIS2_PLACEMENT_3D ( 'NONE', #85, #202, #50 ) ;
#88 = CYLINDRICAL_SURFACE ( 'NONE', #149, 6.000000000000000888 ) ;
#89 = COORDINATED_UNIVERSAL_TIME_OFFSET ( 1, 0, .AHEAD. ) ;
#90 = CALENDAR_DATE ( 2022, 8, 7 ) ;
#91 = EDGE_CURVE ( 'NONE', #282, #44, #222, .T. ) ;
#92 = AXIS2_PLACEMENT_3D ( 'NONE', #280, #21, #185 ) ;
#93 = CARTESIAN_POINT ( 'NONE',  ( 0.000000000000000000, 0.000000000000000000, 5.500000000000005329 ) ) ;
#94 = APPROVAL_STATUS ( 'not_yet_approved' ) ;
#95 = DIRECTION ( 'NONE',  ( 0.000000000000000000, 0.000000000000000000, 1.000000000000000000 ) ) ;
#96 = CIRCLE ( 'NONE', #11, 3.000000000000000444 ) ;
#97 = ORIENTED_EDGE ( 'NONE', *, *, #317, .F. ) ;
#98 = LINE ( 'NONE', #157, #194 ) ;
#99 = ORIENTED_EDGE ( 'NONE', *, *, #79, .F. ) ;
#100 = EDGE_CURVE ( 'NONE', #330, #2, #364, .T. ) ;
#101 = FACE_OUTER_BOUND ( 'NONE', #363, .T. ) ;
#102 = APPROVAL_DATE_TIME ( #36, #67 ) ;
#103 = DIRECTION ( 'NONE',  ( -0.000000000000000000, -0.000000000000000000, -1.000000000000000000 ) ) ;
#104 = CIRCLE ( 'NONE', #200, 3.000000000000000444 ) ;
#105 = ORIENTED_EDGE ( 'NONE', *, *, #181, .F. ) ;
#106 = AXIS2_PLACEMENT_3D ( 'NONE', #297, #234, #5 ) ;
#107 = CC_DESIGN_PERSON_AND_ORGANIZATION_ASSIGNMENT ( #331, #17, ( #130 ) ) ;
#108 = AXIS2_PLACEMENT_3D ( 'NONE', #76, #128, #368 ) ;
#109 = EDGE_LOOP ( 'NONE', ( #99, #341, #192, #346 ) ) ;
#110 = CARTESIAN_POINT ( 'NONE',  ( 6.000000000000000888, 7.347880794884120722E-16, 5.000000000000000000 ) ) ;
#111 = PLANE ( 'NONE',  #77 ) ;
#112 = PLANE ( 'NONE',  #360 ) ;
#113 = CIRCLE ( 'NONE', #92, 2.000000000000000000 ) ;
#114 = DIRECTION ( 'NONE',  ( 1.000000000000000000, 0.000000000000000000, 0.000000000000000000 ) ) ;
#115 = EDGE_CURVE ( 'NONE', #158, #314, #104, .T. ) ;
#116 = EDGE_CURVE ( 'NONE', #2, #282, #172, .T. ) ;
#117 = APPROVAL_PERSON_ORGANIZATION ( #9, #67, #66 ) ;
#118 = CARTESIAN_POINT ( 'NONE',  ( -3.000000000000000444, 0.000000000000000000, 5.500000000000005329 ) ) ;
#119 = PERSON_AND_ORGANIZATION ( #380, #166 ) ;
#120 = DIRECTION ( 'NONE',  ( 1.000000000000000000, 0.000000000000000000, 0.000000000000000000 ) ) ;
#121 = APPROVAL_STATUS ( 'not_yet_approved' ) ;
#122 = LOCAL_TIME ( 17, 36, 5.000000000000000000, #365 ) ;
#123 = DIRECTION ( 'NONE',  ( 0.000000000000000000, 0.000000000000000000, 1.000000000000000000 ) ) ;
#124 = ORIENTED_EDGE ( 'NONE', *, *, #51, .F. ) ;
#125 = PERSON_AND_ORGANIZATION ( #380, #166 ) ;
#126 = CARTESIAN_POINT ( 'NONE',  ( 6.000000000000000888, 7.347880794884120722E-16, 0.000000000000000000 ) ) ;
#127 = VECTOR ( 'NONE', #1, 1000.000000000000000 ) ;
#128 = DIRECTION ( 'NONE',  ( 0.000000000000000000, 0.000000000000000000, 1.000000000000000000 ) ) ;
#129 = EDGE_LOOP ( 'NONE', ( #153, #189, #259, #43 ) ) ;
#130 = PRODUCT_DEFINITION ( 'NEZNÁMÝ', '', #193, #179 ) ;
#131 = ORIENTED_EDGE ( 'NONE', *, *, #292, .F. ) ;
#132 = FACE_OUTER_BOUND ( 'NONE', #220, .T. ) ;
#133 = CIRCLE ( 'NONE', #347, 2.000000000000000000 ) ;
#134 = DIRECTION ( 'NONE',  ( 0.000000000000000000, 0.000000000000000000, 1.000000000000000000 ) ) ;
#135 = EDGE_LOOP ( 'NONE', ( #163, #198, #374, #75 ) ) ;
#136 = CARTESIAN_POINT ( 'NONE',  ( 0.000000000000000000, 0.000000000000000000, 5.500000000000005329 ) ) ;
#137 = CC_DESIGN_DATE_AND_TIME_ASSIGNMENT ( #12, #242, ( #213 ) ) ;
#138 =( LENGTH_UNIT ( ) NAMED_UNIT ( * ) SI_UNIT ( .MILLI., .METRE. ) );
#139 = CIRCLE ( 'NONE', #108, 6.000000000000000888 ) ;
#140 = ADVANCED_FACE ( 'NONE', ( #325 ), #65, .F. ) ;
#141 = CARTESIAN_POINT ( 'NONE',  ( 2.000000000000000000, 2.449293598294706414E-16, 165.0000000000000000 ) ) ;
#142 = VECTOR ( 'NONE', #62, 1000.000000000000000 ) ;
#143 = CARTESIAN_POINT ( 'NONE',  ( -2.000000000000000000, 0.000000000000000000, 165.0000000000000000 ) ) ;
#144 = CARTESIAN_POINT ( 'NONE',  ( 0.000000000000000000, 0.000000000000000000, 0.000000000000000000 ) ) ;
#145 = CALENDAR_DATE ( 2022, 8, 7 ) ;
#146 = DIRECTION ( 'NONE',  ( 1.000000000000000000, 0.000000000000000000, 0.000000000000000000 ) ) ;
#147 = APPROVAL_ROLE ( '' ) ;
#148 = VECTOR ( 'NONE', #29, 1000.000000000000000 ) ;
#149 = AXIS2_PLACEMENT_3D ( 'NONE', #210, #45, #152 ) ;
#150 = APPROVAL_DATE_TIME ( #154, #161 ) ;
#151 = AXIS2_PLACEMENT_3D ( 'NONE', #93, #335, #332 ) ;
#152 = DIRECTION ( 'NONE',  ( -1.000000000000000000, 0.000000000000000000, 0.000000000000000000 ) ) ;
#153 = ORIENTED_EDGE ( 'NONE', *, *, #116, .F. ) ;
#154 = DATE_AND_TIME ( #40, #321 ) ;
#155 = CARTESIAN_POINT ( 'NONE',  ( -3.500000000000000444, 4.286263797015737088E-16, 5.500000000000005329 ) ) ;
#156 = ORIENTED_EDGE ( 'NONE', *, *, #91, .T. ) ;
#157 = CARTESIAN_POINT ( 'NONE',  ( 3.000000000000000444, 3.673940397442060361E-16, 165.0000000000000000 ) ) ;
#158 = VERTEX_POINT ( 'NONE', #118 ) ;
#159 = APPROVAL_PERSON_ORGANIZATION ( #119, #267, #249 ) ;
#160 = PLANE ( 'NONE',  #375 ) ;
#161 = APPROVAL ( #299, 'NEURÈENÝ' ) ;
#162 = VERTEX_POINT ( 'NONE', #355 ) ;
#163 = ORIENTED_EDGE ( 'NONE', *, *, #38, .F. ) ;
#164 = DIRECTION ( 'NONE',  ( -1.000000000000000000, 0.000000000000000000, 0.000000000000000000 ) ) ;
#165 = CARTESIAN_POINT ( 'NONE',  ( 0.000000000000000000, 0.000000000000000000, 5.000000000000000000 ) ) ;
#166 = ORGANIZATION ( 'NEURÈENÝ', 'NEURÈENÝ', '' ) ;
#167 = ADVANCED_FACE ( 'NONE', ( #174 ), #88, .T. ) ;
#168 = CARTESIAN_POINT ( 'NONE',  ( -2.000000000000000000, 0.000000000000000000, 165.0000000000000000 ) ) ;
#169 = PERSON_AND_ORGANIZATION ( #380, #166 ) ;
#170 = EDGE_CURVE ( 'NONE', #44, #282, #272, .T. ) ;
#171 = LINE ( 'NONE', #143, #190 ) ;
#172 = LINE ( 'NONE', #294, #148 ) ;
#173 = MANIFOLD_SOLID_BREP ( 'Odebrat vysunutím3', #52 ) ;
#174 = FACE_OUTER_BOUND ( 'NONE', #129, .T. ) ;
#175 = AXIS2_PLACEMENT_3D ( 'NONE', #350, #281, #261 ) ;
#176 = COORDINATED_UNIVERSAL_TIME_OFFSET ( 1, 0, .AHEAD. ) ;
#177 = CARTESIAN_POINT ( 'NONE',  ( -3.000000000000000444, 0.000000000000000000, 165.0000000000000000 ) ) ;
#178 = COORDINATED_UNIVERSAL_TIME_OFFSET ( 1, 0, .AHEAD. ) ;
#179 = DESIGN_CONTEXT ( 'detailed design', #237, 'design' ) ;
#180 = DIRECTION ( 'NONE',  ( 1.000000000000000000, 0.000000000000000000, 0.000000000000000000 ) ) ;
#181 = EDGE_CURVE ( 'NONE', #314, #158, #39, .T. ) ;
#182 = ORIENTED_EDGE ( 'NONE', *, *, #215, .F. ) ;
#183 = EDGE_CURVE ( 'NONE', #379, #307, #218, .T. ) ;
#184 = DIRECTION ( 'NONE',  ( 0.000000000000000000, 0.000000000000000000, 1.000000000000000000 ) ) ;
#185 = DIRECTION ( 'NONE',  ( 1.000000000000000000, 0.000000000000000000, 0.000000000000000000 ) ) ;
#186 = EDGE_LOOP ( 'NONE', ( #339, #275 ) ) ;
#187 = SHAPE_DEFINITION_REPRESENTATION ( #265, #344 ) ;
#188 = CARTESIAN_POINT ( 'NONE',  ( 0.000000000000000000, 0.000000000000000000, 165.0000000000000000 ) ) ;
#189 = ORIENTED_EDGE ( 'NONE', *, *, #100, .F. ) ;
#190 = VECTOR ( 'NONE', #236, 1000.000000000000000 ) ;
#191 = CYLINDRICAL_SURFACE ( 'NONE', #244, 2.000000000000000000 ) ;
#192 = ORIENTED_EDGE ( 'NONE', *, *, #181, .T. ) ;
#193 = PRODUCT_DEFINITION_FORMATION_WITH_SPECIFIED_SOURCE ( 'LIBOVOLNÝ', '', #290, .NOT_KNOWN. ) ;
#194 = VECTOR ( 'NONE', #219, 1000.000000000000000 ) ;
#195 = CARTESIAN_POINT ( 'NONE',  ( 0.000000000000000000, 0.000000000000000000, 165.0000000000000000 ) ) ;
#196 = VERTEX_POINT ( 'NONE', #15 ) ;
#197 = DIRECTION ( 'NONE',  ( -0.000000000000000000, -0.000000000000000000, -1.000000000000000000 ) ) ;
#198 = ORIENTED_EDGE ( 'NONE', *, *, #183, .T. ) ;
#199 = DIRECTION ( 'NONE',  ( 0.000000000000000000, 0.000000000000000000, 1.000000000000000000 ) ) ;
#200 = AXIS2_PLACEMENT_3D ( 'NONE', #243, #3, #114 ) ;
#201 = DIRECTION ( 'NONE',  ( 1.000000000000000000, 0.000000000000000000, 0.000000000000000000 ) ) ;
#202 = DIRECTION ( 'NONE',  ( -0.000000000000000000, -0.000000000000000000, -1.000000000000000000 ) ) ;
#203 = FACE_OUTER_BOUND ( 'NONE', #319, .T. ) ;
#204 = EDGE_LOOP ( 'NONE', ( #97, #124 ) ) ;
#205 = ADVANCED_FACE ( 'NONE', ( #71, #248 ), #160, .T. ) ;
#206 = ORIENTED_EDGE ( 'NONE', *, *, #115, .F. ) ;
#207 = CARTESIAN_POINT ( 'NONE',  ( 0.000000000000000000, 0.000000000000000000, 5.000000000000000000 ) ) ;
#208 = TOROIDAL_SURFACE ( 'NONE', #250, 3.500000000000000444, 0.5000000000000000000 ) ;
#209 = CARTESIAN_POINT ( 'NONE',  ( 0.000000000000000000, 0.000000000000000000, 165.0000000000000000 ) ) ;
#210 = CARTESIAN_POINT ( 'NONE',  ( 0.000000000000000000, 0.000000000000000000, 5.000000000000000000 ) ) ;
#211 = DATE_AND_TIME ( #90, #122 ) ;
#212 = CARTESIAN_POINT ( 'NONE',  ( 0.000000000000000000, 0.000000000000000000, 0.000000000000000000 ) ) ;
#213 = SECURITY_CLASSIFICATION ( '', '', #217 ) ;
#214 = PERSON_AND_ORGANIZATION_ROLE ( 'creator' ) ;
#215 = EDGE_CURVE ( 'NONE', #307, #379, #113, .T. ) ;
#216 = CARTESIAN_POINT ( 'NONE',  ( 0.000000000000000000, 0.000000000000000000, 165.0000000000000000 ) ) ;
#217 = SECURITY_CLASSIFICATION_LEVEL ( 'unclassified' ) ;
#218 = CIRCLE ( 'NONE', #381, 2.000000000000000000 ) ;
#219 = DIRECTION ( 'NONE',  ( -0.000000000000000000, -0.000000000000000000, -1.000000000000000000 ) ) ;
#220 = EDGE_LOOP ( 'NONE', ( #206, #49, #23, #254 ) ) ;
#221 = EDGE_LOOP ( 'NONE', ( #81, #371 ) ) ;
#222 = CIRCLE ( 'NONE', #58, 6.000000000000000888 ) ;
#223 = DIRECTION ( 'NONE',  ( 0.000000000000000000, 0.000000000000000000, -1.000000000000000000 ) ) ;
#224 = ORIENTED_EDGE ( 'NONE', *, *, #215, .T. ) ;
#225 = FACE_OUTER_BOUND ( 'NONE', #46, .T. ) ;
#226 = CARTESIAN_POINT ( 'NONE',  ( 0.000000000000000000, 0.000000000000000000, 5.000000000000000000 ) ) ;
#227 = CARTESIAN_POINT ( 'NONE',  ( 3.000000000000000444, 3.673940397442060361E-16, 5.500000000000005329 ) ) ;
#228 = ORIENTED_EDGE ( 'NONE', *, *, #91, .F. ) ;
#229 = CARTESIAN_POINT ( 'NONE',  ( 0.000000000000000000, 0.000000000000000000, 0.000000000000000000 ) ) ;
#230 = LOCAL_TIME ( 17, 36, 5.000000000000000000, #176 ) ;
#231 = CC_DESIGN_PERSON_AND_ORGANIZATION_ASSIGNMENT ( #276, #214, ( #193 ) ) ;
#232 = DIRECTION ( 'NONE',  ( 0.000000000000000000, 0.000000000000000000, 1.000000000000000000 ) ) ;
#233 = ORIENTED_EDGE ( 'NONE', *, *, #252, .F. ) ;
#234 = DIRECTION ( 'NONE',  ( 0.000000000000000000, 0.000000000000000000, -1.000000000000000000 ) ) ;
#235 = CIRCLE ( 'NONE', #70, 2.000000000000000000 ) ;
#236 = DIRECTION ( 'NONE',  ( 0.000000000000000000, 0.000000000000000000, -1.000000000000000000 ) ) ;
#237 = APPLICATION_CONTEXT ( 'configuration controlled 3d designs of mechanical parts and assemblies' ) ;
#238 = PRODUCT_RELATED_PRODUCT_CATEGORY ( 'detail', '', ( #290 ) ) ;
#239 = APPLICATION_PROTOCOL_DEFINITION ( 'international standard', 'config_control_design', 1994, #315 ) ;
#240 = DIRECTION ( 'NONE',  ( 1.000000000000000000, 0.000000000000000000, 0.000000000000000000 ) ) ;
#241 = AXIS2_PLACEMENT_3D ( 'NONE', #207, #352, #120 ) ;
#242 = DATE_TIME_ROLE ( 'classification_date' ) ;
#243 = CARTESIAN_POINT ( 'NONE',  ( 0.000000000000000000, 0.000000000000000000, 5.500000000000005329 ) ) ;
#244 = AXIS2_PLACEMENT_3D ( 'NONE', #195, #300, #164 ) ;
#245 = EDGE_CURVE ( 'NONE', #158, #162, #256, .T. ) ;
#246 = DIRECTION ( 'NONE',  ( 1.000000000000000000, 0.000000000000000000, -0.000000000000000000 ) ) ;
#247 = PERSON_AND_ORGANIZATION_ROLE ( 'design_owner' ) ;
#248 = FACE_OUTER_BOUND ( 'NONE', #186, .T. ) ;
#249 = APPROVAL_ROLE ( '' ) ;
#250 = AXIS2_PLACEMENT_3D ( 'NONE', #136, #232, #288 ) ;
#251 = CARTESIAN_POINT ( 'NONE',  ( 0.000000000000000000, 0.000000000000000000, 165.0000000000000000 ) ) ;
#252 = EDGE_CURVE ( 'NONE', #330, #44, #48, .T. ) ;
#253 = ORIENTED_EDGE ( 'NONE', *, *, #322, .T. ) ;
#254 = ORIENTED_EDGE ( 'NONE', *, *, #269, .F. ) ;
#255 = EDGE_CURVE ( 'NONE', #19, #41, #367, .T. ) ;
#256 = CIRCLE ( 'NONE', #309, 0.4999999999999995559 ) ;
#257 = CC_DESIGN_PERSON_AND_ORGANIZATION_ASSIGNMENT ( #125, #328, ( #193 ) ) ;
#258 = CARTESIAN_POINT ( 'NONE',  ( -6.000000000000000888, 0.000000000000000000, 5.000000000000000000 ) ) ;
#259 = ORIENTED_EDGE ( 'NONE', *, *, #252, .T. ) ;
#260 = CARTESIAN_POINT ( 'NONE',  ( 0.000000000000000000, 0.000000000000000000, 0.000000000000000000 ) ) ;
#261 = DIRECTION ( 'NONE',  ( -1.000000000000000000, 0.000000000000000000, 0.000000000000000000 ) ) ;
#262 = CYLINDRICAL_SURFACE ( 'NONE', #32, 3.000000000000000444 ) ;
#263 = LOCAL_TIME ( 17, 36, 5.000000000000000000, #178 ) ;
#264 = ORIENTED_EDGE ( 'NONE', *, *, #115, .T. ) ;
#265 = PRODUCT_DEFINITION_SHAPE ( 'NONE', 'NONE',  #130 ) ;
#266 = CIRCLE ( 'NONE', #241, 3.500000000000000444 ) ;
#267 = APPROVAL ( #94, 'NEURÈENÝ' ) ;
#268 = CARTESIAN_POINT ( 'NONE',  ( 0.000000000000000000, 0.000000000000000000, 5.000000000000000000 ) ) ;
#269 = EDGE_CURVE ( 'NONE', #314, #196, #13, .T. ) ;
#270 = AXIS2_PLACEMENT_3D ( 'NONE', #268, #68, #4 ) ;
#271 = APPROVAL_DATE_TIME ( #211, #267 ) ;
#272 = CIRCLE ( 'NONE', #372, 6.000000000000000888 ) ;
#273 = CALENDAR_DATE ( 2022, 8, 7 ) ;
#274 = DIRECTION ( 'NONE',  ( 0.000000000000000000, 0.000000000000000000, 1.000000000000000000 ) ) ;
#275 = ORIENTED_EDGE ( 'NONE', *, *, #79, .T. ) ;
#276 = PERSON_AND_ORGANIZATION ( #380, #166 ) ;
#277 = CARTESIAN_POINT ( 'NONE',  ( 3.500000000000000444, 0.000000000000000000, 5.500000000000005329 ) ) ;
#278 = ORIENTED_EDGE ( 'NONE', *, *, #245, .F. ) ;
#279 = ORIENTED_EDGE ( 'NONE', *, *, #100, .T. ) ;
#280 = CARTESIAN_POINT ( 'NONE',  ( 0.000000000000000000, 0.000000000000000000, 165.0000000000000000 ) ) ;
#281 = DIRECTION ( 'NONE',  ( -0.000000000000000000, -0.000000000000000000, -1.000000000000000000 ) ) ;
#282 = VERTEX_POINT ( 'NONE', #126 ) ;
#283 = EDGE_CURVE ( 'NONE', #41, #314, #98, .T. ) ;
#284 = FACE_BOUND ( 'NONE', #204, .T. ) ;
#285 = ORIENTED_EDGE ( 'NONE', *, *, #116, .T. ) ;
#286 = FACE_OUTER_BOUND ( 'NONE', #80, .T. ) ;
#287 = EDGE_LOOP ( 'NONE', ( #131, #285, #156, #233 ) ) ;
#288 = DIRECTION ( 'NONE',  ( 1.000000000000000000, 0.000000000000000000, 0.000000000000000000 ) ) ;
#289 = CARTESIAN_POINT ( 'NONE',  ( 0.000000000000000000, 0.000000000000000000, 5.500000000000005329 ) ) ;
#290 = PRODUCT ( 'aa2b', 'aa2b', '', ( #69 ) ) ;
#291 = CARTESIAN_POINT ( 'NONE',  ( 2.000000000000000000, 2.449293598294706414E-16, 165.0000000000000000 ) ) ;
#292 = EDGE_CURVE ( 'NONE', #2, #330, #139, .T. ) ;
#293 = LOCAL_TIME ( 17, 36, 5.000000000000000000, #89 ) ;
#294 = CARTESIAN_POINT ( 'NONE',  ( 6.000000000000000888, 7.347880794884120722E-16, 5.000000000000000000 ) ) ;
#295 = DIRECTION ( 'NONE',  ( 1.000000000000000000, 0.000000000000000000, 0.000000000000000000 ) ) ;
#296 = ADVANCED_FACE ( 'NONE', ( #101 ), #191, .F. ) ;
#297 = CARTESIAN_POINT ( 'NONE',  ( 0.000000000000000000, 0.000000000000000000, 165.0000000000000000 ) ) ;
#298 = CALENDAR_DATE ( 2022, 8, 7 ) ;
#299 = APPROVAL_STATUS ( 'not_yet_approved' ) ;
#300 = DIRECTION ( 'NONE',  ( 0.000000000000000000, 0.000000000000000000, -1.000000000000000000 ) ) ;
#301 = EDGE_LOOP ( 'NONE', ( #278, #105, #378, #349 ) ) ;
#302 = APPROVAL_PERSON_ORGANIZATION ( #326, #161, #147 ) ;
#303 = COORDINATED_UNIVERSAL_TIME_OFFSET ( 1, 0, .AHEAD. ) ;
#304 = DIRECTION ( 'NONE',  ( 1.224646799147353207E-16, 1.000000000000000000, -0.000000000000000000 ) ) ;
#305 = ORIENTED_EDGE ( 'NONE', *, *, #170, .F. ) ;
#306 = CC_DESIGN_PERSON_AND_ORGANIZATION_ASSIGNMENT ( #358, #247, ( #290 ) ) ;
#307 = VERTEX_POINT ( 'NONE', #168 ) ;
#308 = AXIS2_PLACEMENT_3D ( 'NONE', #226, #343, #201 ) ;
#309 = AXIS2_PLACEMENT_3D ( 'NONE', #155, #304, #370 ) ;
#310 = CARTESIAN_POINT ( 'NONE',  ( -6.000000000000000888, 0.000000000000000000, 5.000000000000000000 ) ) ;
#311 = ADVANCED_FACE ( 'NONE', ( #284, #225 ), #112, .F. ) ;
#312 = CYLINDRICAL_SURFACE ( 'NONE', #175, 3.000000000000000444 ) ;
#313 = ORIENTED_EDGE ( 'NONE', *, *, #283, .F. ) ;
#314 = VERTEX_POINT ( 'NONE', #227 ) ;
#315 = APPLICATION_CONTEXT ( 'configuration controlled 3d designs of mechanical parts and assemblies' ) ;
#316 = FACE_OUTER_BOUND ( 'NONE', #109, .T. ) ;
#317 = EDGE_CURVE ( 'NONE', #28, #16, #133, .T. ) ;
#318 = CARTESIAN_POINT ( 'NONE',  ( 0.000000000000000000, 0.000000000000000000, 165.0000000000000000 ) ) ;
#319 = EDGE_LOOP ( 'NONE', ( #279, #24 ) ) ;
#320 = LINE ( 'NONE', #342, #127 ) ;
#321 = LOCAL_TIME ( 17, 36, 5.000000000000000000, #303 ) ;
#322 = EDGE_CURVE ( 'NONE', #19, #158, #320, .T. ) ;
#323 = CARTESIAN_POINT ( 'NONE',  ( -6.000000000000000888, 0.000000000000000000, 0.000000000000000000 ) ) ;
#324 = ADVANCED_FACE ( 'NONE', ( #132 ), #208, .F. ) ;
#325 = FACE_OUTER_BOUND ( 'NONE', #135, .T. ) ;
#326 = PERSON_AND_ORGANIZATION ( #380, #166 ) ;
#327 = CARTESIAN_POINT ( 'NONE',  ( -2.000000000000000000, 0.000000000000000000, 0.000000000000000000 ) ) ;
#328 = PERSON_AND_ORGANIZATION_ROLE ( 'design_supplier' ) ;
#329 = CARTESIAN_POINT ( 'NONE',  ( 0.000000000000000000, 0.000000000000000000, 0.000000000000000000 ) ) ;
#330 = VERTEX_POINT ( 'NONE', #258 ) ;
#331 = PERSON_AND_ORGANIZATION ( #380, #166 ) ;
#332 = DIRECTION ( 'NONE',  ( 1.000000000000000000, 0.000000000000000000, 0.000000000000000000 ) ) ;
#333 = ORIENTED_EDGE ( 'NONE', *, *, #183, .F. ) ;
#334 = AXIS2_PLACEMENT_3D ( 'NONE', #277, #18, #223 ) ;
#335 = DIRECTION ( 'NONE',  ( 0.000000000000000000, 0.000000000000000000, 1.000000000000000000 ) ) ;
#336 = ORIENTED_EDGE ( 'NONE', *, *, #255, .F. ) ;
#337 = ADVANCED_FACE ( 'NONE', ( #53, #203 ), #111, .T. ) ;
#338 = DIRECTION ( 'NONE',  ( 1.000000000000000000, 0.000000000000000000, 0.000000000000000000 ) ) ;
#339 = ORIENTED_EDGE ( 'NONE', *, *, #255, .T. ) ;
#340 = CC_DESIGN_SECURITY_CLASSIFICATION ( #213, ( #193 ) ) ;
#341 = ORIENTED_EDGE ( 'NONE', *, *, #283, .T. ) ;
#342 = CARTESIAN_POINT ( 'NONE',  ( -3.000000000000000444, 0.000000000000000000, 165.0000000000000000 ) ) ;
#343 = DIRECTION ( 'NONE',  ( -0.000000000000000000, -0.000000000000000000, -1.000000000000000000 ) ) ;
#344 = ADVANCED_BREP_SHAPE_REPRESENTATION ( 'aa2b', ( #173, #20 ), #353 ) ;
#345 = DIRECTION ( 'NONE',  ( 1.000000000000000000, 0.000000000000000000, -0.000000000000000000 ) ) ;
#346 = ORIENTED_EDGE ( 'NONE', *, *, #322, .F. ) ;
#347 = AXIS2_PLACEMENT_3D ( 'NONE', #229, #348, #25 ) ;
#348 = DIRECTION ( 'NONE',  ( -0.000000000000000000, -0.000000000000000000, -1.000000000000000000 ) ) ;
#349 = ORIENTED_EDGE ( 'NONE', *, *, #57, .F. ) ;
#350 = CARTESIAN_POINT ( 'NONE',  ( 0.000000000000000000, 0.000000000000000000, 165.0000000000000000 ) ) ;
#351 = ADVANCED_FACE ( 'NONE', ( #286 ), #312, .T. ) ;
#352 = DIRECTION ( 'NONE',  ( -0.000000000000000000, -0.000000000000000000, -1.000000000000000000 ) ) ;
#353 =( GEOMETRIC_REPRESENTATION_CONTEXT ( 3 ) GLOBAL_UNCERTAINTY_ASSIGNED_CONTEXT ( ( #359 ) ) GLOBAL_UNIT_ASSIGNED_CONTEXT ( ( #138, #373, #31 ) ) REPRESENTATION_CONTEXT ( 'NONE', 'WORKASPACE' ) );
#354 = CARTESIAN_POINT ( 'NONE',  ( 3.000000000000000444, 3.673940397442060361E-16, 165.0000000000000000 ) ) ;
#355 = CARTESIAN_POINT ( 'NONE',  ( -3.500000000000000444, 4.286263797015737088E-16, 5.000000000000002665 ) ) ;
#356 = TOROIDAL_SURFACE ( 'NONE', #74, 3.500000000000000444, 0.5000000000000000000 ) ;
#357 = CC_DESIGN_DATE_AND_TIME_ASSIGNMENT ( #361, #6, ( #130 ) ) ;
#358 = PERSON_AND_ORGANIZATION ( #380, #166 ) ;
#359 = UNCERTAINTY_MEASURE_WITH_UNIT (LENGTH_MEASURE( 1.000000000000000082E-05 ), #138, 'distance_accuracy_value', 'NONE');
#360 = AXIS2_PLACEMENT_3D ( 'NONE', #260, #134, #78 ) ;
#361 = DATE_AND_TIME ( #273, #293 ) ;
#362 = CC_DESIGN_PERSON_AND_ORGANIZATION_ASSIGNMENT ( #169, #63, ( #213 ) ) ;
#363 = EDGE_LOOP ( 'NONE', ( #224, #72, #86, #59 ) ) ;
#364 = CIRCLE ( 'NONE', #270, 6.000000000000000888 ) ;
#365 = COORDINATED_UNIVERSAL_TIME_OFFSET ( 1, 0, .AHEAD. ) ;
#366 = DIRECTION ( 'NONE',  ( 1.000000000000000000, 0.000000000000000000, 0.000000000000000000 ) ) ;
#367 = CIRCLE ( 'NONE', #64, 3.000000000000000444 ) ;
#368 = DIRECTION ( 'NONE',  ( 1.000000000000000000, 0.000000000000000000, 0.000000000000000000 ) ) ;
#369 = ADVANCED_FACE ( 'NONE', ( #22 ), #82, .T. ) ;
#370 = DIRECTION ( 'NONE',  ( -1.000000000000000000, 1.224646799147354440E-16, 0.000000000000000000 ) ) ;
#371 = ORIENTED_EDGE ( 'NONE', *, *, #57, .T. ) ;
#372 = AXIS2_PLACEMENT_3D ( 'NONE', #73, #95, #338 ) ;
#373 =( NAMED_UNIT ( * ) PLANE_ANGLE_UNIT ( ) SI_UNIT ( $, .RADIAN. ) );
#374 = ORIENTED_EDGE ( 'NONE', *, *, #26, .T. ) ;
#375 = AXIS2_PLACEMENT_3D ( 'NONE', #251, #123, #246 ) ;
#376 = EDGE_LOOP ( 'NONE', ( #182, #333 ) ) ;
#377 = ADVANCED_FACE ( 'NONE', ( #316 ), #262, .T. ) ;
#378 = ORIENTED_EDGE ( 'NONE', *, *, #269, .T. ) ;
#379 = VERTEX_POINT ( 'NONE', #291 ) ;
#380 = PERSON ( 'NEURÈENÝ', 'NEURÈENÝ', 'NEURÈENÝ', ('NEURÈENÝ'), ('NEURÈENÝ'), ('NEURÈENÝ') ) ;
#381 = AXIS2_PLACEMENT_3D ( 'NONE', #188, #274, #366 ) ;
ENDSEC;
END-ISO-10303-21;
