ISO-10303-21;
HEADER;
FILE_DESCRIPTION (( 'STEP AP203' ),
    '1' );
FILE_NAME ('7359.STEP',
    '2022-07-08T14:18:38',
    ( '' ),
    ( '' ),
    'SwSTEP 2.0',
    'SolidWorks 2019',
    '' );
FILE_SCHEMA (( 'CONFIG_CONTROL_DESIGN' ));
ENDSEC;

DATA;
#1 = APPROVAL_PERSON_ORGANIZATION ( #325, #82, #128 ) ;
#2 = DIRECTION ( 'NONE',  ( 0.000000000000000000, 0.000000000000000000, 1.000000000000000000 ) ) ;
#3 = CC_DESIGN_PERSON_AND_ORGANIZATION_ASSIGNMENT ( #74, #81, ( #86 ) ) ;
#4 = EDGE_CURVE ( 'NONE', #98, #150, #164, .T. ) ;
#5 = CARTESIAN_POINT ( 'NONE',  ( 0.000000000000000000, 0.000000000000000000, 7.000000000000000000 ) ) ;
#6 = EDGE_CURVE ( 'NONE', #16, #48, #70, .T. ) ;
#7 = ORIENTED_EDGE ( 'NONE', *, *, #126, .T. ) ;
#8 = CARTESIAN_POINT ( 'NONE',  ( 0.000000000000000000, 0.000000000000000000, 7.000000000000000000 ) ) ;
#9 = ORIENTED_EDGE ( 'NONE', *, *, #236, .F. ) ;
#10 = VECTOR ( 'NONE', #377, 1000.000000000000000 ) ;
#11 = DIRECTION ( 'NONE',  ( 0.000000000000000000, 0.000000000000000000, 1.000000000000000000 ) ) ;
#12 = CARTESIAN_POINT ( 'NONE',  ( -11.00000000000000000, 0.000000000000000000, 7.000000000000000000 ) ) ;
#13 = CARTESIAN_POINT ( 'NONE',  ( -6.000000000000000888, 0.000000000000000000, 457.0000000000000000 ) ) ;
#14 = APPLICATION_PROTOCOL_DEFINITION ( 'international standard', 'config_control_design', 1994, #143 ) ;
#15 = ORIENTED_EDGE ( 'NONE', *, *, #117, .F. ) ;
#16 = VERTEX_POINT ( 'NONE', #338 ) ;
#17 = VECTOR ( 'NONE', #310, 1000.000000000000000 ) ;
#18 = DIRECTION ( 'NONE',  ( -0.000000000000000000, -0.000000000000000000, -1.000000000000000000 ) ) ;
#19 = CARTESIAN_POINT ( 'NONE',  ( 8.000000000000000000, 9.797174393178825657E-16, 457.0000000000000000 ) ) ;
#20 = EDGE_CURVE ( 'NONE', #118, #252, #66, .T. ) ;
#21 = CARTESIAN_POINT ( 'NONE',  ( 8.699999999999999289, 0.000000000000000000, 6.999999999999992006 ) ) ;
#22 = FACE_OUTER_BOUND ( 'NONE', #256, .T. ) ;
#23 = VECTOR ( 'NONE', #336, 1000.000000000000000 ) ;
#24 = ORIENTED_EDGE ( 'NONE', *, *, #58, .T. ) ;
#25 = EDGE_CURVE ( 'NONE', #98, #165, #35, .T. ) ;
#26 = DATE_AND_TIME ( #260, #179 ) ;
#27 = CARTESIAN_POINT ( 'NONE',  ( 0.000000000000000000, 0.000000000000000000, 457.0000000000000000 ) ) ;
#28 =( NAMED_UNIT ( * ) PLANE_ANGLE_UNIT ( ) SI_UNIT ( $, .RADIAN. ) );
#29 = CYLINDRICAL_SURFACE ( 'NONE', #355, 8.000000000000000000 ) ;
#30 = AXIS2_PLACEMENT_3D ( 'NONE', #42, #160, #290 ) ;
#31 = EDGE_CURVE ( 'NONE', #16, #95, #263, .T. ) ;
#32 = FACE_BOUND ( 'NONE', #112, .T. ) ;
#33 = CARTESIAN_POINT ( 'NONE',  ( -8.699999999999999289, 1.065442715258197248E-15, 6.999999999999992006 ) ) ;
#34 = SECURITY_CLASSIFICATION ( '', '', #227 ) ;
#35 = LINE ( 'NONE', #12, #100 ) ;
#36 = APPROVAL_DATE_TIME ( #67, #96 ) ;
#37 = CIRCLE ( 'NONE', #55, 8.699999999999999289 ) ;
#38 = CARTESIAN_POINT ( 'NONE',  ( 0.000000000000000000, 0.000000000000000000, 457.0000000000000000 ) ) ;
#39 = PERSON_AND_ORGANIZATION ( #75, #332 ) ;
#40 = CC_DESIGN_SECURITY_CLASSIFICATION ( #34, ( #333 ) ) ;
#41 = CC_DESIGN_PERSON_AND_ORGANIZATION_ASSIGNMENT ( #39, #287, ( #34 ) ) ;
#42 = CARTESIAN_POINT ( 'NONE',  ( 0.000000000000000000, 0.000000000000000000, 457.0000000000000000 ) ) ;
#43 = ORIENTED_EDGE ( 'NONE', *, *, #145, .T. ) ;
#44 = CARTESIAN_POINT ( 'NONE',  ( 11.00000000000000000, 1.347111479062088405E-15, 0.000000000000000000 ) ) ;
#45 = CALENDAR_DATE ( 2022, 8, 7 ) ;
#46 = ORIENTED_EDGE ( 'NONE', *, *, #25, .T. ) ;
#47 = VECTOR ( 'NONE', #276, 1000.000000000000000 ) ;
#48 = VERTEX_POINT ( 'NONE', #366 ) ;
#49 = DIRECTION ( 'NONE',  ( 0.000000000000000000, 0.000000000000000000, 1.000000000000000000 ) ) ;
#50 = DIRECTION ( 'NONE',  ( 1.000000000000000000, 0.000000000000000000, 0.000000000000000000 ) ) ;
#51 = APPROVAL_STATUS ( 'not_yet_approved' ) ;
#52 = AXIS2_PLACEMENT_3D ( 'NONE', #199, #49, #50 ) ;
#53 = CYLINDRICAL_SURFACE ( 'NONE', #78, 6.000000000000000888 ) ;
#54 = FACE_OUTER_BOUND ( 'NONE', #311, .T. ) ;
#55 = AXIS2_PLACEMENT_3D ( 'NONE', #8, #194, #124 ) ;
#56 = FACE_OUTER_BOUND ( 'NONE', #89, .T. ) ;
#57 = LOCAL_TIME ( 16, 18, 38.00000000000000000, #161 ) ;
#58 = EDGE_CURVE ( 'NONE', #282, #165, #203, .T. ) ;
#59 = ORIENTED_EDGE ( 'NONE', *, *, #4, .T. ) ;
#60 = EDGE_CURVE ( 'NONE', #241, #304, #187, .T. ) ;
#61 = AXIS2_PLACEMENT_3D ( 'NONE', #141, #109, #235 ) ;
#62 = ORIENTED_EDGE ( 'NONE', *, *, #117, .T. ) ;
#63 = DIRECTION ( 'NONE',  ( -0.000000000000000000, -0.000000000000000000, -1.000000000000000000 ) ) ;
#64 = VERTEX_POINT ( 'NONE', #33 ) ;
#65 = DIRECTION ( 'NONE',  ( 1.000000000000000000, 0.000000000000000000, 0.000000000000000000 ) ) ;
#66 = LINE ( 'NONE', #314, #367 ) ;
#67 = DATE_AND_TIME ( #369, #88 ) ;
#68 = CC_DESIGN_PERSON_AND_ORGANIZATION_ASSIGNMENT ( #133, #171, ( #333 ) ) ;
#69 = AXIS2_PLACEMENT_3D ( 'NONE', #324, #233, #295 ) ;
#70 = LINE ( 'NONE', #289, #23 ) ;
#71 = DATE_AND_TIME ( #45, #137 ) ;
#72 = UNCERTAINTY_MEASURE_WITH_UNIT (LENGTH_MEASURE( 1.000000000000000082E-05 ), #175, 'distance_accuracy_value', 'NONE');
#73 = DIRECTION ( 'NONE',  ( 0.000000000000000000, 0.000000000000000000, 1.000000000000000000 ) ) ;
#74 = PERSON_AND_ORGANIZATION ( #75, #332 ) ;
#75 = PERSON ( 'NEURÈENÝ', 'NEURÈENÝ', 'NEURÈENÝ', ('NEURÈENÝ'), ('NEURÈENÝ'), ('NEURÈENÝ') ) ;
#76 = EDGE_LOOP ( 'NONE', ( #296, #138 ) ) ;
#77 = FACE_OUTER_BOUND ( 'NONE', #127, .T. ) ;
#78 = AXIS2_PLACEMENT_3D ( 'NONE', #27, #207, #115 ) ;
#79 = CARTESIAN_POINT ( 'NONE',  ( -6.000000000000000888, 0.000000000000000000, 0.000000000000000000 ) ) ;
#80 = CARTESIAN_POINT ( 'NONE',  ( 0.000000000000000000, 0.000000000000000000, 0.000000000000000000 ) ) ;
#81 = PERSON_AND_ORGANIZATION_ROLE ( 'design_owner' ) ;
#82 = APPROVAL ( #51, 'NEURÈENÝ' ) ;
#83 = AXIS2_PLACEMENT_3D ( 'NONE', #80, #169, #135 ) ;
#84 = CARTESIAN_POINT ( 'NONE',  ( 11.00000000000000000, 1.347111479062088405E-15, 7.000000000000000000 ) ) ;
#85 = CARTESIAN_POINT ( 'NONE',  ( 0.000000000000000000, 0.000000000000000000, 7.000000000000000000 ) ) ;
#86 = PRODUCT ( '7359', '7359', '', ( #99 ) ) ;
#87 = DIRECTION ( 'NONE',  ( -1.000000000000000000, 0.000000000000000000, 0.000000000000000000 ) ) ;
#88 = LOCAL_TIME ( 16, 18, 38.00000000000000000, #136 ) ;
#89 = EDGE_LOOP ( 'NONE', ( #9, #111, #24, #186 ) ) ;
#90 = DIRECTION ( 'NONE',  ( 1.000000000000000000, 0.000000000000000000, 0.000000000000000000 ) ) ;
#91 = AXIS2_PLACEMENT_3D ( 'NONE', #242, #277, #206 ) ;
#92 = ORIENTED_EDGE ( 'NONE', *, *, #302, .F. ) ;
#93 = FACE_OUTER_BOUND ( 'NONE', #334, .T. ) ;
#94 = ORIENTED_EDGE ( 'NONE', *, *, #20, .F. ) ;
#95 = VERTEX_POINT ( 'NONE', #283 ) ;
#96 = APPROVAL ( #190, 'NEURÈENÝ' ) ;
#97 = ORIENTED_EDGE ( 'NONE', *, *, #20, .T. ) ;
#98 = VERTEX_POINT ( 'NONE', #226 ) ;
#99 = MECHANICAL_CONTEXT ( 'NONE', #351, 'mechanical' ) ;
#100 = VECTOR ( 'NONE', #63, 1000.000000000000000 ) ;
#101 = ORIENTED_EDGE ( 'NONE', *, *, #102, .T. ) ;
#102 = EDGE_CURVE ( 'NONE', #118, #241, #326, .T. ) ;
#103 = ORIENTED_EDGE ( 'NONE', *, *, #278, .F. ) ;
#104 = CARTESIAN_POINT ( 'NONE',  ( 0.000000000000000000, 0.000000000000000000, 457.0000000000000000 ) ) ;
#105 = DIRECTION ( 'NONE',  ( -1.000000000000000000, 0.000000000000000000, 0.000000000000000000 ) ) ;
#106 = CIRCLE ( 'NONE', #274, 6.000000000000000888 ) ;
#107 = CARTESIAN_POINT ( 'NONE',  ( 0.000000000000000000, 0.000000000000000000, 7.000000000000000000 ) ) ;
#108 = DIRECTION ( 'NONE',  ( 1.000000000000000000, 0.000000000000000000, 0.000000000000000000 ) ) ;
#109 = DIRECTION ( 'NONE',  ( 0.000000000000000000, -1.000000000000000000, 0.000000000000000000 ) ) ;
#110 = CC_DESIGN_DATE_AND_TIME_ASSIGNMENT ( #200, #344, ( #245 ) ) ;
#111 = ORIENTED_EDGE ( 'NONE', *, *, #329, .T. ) ;
#112 = EDGE_LOOP ( 'NONE', ( #191, #62 ) ) ;
#113 = APPROVAL_ROLE ( '' ) ;
#114 = CC_DESIGN_APPROVAL ( #209, ( #245 ) ) ;
#115 = DIRECTION ( 'NONE',  ( -1.000000000000000000, 0.000000000000000000, 0.000000000000000000 ) ) ;
#116 = CIRCLE ( 'NONE', #335, 8.699999999999999289 ) ;
#117 = EDGE_CURVE ( 'NONE', #64, #280, #37, .T. ) ;
#118 = VERTEX_POINT ( 'NONE', #13 ) ;
#119 = PLANE ( 'NONE',  #254 ) ;
#120 = AXIS2_PLACEMENT_3D ( 'NONE', #350, #230, #198 ) ;
#121 = EDGE_LOOP ( 'NONE', ( #59, #218 ) ) ;
#122 = CARTESIAN_POINT ( 'NONE',  ( 0.000000000000000000, 0.000000000000000000, 0.000000000000000000 ) ) ;
#123 = ORIENTED_EDGE ( 'NONE', *, *, #126, .F. ) ;
#124 = DIRECTION ( 'NONE',  ( 1.000000000000000000, 0.000000000000000000, 0.000000000000000000 ) ) ;
#125 = AXIS2_PLACEMENT_3D ( 'NONE', #122, #73, #65 ) ;
#126 = EDGE_CURVE ( 'NONE', #95, #16, #149, .T. ) ;
#127 = EDGE_LOOP ( 'NONE', ( #103, #307, #155, #92 ) ) ;
#128 = APPROVAL_ROLE ( '' ) ;
#129 = DIRECTION ( 'NONE',  ( 1.000000000000000000, 0.000000000000000000, 0.000000000000000000 ) ) ;
#130 = CALENDAR_DATE ( 2022, 8, 7 ) ;
#131 = ADVANCED_FACE ( 'NONE', ( #363, #93 ), #189, .T. ) ;
#132 = CARTESIAN_POINT ( 'NONE',  ( 11.00000000000000000, 1.347111479062088405E-15, 7.000000000000000000 ) ) ;
#133 = PERSON_AND_ORGANIZATION ( #75, #332 ) ;
#134 = CIRCLE ( 'NONE', #52, 8.000000000000000000 ) ;
#135 = DIRECTION ( 'NONE',  ( 1.000000000000000000, 0.000000000000000000, 0.000000000000000000 ) ) ;
#136 = COORDINATED_UNIVERSAL_TIME_OFFSET ( 1, 0, .AHEAD. ) ;
#137 = LOCAL_TIME ( 16, 18, 38.00000000000000000, #195 ) ;
#138 = ORIENTED_EDGE ( 'NONE', *, *, #145, .F. ) ;
#139 = DIRECTION ( 'NONE',  ( -1.000000000000000000, 1.224646799147353207E-16, 0.000000000000000000 ) ) ;
#140 = CIRCLE ( 'NONE', #308, 0.6999999999999992895 ) ;
#141 = CARTESIAN_POINT ( 'NONE',  ( 8.699999999999999289, 0.000000000000000000, 7.699999999999985079 ) ) ;
#142 = PERSON_AND_ORGANIZATION ( #75, #332 ) ;
#143 = APPLICATION_CONTEXT ( 'configuration controlled 3d designs of mechanical parts and assemblies' ) ;
#144 = LOCAL_TIME ( 16, 18, 38.00000000000000000, #376 ) ;
#145 = EDGE_CURVE ( 'NONE', #304, #252, #362, .T. ) ;
#146 = FACE_OUTER_BOUND ( 'NONE', #221, .T. ) ;
#147 = CARTESIAN_POINT ( 'NONE',  ( 0.000000000000000000, 0.000000000000000000, 0.000000000000000000 ) ) ;
#148 = CLOSED_SHELL ( 'NONE', ( #342, #202, #201, #379, #378, #182, #361, #370, #131, #248, #317 ) ) ;
#149 = CIRCLE ( 'NONE', #353, 8.000000000000000000 ) ;
#150 = VERTEX_POINT ( 'NONE', #132 ) ;
#151 = FACE_OUTER_BOUND ( 'NONE', #121, .T. ) ;
#152 = ORIENTED_EDGE ( 'NONE', *, *, #102, .F. ) ;
#153 = DIRECTION ( 'NONE',  ( 0.000000000000000000, 0.000000000000000000, 1.000000000000000000 ) ) ;
#154 = PRODUCT_RELATED_PRODUCT_CATEGORY ( 'detail', '', ( #86 ) ) ;
#155 = ORIENTED_EDGE ( 'NONE', *, *, #316, .F. ) ;
#156 = CARTESIAN_POINT ( 'NONE',  ( 6.000000000000000888, 7.347880794884120722E-16, 457.0000000000000000 ) ) ;
#157 = PERSON_AND_ORGANIZATION_ROLE ( 'creator' ) ;
#158 = CIRCLE ( 'NONE', #120, 11.00000000000000000 ) ;
#159 = DIRECTION ( 'NONE',  ( 0.000000000000000000, 0.000000000000000000, 1.000000000000000000 ) ) ;
#160 = DIRECTION ( 'NONE',  ( 0.000000000000000000, 0.000000000000000000, 1.000000000000000000 ) ) ;
#161 = COORDINATED_UNIVERSAL_TIME_OFFSET ( 1, 0, .AHEAD. ) ;
#162 = CARTESIAN_POINT ( 'NONE',  ( 6.000000000000000888, 7.347880794884120722E-16, 0.000000000000000000 ) ) ;
#163 = APPROVAL_DATE_TIME ( #291, #209 ) ;
#164 = CIRCLE ( 'NONE', #170, 11.00000000000000000 ) ;
#165 = VERTEX_POINT ( 'NONE', #262 ) ;
#166 = LINE ( 'NONE', #19, #10 ) ;
#167 = CARTESIAN_POINT ( 'NONE',  ( 6.000000000000000888, 7.347880794884120722E-16, 457.0000000000000000 ) ) ;
#168 = CC_DESIGN_PERSON_AND_ORGANIZATION_ASSIGNMENT ( #313, #157, ( #333 ) ) ;
#169 = DIRECTION ( 'NONE',  ( -0.000000000000000000, -0.000000000000000000, -1.000000000000000000 ) ) ;
#170 = AXIS2_PLACEMENT_3D ( 'NONE', #339, #153, #129 ) ;
#171 = PERSON_AND_ORGANIZATION_ROLE ( 'design_supplier' ) ;
#172 = CC_DESIGN_APPROVAL ( #82, ( #34 ) ) ;
#173 = EDGE_CURVE ( 'NONE', #241, #118, #106, .T. ) ;
#174 = ORIENTED_EDGE ( 'NONE', *, *, #249, .T. ) ;
#175 =( LENGTH_UNIT ( ) NAMED_UNIT ( * ) SI_UNIT ( .MILLI., .METRE. ) );
#176 = FACE_OUTER_BOUND ( 'NONE', #349, .T. ) ;
#177 = CARTESIAN_POINT ( 'NONE',  ( 0.000000000000000000, 0.000000000000000000, 457.0000000000000000 ) ) ;
#178 = AXIS2_PLACEMENT_3D ( 'NONE', #5, #360, #216 ) ;
#179 = LOCAL_TIME ( 16, 18, 38.00000000000000000, #299 ) ;
#180 =( NAMED_UNIT ( * ) SI_UNIT ( $, .STERADIAN. ) SOLID_ANGLE_UNIT ( ) );
#181 = PRODUCT_DEFINITION_SHAPE ( 'NONE', 'NONE',  #245 ) ;
#182 = ADVANCED_FACE ( 'NONE', ( #32, #151 ), #281, .T. ) ;
#183 = ADVANCED_BREP_SHAPE_REPRESENTATION ( '7359', ( #196, #306 ), #359 ) ;
#184 = AXIS2_PLACEMENT_3D ( 'NONE', #373, #228, #271 ) ;
#185 = ORIENTED_EDGE ( 'NONE', *, *, #268, .T. ) ;
#186 = ORIENTED_EDGE ( 'NONE', *, *, #25, .F. ) ;
#187 = LINE ( 'NONE', #156, #17 ) ;
#188 = ORIENTED_EDGE ( 'NONE', *, *, #6, .T. ) ;
#189 = PLANE ( 'NONE',  #30 ) ;
#190 = APPROVAL_STATUS ( 'not_yet_approved' ) ;
#191 = ORIENTED_EDGE ( 'NONE', *, *, #316, .T. ) ;
#192 = SHAPE_DEFINITION_REPRESENTATION ( #181, #183 ) ;
#193 = DIRECTION ( 'NONE',  ( 1.000000000000000000, 0.000000000000000000, 0.000000000000000000 ) ) ;
#194 = DIRECTION ( 'NONE',  ( -0.000000000000000000, -0.000000000000000000, -1.000000000000000000 ) ) ;
#195 = COORDINATED_UNIVERSAL_TIME_OFFSET ( 1, 0, .AHEAD. ) ;
#196 = MANIFOLD_SOLID_BREP ( 'Odebrat vysunutím3', #148 ) ;
#197 = DIRECTION ( 'NONE',  ( 0.000000000000000000, 0.000000000000000000, 1.000000000000000000 ) ) ;
#198 = DIRECTION ( 'NONE',  ( 1.000000000000000000, 0.000000000000000000, 0.000000000000000000 ) ) ;
#199 = CARTESIAN_POINT ( 'NONE',  ( 0.000000000000000000, 0.000000000000000000, 7.699999999999985079 ) ) ;
#200 = DATE_AND_TIME ( #130, #144 ) ;
#201 = ADVANCED_FACE ( 'NONE', ( #270 ), #297, .T. ) ;
#202 = ADVANCED_FACE ( 'NONE', ( #77 ), #246, .F. ) ;
#203 = CIRCLE ( 'NONE', #125, 11.00000000000000000 ) ;
#204 = ORIENTED_EDGE ( 'NONE', *, *, #173, .F. ) ;
#205 = LINE ( 'NONE', #84, #47 ) ;
#206 = DIRECTION ( 'NONE',  ( -1.000000000000000000, 0.000000000000000000, 0.000000000000000000 ) ) ;
#207 = DIRECTION ( 'NONE',  ( 0.000000000000000000, 0.000000000000000000, -1.000000000000000000 ) ) ;
#208 = AXIS2_PLACEMENT_3D ( 'NONE', #347, #197, #318 ) ;
#209 = APPROVAL ( #264, 'NEURÈENÝ' ) ;
#210 = EDGE_LOOP ( 'NONE', ( #152, #204 ) ) ;
#211 = EDGE_CURVE ( 'NONE', #95, #225, #166, .T. ) ;
#212 = ORIENTED_EDGE ( 'NONE', *, *, #31, .T. ) ;
#213 = EDGE_CURVE ( 'NONE', #48, #64, #140, .T. ) ;
#214 = ORIENTED_EDGE ( 'NONE', *, *, #329, .F. ) ;
#215 = CIRCLE ( 'NONE', #331, 11.00000000000000000 ) ;
#216 = DIRECTION ( 'NONE',  ( 1.000000000000000000, 0.000000000000000000, -0.000000000000000000 ) ) ;
#217 = ORIENTED_EDGE ( 'NONE', *, *, #58, .F. ) ;
#218 = ORIENTED_EDGE ( 'NONE', *, *, #236, .T. ) ;
#219 = DIRECTION ( 'NONE',  ( 1.000000000000000000, 0.000000000000000000, 0.000000000000000000 ) ) ;
#220 = ORIENTED_EDGE ( 'NONE', *, *, #213, .F. ) ;
#221 = EDGE_LOOP ( 'NONE', ( #101, #358, #43, #94 ) ) ;
#222 = APPROVAL_ROLE ( '' ) ;
#223 = DIRECTION ( 'NONE',  ( 0.000000000000000000, 0.000000000000000000, 1.000000000000000000 ) ) ;
#224 = CIRCLE ( 'NONE', #208, 8.000000000000000000 ) ;
#225 = VERTEX_POINT ( 'NONE', #298 ) ;
#226 = CARTESIAN_POINT ( 'NONE',  ( -11.00000000000000000, 0.000000000000000000, 7.000000000000000000 ) ) ;
#227 = SECURITY_CLASSIFICATION_LEVEL ( 'unclassified' ) ;
#228 = DIRECTION ( 'NONE',  ( 0.000000000000000000, 0.000000000000000000, 1.000000000000000000 ) ) ;
#229 = EDGE_CURVE ( 'NONE', #225, #48, #224, .T. ) ;
#230 = DIRECTION ( 'NONE',  ( 0.000000000000000000, 0.000000000000000000, 1.000000000000000000 ) ) ;
#231 = ORIENTED_EDGE ( 'NONE', *, *, #278, .T. ) ;
#232 = AXIS2_PLACEMENT_3D ( 'NONE', #341, #159, #315 ) ;
#233 = DIRECTION ( 'NONE',  ( 0.000000000000000000, 0.000000000000000000, 1.000000000000000000 ) ) ;
#234 = DIRECTION ( 'NONE',  ( 0.000000000000000000, 0.000000000000000000, 1.000000000000000000 ) ) ;
#235 = DIRECTION ( 'NONE',  ( 0.000000000000000000, 0.000000000000000000, -1.000000000000000000 ) ) ;
#236 = EDGE_CURVE ( 'NONE', #150, #98, #215, .T. ) ;
#237 = APPROVAL_PERSON_ORGANIZATION ( #238, #209, #222 ) ;
#238 = PERSON_AND_ORGANIZATION ( #75, #332 ) ;
#239 = CIRCLE ( 'NONE', #61, 0.7000000000000000666 ) ;
#240 = CYLINDRICAL_SURFACE ( 'NONE', #261, 11.00000000000000000 ) ;
#241 = VERTEX_POINT ( 'NONE', #167 ) ;
#242 = CARTESIAN_POINT ( 'NONE',  ( 0.000000000000000000, 0.000000000000000000, 457.0000000000000000 ) ) ;
#243 = DIRECTION ( 'NONE',  ( 1.000000000000000000, 0.000000000000000000, -0.000000000000000000 ) ) ;
#244 = AXIS2_PLACEMENT_3D ( 'NONE', #273, #381, #300 ) ;
#245 = PRODUCT_DEFINITION ( 'NEZNÁMÝ', '', #333, #253 ) ;
#246 = TOROIDAL_SURFACE ( 'NONE', #184, 8.699999999999999289, 0.6999999999999999556 ) ;
#247 = ORIENTED_EDGE ( 'NONE', *, *, #302, .T. ) ;
#248 = ADVANCED_FACE ( 'NONE', ( #22 ), #374, .F. ) ;
#249 = EDGE_CURVE ( 'NONE', #165, #282, #158, .T. ) ;
#250 = ORIENTED_EDGE ( 'NONE', *, *, #173, .T. ) ;
#251 = CARTESIAN_POINT ( 'NONE',  ( 0.000000000000000000, 0.000000000000000000, 457.0000000000000000 ) ) ;
#252 = VERTEX_POINT ( 'NONE', #79 ) ;
#253 = DESIGN_CONTEXT ( 'detailed design', #143, 'design' ) ;
#254 = AXIS2_PLACEMENT_3D ( 'NONE', #147, #2, #243 ) ;
#255 = DIRECTION ( 'NONE',  ( 0.000000000000000000, 0.000000000000000000, 1.000000000000000000 ) ) ;
#256 = EDGE_LOOP ( 'NONE', ( #220, #345, #247, #15 ) ) ;
#257 = DIRECTION ( 'NONE',  ( -0.000000000000000000, -0.000000000000000000, -1.000000000000000000 ) ) ;
#258 = CALENDAR_DATE ( 2022, 8, 7 ) ;
#259 = DIRECTION ( 'NONE',  ( 0.000000000000000000, 0.000000000000000000, -1.000000000000000000 ) ) ;
#260 = CALENDAR_DATE ( 2022, 8, 7 ) ;
#261 = AXIS2_PLACEMENT_3D ( 'NONE', #85, #305, #87 ) ;
#262 = CARTESIAN_POINT ( 'NONE',  ( -11.00000000000000000, 0.000000000000000000, 0.000000000000000000 ) ) ;
#263 = CIRCLE ( 'NONE', #303, 8.000000000000000000 ) ;
#264 = APPROVAL_STATUS ( 'not_yet_approved' ) ;
#265 = ORIENTED_EDGE ( 'NONE', *, *, #211, .F. ) ;
#266 = DIRECTION ( 'NONE',  ( 1.000000000000000000, 0.000000000000000000, 0.000000000000000000 ) ) ;
#267 = PERSON_AND_ORGANIZATION ( #75, #332 ) ;
#268 = EDGE_CURVE ( 'NONE', #252, #304, #322, .T. ) ;
#269 = DIRECTION ( 'NONE',  ( 0.000000000000000000, 0.000000000000000000, 1.000000000000000000 ) ) ;
#270 = FACE_OUTER_BOUND ( 'NONE', #312, .T. ) ;
#271 = DIRECTION ( 'NONE',  ( 1.000000000000000000, 0.000000000000000000, 0.000000000000000000 ) ) ;
#272 = APPROVAL_PERSON_ORGANIZATION ( #142, #96, #113 ) ;
#273 = CARTESIAN_POINT ( 'NONE',  ( 0.000000000000000000, 0.000000000000000000, 7.000000000000000000 ) ) ;
#274 = AXIS2_PLACEMENT_3D ( 'NONE', #343, #11, #364 ) ;
#275 = APPLICATION_PROTOCOL_DEFINITION ( 'international standard', 'config_control_design', 1994, #351 ) ;
#276 = DIRECTION ( 'NONE',  ( -0.000000000000000000, -0.000000000000000000, -1.000000000000000000 ) ) ;
#277 = DIRECTION ( 'NONE',  ( 0.000000000000000000, 0.000000000000000000, -1.000000000000000000 ) ) ;
#278 = EDGE_CURVE ( 'NONE', #48, #225, #134, .T. ) ;
#279 = ORIENTED_EDGE ( 'NONE', *, *, #31, .F. ) ;
#280 = VERTEX_POINT ( 'NONE', #21 ) ;
#281 = PLANE ( 'NONE',  #178 ) ;
#282 = VERTEX_POINT ( 'NONE', #44 ) ;
#283 = CARTESIAN_POINT ( 'NONE',  ( 8.000000000000000000, 9.797174393178825657E-16, 457.0000000000000000 ) ) ;
#284 = ORIENTED_EDGE ( 'NONE', *, *, #60, .F. ) ;
#285 = AXIS2_PLACEMENT_3D ( 'NONE', #286, #257, #219 ) ;
#286 = CARTESIAN_POINT ( 'NONE',  ( 0.000000000000000000, 0.000000000000000000, 0.000000000000000000 ) ) ;
#287 = PERSON_AND_ORGANIZATION_ROLE ( 'classification_officer' ) ;
#288 = ORIENTED_EDGE ( 'NONE', *, *, #229, .T. ) ;
#289 = CARTESIAN_POINT ( 'NONE',  ( -8.000000000000000000, 0.000000000000000000, 457.0000000000000000 ) ) ;
#290 = DIRECTION ( 'NONE',  ( 1.000000000000000000, 0.000000000000000000, -0.000000000000000000 ) ) ;
#291 = DATE_AND_TIME ( #258, #57 ) ;
#292 = CARTESIAN_POINT ( 'NONE',  ( 0.000000000000000000, 0.000000000000000000, 7.000000000000000000 ) ) ;
#293 = AXIS2_PLACEMENT_3D ( 'NONE', #104, #323, #105 ) ;
#294 = APPROVAL_DATE_TIME ( #26, #82 ) ;
#295 = DIRECTION ( 'NONE',  ( 1.000000000000000000, 0.000000000000000000, 0.000000000000000000 ) ) ;
#296 = ORIENTED_EDGE ( 'NONE', *, *, #268, .F. ) ;
#297 = CYLINDRICAL_SURFACE ( 'NONE', #293, 8.000000000000000000 ) ;
#298 = CARTESIAN_POINT ( 'NONE',  ( 8.000000000000000000, 9.797174393178825657E-16, 7.699999999999985079 ) ) ;
#299 = COORDINATED_UNIVERSAL_TIME_OFFSET ( 1, 0, .AHEAD. ) ;
#300 = DIRECTION ( 'NONE',  ( -1.000000000000000000, 0.000000000000000000, 0.000000000000000000 ) ) ;
#301 = DIRECTION ( 'NONE',  ( -1.000000000000000000, 0.000000000000000000, 0.000000000000000000 ) ) ;
#302 = EDGE_CURVE ( 'NONE', #225, #280, #239, .T. ) ;
#303 = AXIS2_PLACEMENT_3D ( 'NONE', #38, #223, #193 ) ;
#304 = VERTEX_POINT ( 'NONE', #162 ) ;
#305 = DIRECTION ( 'NONE',  ( -0.000000000000000000, -0.000000000000000000, -1.000000000000000000 ) ) ;
#306 = AXIS2_PLACEMENT_3D ( 'NONE', #340, #234, #108 ) ;
#307 = ORIENTED_EDGE ( 'NONE', *, *, #213, .T. ) ;
#308 = AXIS2_PLACEMENT_3D ( 'NONE', #348, #321, #139 ) ;
#309 = CC_DESIGN_PERSON_AND_ORGANIZATION_ASSIGNMENT ( #267, #352, ( #245 ) ) ;
#310 = DIRECTION ( 'NONE',  ( 0.000000000000000000, 0.000000000000000000, -1.000000000000000000 ) ) ;
#311 = EDGE_LOOP ( 'NONE', ( #265, #279, #188, #231 ) ) ;
#312 = EDGE_LOOP ( 'NONE', ( #123, #365, #288, #337 ) ) ;
#313 = PERSON_AND_ORGANIZATION ( #75, #332 ) ;
#314 = CARTESIAN_POINT ( 'NONE',  ( -6.000000000000000888, 0.000000000000000000, 457.0000000000000000 ) ) ;
#315 = DIRECTION ( 'NONE',  ( 1.000000000000000000, 0.000000000000000000, 0.000000000000000000 ) ) ;
#316 = EDGE_CURVE ( 'NONE', #280, #64, #116, .T. ) ;
#317 = ADVANCED_FACE ( 'NONE', ( #371 ), #380, .F. ) ;
#318 = DIRECTION ( 'NONE',  ( 1.000000000000000000, 0.000000000000000000, 0.000000000000000000 ) ) ;
#319 = CC_DESIGN_APPROVAL ( #96, ( #333 ) ) ;
#320 = DATE_TIME_ROLE ( 'classification_date' ) ;
#321 = DIRECTION ( 'NONE',  ( 1.224646799147353207E-16, 1.000000000000000000, -0.000000000000000000 ) ) ;
#322 = CIRCLE ( 'NONE', #83, 6.000000000000000888 ) ;
#323 = DIRECTION ( 'NONE',  ( -0.000000000000000000, -0.000000000000000000, -1.000000000000000000 ) ) ;
#324 = CARTESIAN_POINT ( 'NONE',  ( 0.000000000000000000, 0.000000000000000000, 7.699999999999985079 ) ) ;
#325 = PERSON_AND_ORGANIZATION ( #75, #332 ) ;
#326 = CIRCLE ( 'NONE', #232, 6.000000000000000888 ) ;
#327 = EDGE_LOOP ( 'NONE', ( #284, #250, #97, #185 ) ) ;
#328 = FACE_BOUND ( 'NONE', #76, .T. ) ;
#329 = EDGE_CURVE ( 'NONE', #150, #282, #205, .T. ) ;
#330 = FACE_OUTER_BOUND ( 'NONE', #375, .T. ) ;
#331 = AXIS2_PLACEMENT_3D ( 'NONE', #107, #269, #372 ) ;
#332 = ORGANIZATION ( 'NEURÈENÝ', 'NEURÈENÝ', '' ) ;
#333 = PRODUCT_DEFINITION_FORMATION_WITH_SPECIFIED_SOURCE ( 'LIBOVOLNÝ', '', #86, .NOT_KNOWN. ) ;
#334 = EDGE_LOOP ( 'NONE', ( #212, #7 ) ) ;
#335 = AXIS2_PLACEMENT_3D ( 'NONE', #292, #18, #266 ) ;
#336 = DIRECTION ( 'NONE',  ( -0.000000000000000000, -0.000000000000000000, -1.000000000000000000 ) ) ;
#337 = ORIENTED_EDGE ( 'NONE', *, *, #6, .F. ) ;
#338 = CARTESIAN_POINT ( 'NONE',  ( -8.000000000000000000, 0.000000000000000000, 457.0000000000000000 ) ) ;
#339 = CARTESIAN_POINT ( 'NONE',  ( 0.000000000000000000, 0.000000000000000000, 7.000000000000000000 ) ) ;
#340 = CARTESIAN_POINT ( 'NONE',  ( 0.000000000000000000, 0.000000000000000000, 0.000000000000000000 ) ) ;
#341 = CARTESIAN_POINT ( 'NONE',  ( 0.000000000000000000, 0.000000000000000000, 457.0000000000000000 ) ) ;
#342 = ADVANCED_FACE ( 'NONE', ( #146 ), #53, .F. ) ;
#343 = CARTESIAN_POINT ( 'NONE',  ( 0.000000000000000000, 0.000000000000000000, 457.0000000000000000 ) ) ;
#344 = DATE_TIME_ROLE ( 'creation_date' ) ;
#345 = ORIENTED_EDGE ( 'NONE', *, *, #229, .F. ) ;
#346 = ORIENTED_EDGE ( 'NONE', *, *, #4, .F. ) ;
#347 = CARTESIAN_POINT ( 'NONE',  ( 0.000000000000000000, 0.000000000000000000, 7.699999999999985079 ) ) ;
#348 = CARTESIAN_POINT ( 'NONE',  ( -8.699999999999999289, 1.065442715258197248E-15, 7.699999999999985079 ) ) ;
#349 = EDGE_LOOP ( 'NONE', ( #368, #217 ) ) ;
#350 = CARTESIAN_POINT ( 'NONE',  ( 0.000000000000000000, 0.000000000000000000, 0.000000000000000000 ) ) ;
#351 = APPLICATION_CONTEXT ( 'configuration controlled 3d designs of mechanical parts and assemblies' ) ;
#352 = PERSON_AND_ORGANIZATION_ROLE ( 'creator' ) ;
#353 = AXIS2_PLACEMENT_3D ( 'NONE', #251, #255, #90 ) ;
#354 = CYLINDRICAL_SURFACE ( 'NONE', #244, 11.00000000000000000 ) ;
#355 = AXIS2_PLACEMENT_3D ( 'NONE', #177, #356, #301 ) ;
#356 = DIRECTION ( 'NONE',  ( -0.000000000000000000, -0.000000000000000000, -1.000000000000000000 ) ) ;
#357 = CC_DESIGN_DATE_AND_TIME_ASSIGNMENT ( #71, #320, ( #34 ) ) ;
#358 = ORIENTED_EDGE ( 'NONE', *, *, #60, .T. ) ;
#359 =( GEOMETRIC_REPRESENTATION_CONTEXT ( 3 ) GLOBAL_UNCERTAINTY_ASSIGNED_CONTEXT ( ( #72 ) ) GLOBAL_UNIT_ASSIGNED_CONTEXT ( ( #175, #28, #180 ) ) REPRESENTATION_CONTEXT ( 'NONE', 'WORKASPACE' ) );
#360 = DIRECTION ( 'NONE',  ( 0.000000000000000000, 0.000000000000000000, 1.000000000000000000 ) ) ;
#361 = ADVANCED_FACE ( 'NONE', ( #328, #176 ), #119, .F. ) ;
#362 = CIRCLE ( 'NONE', #285, 6.000000000000000888 ) ;
#363 = FACE_BOUND ( 'NONE', #210, .T. ) ;
#364 = DIRECTION ( 'NONE',  ( 1.000000000000000000, 0.000000000000000000, 0.000000000000000000 ) ) ;
#365 = ORIENTED_EDGE ( 'NONE', *, *, #211, .T. ) ;
#366 = CARTESIAN_POINT ( 'NONE',  ( -8.000000000000000000, 0.000000000000000000, 7.699999999999985079 ) ) ;
#367 = VECTOR ( 'NONE', #259, 1000.000000000000000 ) ;
#368 = ORIENTED_EDGE ( 'NONE', *, *, #249, .F. ) ;
#369 = CALENDAR_DATE ( 2022, 8, 7 ) ;
#370 = ADVANCED_FACE ( 'NONE', ( #54 ), #29, .T. ) ;
#371 = FACE_OUTER_BOUND ( 'NONE', #327, .T. ) ;
#372 = DIRECTION ( 'NONE',  ( 1.000000000000000000, 0.000000000000000000, 0.000000000000000000 ) ) ;
#373 = CARTESIAN_POINT ( 'NONE',  ( 0.000000000000000000, 0.000000000000000000, 7.699999999999985079 ) ) ;
#374 = TOROIDAL_SURFACE ( 'NONE', #69, 8.699999999999999289, 0.6999999999999999556 ) ;
#375 = EDGE_LOOP ( 'NONE', ( #214, #346, #46, #174 ) ) ;
#376 = COORDINATED_UNIVERSAL_TIME_OFFSET ( 1, 0, .AHEAD. ) ;
#377 = DIRECTION ( 'NONE',  ( -0.000000000000000000, -0.000000000000000000, -1.000000000000000000 ) ) ;
#378 = ADVANCED_FACE ( 'NONE', ( #330 ), #354, .T. ) ;
#379 = ADVANCED_FACE ( 'NONE', ( #56 ), #240, .T. ) ;
#380 = CYLINDRICAL_SURFACE ( 'NONE', #91, 6.000000000000000888 ) ;
#381 = DIRECTION ( 'NONE',  ( -0.000000000000000000, -0.000000000000000000, -1.000000000000000000 ) ) ;
ENDSEC;
END-ISO-10303-21;
