ISO-10303-21;
HEADER;
FILE_DESCRIPTION (( 'STEP AP203' ),
    '1' );
FILE_NAME ('35bd.STEP',
    '2022-07-08T14:30:43',
    ( '' ),
    ( '' ),
    'SwSTEP 2.0',
    'SolidWorks 2019',
    '' );
FILE_SCHEMA (( 'CONFIG_CONTROL_DESIGN' ));
ENDSEC;

DATA;
#1 = CARTESIAN_POINT ( 'NONE',  ( 0.000000000000000000, 0.000000000000000000, 0.000000000000000000 ) ) ;
#2 = CIRCLE ( 'NONE', #146, 6.000000000000000888 ) ;
#3 = ORGANIZATION ( 'NEURÈENÝ', 'NEURÈENÝ', '' ) ;
#4 = DIRECTION ( 'NONE',  ( 1.000000000000000000, 0.000000000000000000, -0.000000000000000000 ) ) ;
#5 = EDGE_LOOP ( 'NONE', ( #205, #88 ) ) ;
#6 = DIRECTION ( 'NONE',  ( 0.000000000000000000, 0.000000000000000000, 1.000000000000000000 ) ) ;
#7 = VERTEX_POINT ( 'NONE', #335 ) ;
#8 = DIRECTION ( 'NONE',  ( -0.000000000000000000, -0.000000000000000000, -1.000000000000000000 ) ) ;
#9 = ORIENTED_EDGE ( 'NONE', *, *, #304, .T. ) ;
#10 = AXIS2_PLACEMENT_3D ( 'NONE', #44, #266, #213 ) ;
#11 = APPROVAL ( #160, 'NEURÈENÝ' ) ;
#12 = DIRECTION ( 'NONE',  ( 0.000000000000000000, 0.000000000000000000, 1.000000000000000000 ) ) ;
#13 = CARTESIAN_POINT ( 'NONE',  ( 6.000000000000000888, 7.347880794884120722E-16, 7.699999999999985079 ) ) ;
#14 = DIRECTION ( 'NONE',  ( -0.000000000000000000, -0.000000000000000000, -1.000000000000000000 ) ) ;
#15 = EDGE_LOOP ( 'NONE', ( #297, #265 ) ) ;
#16 = DATE_TIME_ROLE ( 'creation_date' ) ;
#17 = AXIS2_PLACEMENT_3D ( 'NONE', #1, #324, #230 ) ;
#18 = DIRECTION ( 'NONE',  ( -1.000000000000000000, 0.000000000000000000, 0.000000000000000000 ) ) ;
#19 = DATE_AND_TIME ( #278, #226 ) ;
#20 = ADVANCED_FACE ( 'NONE', ( #329 ), #216, .T. ) ;
#21 = EDGE_CURVE ( 'NONE', #118, #7, #164, .T. ) ;
#22 = CIRCLE ( 'NONE', #197, 10.00000000000000000 ) ;
#23 = DIRECTION ( 'NONE',  ( 1.000000000000000000, 0.000000000000000000, -0.000000000000000000 ) ) ;
#24 = DIRECTION ( 'NONE',  ( 0.000000000000000000, 0.000000000000000000, -1.000000000000000000 ) ) ;
#25 = PERSON_AND_ORGANIZATION ( #114, #3 ) ;
#26 = DIRECTION ( 'NONE',  ( 0.000000000000000000, 0.000000000000000000, 1.000000000000000000 ) ) ;
#27 = CIRCLE ( 'NONE', #255, 10.00000000000000000 ) ;
#28 = CARTESIAN_POINT ( 'NONE',  ( 10.00000000000000000, 1.224646799147353256E-15, 7.000000000000000000 ) ) ;
#29 = CC_DESIGN_PERSON_AND_ORGANIZATION_ASSIGNMENT ( #251, #47, ( #219 ) ) ;
#30 = CARTESIAN_POINT ( 'NONE',  ( 0.000000000000000000, 0.000000000000000000, 282.0000000000000000 ) ) ;
#31 = DIRECTION ( 'NONE',  ( 1.000000000000000000, 0.000000000000000000, 0.000000000000000000 ) ) ;
#32 = ORIENTED_EDGE ( 'NONE', *, *, #119, .F. ) ;
#33 = VECTOR ( 'NONE', #195, 1000.000000000000000 ) ;
#34 = CARTESIAN_POINT ( 'NONE',  ( -6.700000000000001066, 8.205133554287267548E-16, 6.999999999999992006 ) ) ;
#35 = ORIENTED_EDGE ( 'NONE', *, *, #97, .F. ) ;
#36 = APPROVAL_STATUS ( 'not_yet_approved' ) ;
#37 = ORIENTED_EDGE ( 'NONE', *, *, #290, .T. ) ;
#38 = VECTOR ( 'NONE', #286, 1000.000000000000000 ) ;
#39 = PERSON_AND_ORGANIZATION ( #114, #3 ) ;
#40 = DATE_AND_TIME ( #102, #313 ) ;
#41 = EDGE_LOOP ( 'NONE', ( #309, #267, #359, #116 ) ) ;
#42 = DIRECTION ( 'NONE',  ( 0.000000000000000000, 0.000000000000000000, 1.000000000000000000 ) ) ;
#43 = ORIENTED_EDGE ( 'NONE', *, *, #193, .T. ) ;
#44 = CARTESIAN_POINT ( 'NONE',  ( -6.700000000000001066, 8.205133554287267548E-16, 7.699999999999985079 ) ) ;
#45 = AXIS2_PLACEMENT_3D ( 'NONE', #274, #245, #94 ) ;
#46 = CC_DESIGN_SECURITY_CLASSIFICATION ( #365, ( #219 ) ) ;
#47 = PERSON_AND_ORGANIZATION_ROLE ( 'creator' ) ;
#48 = DIRECTION ( 'NONE',  ( -1.000000000000000000, 0.000000000000000000, 0.000000000000000000 ) ) ;
#49 = ADVANCED_FACE ( 'NONE', ( #185 ), #345, .F. ) ;
#50 = COORDINATED_UNIVERSAL_TIME_OFFSET ( 1, 0, .AHEAD. ) ;
#51 = FACE_OUTER_BOUND ( 'NONE', #229, .T. ) ;
#52 = AXIS2_PLACEMENT_3D ( 'NONE', #120, #234, #322 ) ;
#53 = APPROVAL ( #285, 'NEURÈENÝ' ) ;
#54 = PRODUCT_DEFINITION_SHAPE ( 'NONE', 'NONE',  #66 ) ;
#55 = DIRECTION ( 'NONE',  ( 1.000000000000000000, 0.000000000000000000, 0.000000000000000000 ) ) ;
#56 = CIRCLE ( 'NONE', #77, 6.000000000000000888 ) ;
#57 = CC_DESIGN_APPROVAL ( #169, ( #219 ) ) ;
#58 = DIRECTION ( 'NONE',  ( -0.000000000000000000, -0.000000000000000000, -1.000000000000000000 ) ) ;
#59 = ORIENTED_EDGE ( 'NONE', *, *, #193, .F. ) ;
#60 = DIRECTION ( 'NONE',  ( 0.000000000000000000, 0.000000000000000000, 1.000000000000000000 ) ) ;
#61 = EDGE_LOOP ( 'NONE', ( #237, #337 ) ) ;
#62 = DIRECTION ( 'NONE',  ( 0.000000000000000000, 0.000000000000000000, 1.000000000000000000 ) ) ;
#63 = AXIS2_PLACEMENT_3D ( 'NONE', #311, #26, #23 ) ;
#64 = CARTESIAN_POINT ( 'NONE',  ( 6.700000000000001066, 0.000000000000000000, 7.699999999999985079 ) ) ;
#65 = ORIENTED_EDGE ( 'NONE', *, *, #282, .F. ) ;
#66 = PRODUCT_DEFINITION ( 'NEZNÁMÝ', '', #219, #268 ) ;
#67 = CALENDAR_DATE ( 2022, 8, 7 ) ;
#68 = VERTEX_POINT ( 'NONE', #13 ) ;
#69 = ORIENTED_EDGE ( 'NONE', *, *, #376, .T. ) ;
#70 = CC_DESIGN_PERSON_AND_ORGANIZATION_ASSIGNMENT ( #39, #71, ( #109 ) ) ;
#71 = PERSON_AND_ORGANIZATION_ROLE ( 'design_owner' ) ;
#72 = VERTEX_POINT ( 'NONE', #344 ) ;
#73 = PERSON_AND_ORGANIZATION ( #114, #3 ) ;
#74 = DIRECTION ( 'NONE',  ( -0.000000000000000000, -0.000000000000000000, -1.000000000000000000 ) ) ;
#75 = CYLINDRICAL_SURFACE ( 'NONE', #261, 4.250000000000000000 ) ;
#76 = APPROVAL_DATE_TIME ( #19, #53 ) ;
#77 = AXIS2_PLACEMENT_3D ( 'NONE', #196, #62, #89 ) ;
#78 = VERTEX_POINT ( 'NONE', #105 ) ;
#79 = LINE ( 'NONE', #279, #38 ) ;
#80 = CARTESIAN_POINT ( 'NONE',  ( -4.250000000000000000, 0.000000000000000000, 282.0000000000000000 ) ) ;
#81 = LINE ( 'NONE', #220, #104 ) ;
#82 = FACE_OUTER_BOUND ( 'NONE', #15, .T. ) ;
#83 = AXIS2_PLACEMENT_3D ( 'NONE', #350, #6, #178 ) ;
#84 = CC_DESIGN_DATE_AND_TIME_ASSIGNMENT ( #341, #106, ( #365 ) ) ;
#85 = LINE ( 'NONE', #321, #235 ) ;
#86 = VERTEX_POINT ( 'NONE', #254 ) ;
#87 = CARTESIAN_POINT ( 'NONE',  ( 0.000000000000000000, 0.000000000000000000, 7.000000000000000000 ) ) ;
#88 = ORIENTED_EDGE ( 'NONE', *, *, #331, .F. ) ;
#89 = DIRECTION ( 'NONE',  ( 1.000000000000000000, 0.000000000000000000, 0.000000000000000000 ) ) ;
#90 = EDGE_LOOP ( 'NONE', ( #133, #200 ) ) ;
#91 = AXIS2_PLACEMENT_3D ( 'NONE', #138, #314, #194 ) ;
#92 = CARTESIAN_POINT ( 'NONE',  ( 0.000000000000000000, 0.000000000000000000, 0.000000000000000000 ) ) ;
#93 = VERTEX_POINT ( 'NONE', #80 ) ;
#94 = DIRECTION ( 'NONE',  ( 1.000000000000000000, 0.000000000000000000, 0.000000000000000000 ) ) ;
#95 = ADVANCED_FACE ( 'NONE', ( #51 ), #168, .T. ) ;
#96 = AXIS2_PLACEMENT_3D ( 'NONE', #92, #207, #228 ) ;
#97 = EDGE_CURVE ( 'NONE', #78, #173, #79, .T. ) ;
#98 = APPROVAL_PERSON_ORGANIZATION ( #336, #169, #152 ) ;
#99 = CARTESIAN_POINT ( 'NONE',  ( 0.000000000000000000, 0.000000000000000000, 7.000000000000000000 ) ) ;
#100 = ORIENTED_EDGE ( 'NONE', *, *, #130, .F. ) ;
#101 = ADVANCED_BREP_SHAPE_REPRESENTATION ( '35bd', ( #315, #124 ), #281 ) ;
#102 = CALENDAR_DATE ( 2022, 8, 7 ) ;
#103 = CC_DESIGN_PERSON_AND_ORGANIZATION_ASSIGNMENT ( #192, #253, ( #365 ) ) ;
#104 = VECTOR ( 'NONE', #163, 1000.000000000000000 ) ;
#105 = CARTESIAN_POINT ( 'NONE',  ( -10.00000000000000000, 0.000000000000000000, 7.000000000000000000 ) ) ;
#106 = DATE_TIME_ROLE ( 'classification_date' ) ;
#107 = DIRECTION ( 'NONE',  ( 1.000000000000000000, 0.000000000000000000, 0.000000000000000000 ) ) ;
#108 = DIRECTION ( 'NONE',  ( 1.000000000000000000, 0.000000000000000000, 0.000000000000000000 ) ) ;
#109 = PRODUCT ( '35bd', '35bd', '', ( #302 ) ) ;
#110 = DIRECTION ( 'NONE',  ( 1.000000000000000000, 0.000000000000000000, 0.000000000000000000 ) ) ;
#111 = VECTOR ( 'NONE', #244, 1000.000000000000000 ) ;
#112 = APPROVAL_PERSON_ORGANIZATION ( #73, #11, #368 ) ;
#113 = FACE_OUTER_BOUND ( 'NONE', #367, .T. ) ;
#114 = PERSON ( 'NEURÈENÝ', 'NEURÈENÝ', 'NEURÈENÝ', ('NEURÈENÝ'), ('NEURÈENÝ'), ('NEURÈENÝ') ) ;
#115 = CARTESIAN_POINT ( 'NONE',  ( 0.000000000000000000, 0.000000000000000000, 7.699999999999985079 ) ) ;
#116 = ORIENTED_EDGE ( 'NONE', *, *, #360, .F. ) ;
#117 = DIRECTION ( 'NONE',  ( 0.000000000000000000, 0.000000000000000000, 1.000000000000000000 ) ) ;
#118 = VERTEX_POINT ( 'NONE', #190 ) ;
#119 = EDGE_CURVE ( 'NONE', #93, #351, #81, .T. ) ;
#120 = CARTESIAN_POINT ( 'NONE',  ( 0.000000000000000000, 0.000000000000000000, 7.000000000000000000 ) ) ;
#121 = ORIENTED_EDGE ( 'NONE', *, *, #256, .T. ) ;
#122 = ORIENTED_EDGE ( 'NONE', *, *, #290, .F. ) ;
#123 = AXIS2_PLACEMENT_3D ( 'NONE', #158, #74, #48 ) ;
#124 = AXIS2_PLACEMENT_3D ( 'NONE', #181, #42, #132 ) ;
#125 = DIRECTION ( 'NONE',  ( 1.000000000000000000, 0.000000000000000000, 0.000000000000000000 ) ) ;
#126 =( NAMED_UNIT ( * ) PLANE_ANGLE_UNIT ( ) SI_UNIT ( $, .RADIAN. ) );
#127 = ADVANCED_FACE ( 'NONE', ( #252, #167 ), #257, .F. ) ;
#128 = APPROVAL_DATE_TIME ( #40, #11 ) ;
#129 = ORIENTED_EDGE ( 'NONE', *, *, #360, .T. ) ;
#130 = EDGE_CURVE ( 'NONE', #293, #78, #22, .T. ) ;
#131 = CIRCLE ( 'NONE', #17, 4.250000000000000000 ) ;
#132 = DIRECTION ( 'NONE',  ( 1.000000000000000000, 0.000000000000000000, 0.000000000000000000 ) ) ;
#133 = ORIENTED_EDGE ( 'NONE', *, *, #304, .F. ) ;
#134 = ORIENTED_EDGE ( 'NONE', *, *, #374, .F. ) ;
#135 = AXIS2_PLACEMENT_3D ( 'NONE', #299, #232, #352 ) ;
#136 = DIRECTION ( 'NONE',  ( 1.000000000000000000, 0.000000000000000000, 0.000000000000000000 ) ) ;
#137 = UNCERTAINTY_MEASURE_WITH_UNIT (LENGTH_MEASURE( 1.000000000000000082E-05 ), #328, 'distance_accuracy_value', 'NONE');
#138 = CARTESIAN_POINT ( 'NONE',  ( 0.000000000000000000, 0.000000000000000000, 7.000000000000000000 ) ) ;
#139 = DIRECTION ( 'NONE',  ( 0.000000000000000000, 0.000000000000000000, 1.000000000000000000 ) ) ;
#140 = SHAPE_DEFINITION_REPRESENTATION ( #54, #101 ) ;
#141 = AXIS2_PLACEMENT_3D ( 'NONE', #143, #117, #170 ) ;
#142 = DIRECTION ( 'NONE',  ( 1.000000000000000000, 0.000000000000000000, -0.000000000000000000 ) ) ;
#143 = CARTESIAN_POINT ( 'NONE',  ( 0.000000000000000000, 0.000000000000000000, 282.0000000000000000 ) ) ;
#144 = ORIENTED_EDGE ( 'NONE', *, *, #310, .T. ) ;
#145 = FACE_BOUND ( 'NONE', #61, .T. ) ;
#146 = AXIS2_PLACEMENT_3D ( 'NONE', #115, #172, #55 ) ;
#147 = ADVANCED_FACE ( 'NONE', ( #224 ), #317, .F. ) ;
#148 = FACE_OUTER_BOUND ( 'NONE', #233, .T. ) ;
#149 = EDGE_CURVE ( 'NONE', #72, #93, #319, .T. ) ;
#150 = CYLINDRICAL_SURFACE ( 'NONE', #52, 10.00000000000000000 ) ;
#151 = ORIENTED_EDGE ( 'NONE', *, *, #149, .T. ) ;
#152 = APPROVAL_ROLE ( '' ) ;
#153 = AXIS2_PLACEMENT_3D ( 'NONE', #227, #139, #110 ) ;
#154 = LOCAL_TIME ( 16, 30, 43.00000000000000000, #215 ) ;
#155 = EDGE_CURVE ( 'NONE', #118, #68, #188, .T. ) ;
#156 = CARTESIAN_POINT ( 'NONE',  ( 0.000000000000000000, 0.000000000000000000, 7.699999999999985079 ) ) ;
#157 = APPLICATION_PROTOCOL_DEFINITION ( 'international standard', 'config_control_design', 1994, #316 ) ;
#158 = CARTESIAN_POINT ( 'NONE',  ( 0.000000000000000000, 0.000000000000000000, 282.0000000000000000 ) ) ;
#159 = AXIS2_PLACEMENT_3D ( 'NONE', #30, #263, #142 ) ;
#160 = APPROVAL_STATUS ( 'not_yet_approved' ) ;
#161 = PERSON_AND_ORGANIZATION_ROLE ( 'design_supplier' ) ;
#162 = ADVANCED_FACE ( 'NONE', ( #371 ), #372, .F. ) ;
#163 = DIRECTION ( 'NONE',  ( 0.000000000000000000, 0.000000000000000000, -1.000000000000000000 ) ) ;
#164 = CIRCLE ( 'NONE', #45, 6.000000000000000888 ) ;
#165 = CARTESIAN_POINT ( 'NONE',  ( 0.000000000000000000, 0.000000000000000000, 7.000000000000000000 ) ) ;
#166 = ADVANCED_FACE ( 'NONE', ( #340 ), #150, .T. ) ;
#167 = FACE_OUTER_BOUND ( 'NONE', #5, .T. ) ;
#168 = CYLINDRICAL_SURFACE ( 'NONE', #91, 10.00000000000000000 ) ;
#169 = APPROVAL ( #36, 'NEURÈENÝ' ) ;
#170 = DIRECTION ( 'NONE',  ( 1.000000000000000000, 0.000000000000000000, 0.000000000000000000 ) ) ;
#171 = AXIS2_PLACEMENT_3D ( 'NONE', #64, #295, #264 ) ;
#172 = DIRECTION ( 'NONE',  ( 0.000000000000000000, 0.000000000000000000, 1.000000000000000000 ) ) ;
#173 = VERTEX_POINT ( 'NONE', #202 ) ;
#174 = DIRECTION ( 'NONE',  ( 1.000000000000000000, 0.000000000000000000, 0.000000000000000000 ) ) ;
#175 = CIRCLE ( 'NONE', #141, 4.250000000000000000 ) ;
#176 = VERTEX_POINT ( 'NONE', #258 ) ;
#177 = EDGE_CURVE ( 'NONE', #68, #176, #243, .T. ) ;
#178 = DIRECTION ( 'NONE',  ( 1.000000000000000000, 0.000000000000000000, 0.000000000000000000 ) ) ;
#179 = ORIENTED_EDGE ( 'NONE', *, *, #343, .T. ) ;
#180 = DATE_AND_TIME ( #67, #154 ) ;
#181 = CARTESIAN_POINT ( 'NONE',  ( 0.000000000000000000, 0.000000000000000000, 0.000000000000000000 ) ) ;
#182 = COORDINATED_UNIVERSAL_TIME_OFFSET ( 1, 0, .AHEAD. ) ;
#183 = DIRECTION ( 'NONE',  ( -0.000000000000000000, -0.000000000000000000, -1.000000000000000000 ) ) ;
#184 = LINE ( 'NONE', #358, #111 ) ;
#185 = FACE_OUTER_BOUND ( 'NONE', #208, .T. ) ;
#186 = AXIS2_PLACEMENT_3D ( 'NONE', #99, #183, #362 ) ;
#187 = APPROVAL_DATE_TIME ( #377, #169 ) ;
#188 = LINE ( 'NONE', #379, #33 ) ;
#189 = ADVANCED_FACE ( 'NONE', ( #113 ), #288, .T. ) ;
#190 = CARTESIAN_POINT ( 'NONE',  ( 6.000000000000000888, 7.347880794884120722E-16, 282.0000000000000000 ) ) ;
#191 = CIRCLE ( 'NONE', #83, 10.00000000000000000 ) ;
#192 = PERSON_AND_ORGANIZATION ( #114, #3 ) ;
#193 = EDGE_CURVE ( 'NONE', #293, #198, #85, .T. ) ;
#194 = DIRECTION ( 'NONE',  ( -1.000000000000000000, 0.000000000000000000, 0.000000000000000000 ) ) ;
#195 = DIRECTION ( 'NONE',  ( -0.000000000000000000, -0.000000000000000000, -1.000000000000000000 ) ) ;
#196 = CARTESIAN_POINT ( 'NONE',  ( 0.000000000000000000, 0.000000000000000000, 282.0000000000000000 ) ) ;
#197 = AXIS2_PLACEMENT_3D ( 'NONE', #165, #247, #108 ) ;
#198 = VERTEX_POINT ( 'NONE', #354 ) ;
#199 = CARTESIAN_POINT ( 'NONE',  ( 0.000000000000000000, 0.000000000000000000, 7.000000000000000000 ) ) ;
#200 = ORIENTED_EDGE ( 'NONE', *, *, #256, .F. ) ;
#201 = EDGE_CURVE ( 'NONE', #239, #176, #218, .T. ) ;
#202 = CARTESIAN_POINT ( 'NONE',  ( -10.00000000000000000, 0.000000000000000000, 0.000000000000000000 ) ) ;
#203 = EDGE_LOOP ( 'NONE', ( #214, #151, #323, #9 ) ) ;
#204 = DIRECTION ( 'NONE',  ( -1.000000000000000000, 0.000000000000000000, 0.000000000000000000 ) ) ;
#205 = ORIENTED_EDGE ( 'NONE', *, *, #310, .F. ) ;
#206 = LOCAL_TIME ( 16, 30, 43.00000000000000000, #308 ) ;
#207 = DIRECTION ( 'NONE',  ( -0.000000000000000000, -0.000000000000000000, -1.000000000000000000 ) ) ;
#208 = EDGE_LOOP ( 'NONE', ( #211, #69, #134, #366 ) ) ;
#209 = DIRECTION ( 'NONE',  ( 0.000000000000000000, 0.000000000000000000, 1.000000000000000000 ) ) ;
#210 = CARTESIAN_POINT ( 'NONE',  ( -6.000000000000000888, 0.000000000000000000, 282.0000000000000000 ) ) ;
#211 = ORIENTED_EDGE ( 'NONE', *, *, #343, .F. ) ;
#212 = CC_DESIGN_APPROVAL ( #53, ( #365 ) ) ;
#213 = DIRECTION ( 'NONE',  ( -1.000000000000000000, 1.224646799147353454E-16, 0.000000000000000000 ) ) ;
#214 = ORIENTED_EDGE ( 'NONE', *, *, #361, .F. ) ;
#215 = COORDINATED_UNIVERSAL_TIME_OFFSET ( 1, 0, .AHEAD. ) ;
#216 = CYLINDRICAL_SURFACE ( 'NONE', #123, 6.000000000000000888 ) ;
#217 = ORIENTED_EDGE ( 'NONE', *, *, #155, .F. ) ;
#218 = CIRCLE ( 'NONE', #294, 6.700000000000001066 ) ;
#219 = PRODUCT_DEFINITION_FORMATION_WITH_SPECIFIED_SOURCE ( 'LIBOVOLNÝ', '', #109, .NOT_KNOWN. ) ;
#220 = CARTESIAN_POINT ( 'NONE',  ( -4.250000000000000000, 0.000000000000000000, 282.0000000000000000 ) ) ;
#221 = CC_DESIGN_PERSON_AND_ORGANIZATION_ASSIGNMENT ( #25, #161, ( #219 ) ) ;
#222 = EDGE_CURVE ( 'NONE', #7, #118, #56, .T. ) ;
#223 = APPROVAL_ROLE ( '' ) ;
#224 = FACE_OUTER_BOUND ( 'NONE', #348, .T. ) ;
#225 = AXIS2_PLACEMENT_3D ( 'NONE', #250, #373, #107 ) ;
#226 = LOCAL_TIME ( 16, 30, 43.00000000000000000, #50 ) ;
#227 = CARTESIAN_POINT ( 'NONE',  ( 0.000000000000000000, 0.000000000000000000, 282.0000000000000000 ) ) ;
#228 = DIRECTION ( 'NONE',  ( 1.000000000000000000, 0.000000000000000000, 0.000000000000000000 ) ) ;
#229 = EDGE_LOOP ( 'NONE', ( #59, #300, #242, #144 ) ) ;
#230 = DIRECTION ( 'NONE',  ( 1.000000000000000000, 0.000000000000000000, 0.000000000000000000 ) ) ;
#231 = AXIS2_PLACEMENT_3D ( 'NONE', #347, #8, #204 ) ;
#232 = DIRECTION ( 'NONE',  ( 0.000000000000000000, 0.000000000000000000, 1.000000000000000000 ) ) ;
#233 = EDGE_LOOP ( 'NONE', ( #339, #357 ) ) ;
#234 = DIRECTION ( 'NONE',  ( -0.000000000000000000, -0.000000000000000000, -1.000000000000000000 ) ) ;
#235 = VECTOR ( 'NONE', #58, 1000.000000000000000 ) ;
#236 = APPROVAL_PERSON_ORGANIZATION ( #342, #53, #223 ) ;
#237 = ORIENTED_EDGE ( 'NONE', *, *, #374, .T. ) ;
#238 = LINE ( 'NONE', #210, #349 ) ;
#239 = VERTEX_POINT ( 'NONE', #34 ) ;
#240 = CC_DESIGN_PERSON_AND_ORGANIZATION_ASSIGNMENT ( #273, #241, ( #66 ) ) ;
#241 = PERSON_AND_ORGANIZATION_ROLE ( 'creator' ) ;
#242 = ORIENTED_EDGE ( 'NONE', *, *, #97, .T. ) ;
#243 = CIRCLE ( 'NONE', #171, 0.7000000000000000666 ) ;
#244 = DIRECTION ( 'NONE',  ( 0.000000000000000000, 0.000000000000000000, -1.000000000000000000 ) ) ;
#245 = DIRECTION ( 'NONE',  ( 0.000000000000000000, 0.000000000000000000, 1.000000000000000000 ) ) ;
#246 = EDGE_LOOP ( 'NONE', ( #122, #327 ) ) ;
#247 = DIRECTION ( 'NONE',  ( 0.000000000000000000, 0.000000000000000000, 1.000000000000000000 ) ) ;
#248 = AXIS2_PLACEMENT_3D ( 'NONE', #283, #24, #18 ) ;
#249 = LOCAL_TIME ( 16, 30, 43.00000000000000000, #346 ) ;
#250 = CARTESIAN_POINT ( 'NONE',  ( 0.000000000000000000, 0.000000000000000000, 7.699999999999985079 ) ) ;
#251 = PERSON_AND_ORGANIZATION ( #114, #3 ) ;
#252 = FACE_BOUND ( 'NONE', #90, .T. ) ;
#253 = PERSON_AND_ORGANIZATION_ROLE ( 'classification_officer' ) ;
#254 = CARTESIAN_POINT ( 'NONE',  ( -6.000000000000000888, 0.000000000000000000, 7.699999999999985079 ) ) ;
#255 = AXIS2_PLACEMENT_3D ( 'NONE', #199, #60, #31 ) ;
#256 = EDGE_CURVE ( 'NONE', #271, #351, #364, .T. ) ;
#257 = PLANE ( 'NONE',  #63 ) ;
#258 = CARTESIAN_POINT ( 'NONE',  ( 6.700000000000001066, 0.000000000000000000, 6.999999999999992006 ) ) ;
#259 = CARTESIAN_POINT ( 'NONE',  ( 4.250000000000000000, 5.204748896376250699E-16, 0.000000000000000000 ) ) ;
#260 = EDGE_LOOP ( 'NONE', ( #100, #43, #381, #35 ) ) ;
#261 = AXIS2_PLACEMENT_3D ( 'NONE', #306, #301, #326 ) ;
#262 = PLANE ( 'NONE',  #312 ) ;
#263 = DIRECTION ( 'NONE',  ( 0.000000000000000000, 0.000000000000000000, 1.000000000000000000 ) ) ;
#264 = DIRECTION ( 'NONE',  ( 0.000000000000000000, 0.000000000000000000, -1.000000000000000000 ) ) ;
#265 = ORIENTED_EDGE ( 'NONE', *, *, #130, .T. ) ;
#266 = DIRECTION ( 'NONE',  ( 1.224646799147353207E-16, 1.000000000000000000, -0.000000000000000000 ) ) ;
#267 = ORIENTED_EDGE ( 'NONE', *, *, #155, .T. ) ;
#268 = DESIGN_CONTEXT ( 'detailed design', #298, 'design' ) ;
#269 = CARTESIAN_POINT ( 'NONE',  ( 0.000000000000000000, 0.000000000000000000, 7.699999999999985079 ) ) ;
#270 = APPLICATION_PROTOCOL_DEFINITION ( 'international standard', 'config_control_design', 1994, #298 ) ;
#271 = VERTEX_POINT ( 'NONE', #259 ) ;
#272 = ADVANCED_FACE ( 'NONE', ( #145, #82 ), #262, .T. ) ;
#273 = PERSON_AND_ORGANIZATION ( #114, #3 ) ;
#274 = CARTESIAN_POINT ( 'NONE',  ( 0.000000000000000000, 0.000000000000000000, 282.0000000000000000 ) ) ;
#275 = CIRCLE ( 'NONE', #307, 6.000000000000000888 ) ;
#276 = CARTESIAN_POINT ( 'NONE',  ( -4.250000000000000000, 0.000000000000000000, 0.000000000000000000 ) ) ;
#277 = ORIENTED_EDGE ( 'NONE', *, *, #376, .F. ) ;
#278 = CALENDAR_DATE ( 2022, 8, 7 ) ;
#279 = CARTESIAN_POINT ( 'NONE',  ( -10.00000000000000000, 0.000000000000000000, 7.000000000000000000 ) ) ;
#280 = CALENDAR_DATE ( 2022, 8, 7 ) ;
#281 =( GEOMETRIC_REPRESENTATION_CONTEXT ( 3 ) GLOBAL_UNCERTAINTY_ASSIGNED_CONTEXT ( ( #137 ) ) GLOBAL_UNIT_ASSIGNED_CONTEXT ( ( #328, #126, #334 ) ) REPRESENTATION_CONTEXT ( 'NONE', 'WORKASPACE' ) );
#282 = EDGE_CURVE ( 'NONE', #68, #86, #2, .T. ) ;
#283 = CARTESIAN_POINT ( 'NONE',  ( 0.000000000000000000, 0.000000000000000000, 282.0000000000000000 ) ) ;
#284 = ADVANCED_FACE ( 'NONE', ( #292, #148 ), #291, .T. ) ;
#285 = APPROVAL_STATUS ( 'not_yet_approved' ) ;
#286 = DIRECTION ( 'NONE',  ( -0.000000000000000000, -0.000000000000000000, -1.000000000000000000 ) ) ;
#287 = CIRCLE ( 'NONE', #10, 0.7000000000000000666 ) ;
#288 = CYLINDRICAL_SURFACE ( 'NONE', #231, 6.000000000000000888 ) ;
#289 = CC_DESIGN_DATE_AND_TIME_ASSIGNMENT ( #180, #16, ( #66 ) ) ;
#290 = EDGE_CURVE ( 'NONE', #93, #72, #175, .T. ) ;
#291 = PLANE ( 'NONE',  #159 ) ;
#292 = FACE_BOUND ( 'NONE', #246, .T. ) ;
#293 = VERTEX_POINT ( 'NONE', #28 ) ;
#294 = AXIS2_PLACEMENT_3D ( 'NONE', #356, #380, #174 ) ;
#295 = DIRECTION ( 'NONE',  ( 0.000000000000000000, -1.000000000000000000, 0.000000000000000000 ) ) ;
#296 = CC_DESIGN_APPROVAL ( #11, ( #66 ) ) ;
#297 = ORIENTED_EDGE ( 'NONE', *, *, #318, .T. ) ;
#298 = APPLICATION_CONTEXT ( 'configuration controlled 3d designs of mechanical parts and assemblies' ) ;
#299 = CARTESIAN_POINT ( 'NONE',  ( 0.000000000000000000, 0.000000000000000000, 0.000000000000000000 ) ) ;
#300 = ORIENTED_EDGE ( 'NONE', *, *, #318, .F. ) ;
#301 = DIRECTION ( 'NONE',  ( 0.000000000000000000, 0.000000000000000000, -1.000000000000000000 ) ) ;
#302 = MECHANICAL_CONTEXT ( 'NONE', #316, 'mechanical' ) ;
#303 = CIRCLE ( 'NONE', #135, 10.00000000000000000 ) ;
#304 = EDGE_CURVE ( 'NONE', #351, #271, #131, .T. ) ;
#305 = ORIENTED_EDGE ( 'NONE', *, *, #361, .T. ) ;
#306 = CARTESIAN_POINT ( 'NONE',  ( 0.000000000000000000, 0.000000000000000000, 282.0000000000000000 ) ) ;
#307 = AXIS2_PLACEMENT_3D ( 'NONE', #269, #12, #125 ) ;
#308 = COORDINATED_UNIVERSAL_TIME_OFFSET ( 1, 0, .AHEAD. ) ;
#309 = ORIENTED_EDGE ( 'NONE', *, *, #21, .F. ) ;
#310 = EDGE_CURVE ( 'NONE', #173, #198, #191, .T. ) ;
#311 = CARTESIAN_POINT ( 'NONE',  ( 0.000000000000000000, 0.000000000000000000, 0.000000000000000000 ) ) ;
#312 = AXIS2_PLACEMENT_3D ( 'NONE', #87, #320, #4 ) ;
#313 = LOCAL_TIME ( 16, 30, 43.00000000000000000, #182 ) ;
#314 = DIRECTION ( 'NONE',  ( -0.000000000000000000, -0.000000000000000000, -1.000000000000000000 ) ) ;
#315 = MANIFOLD_SOLID_BREP ( 'Odebrat vysunutím3', #378 ) ;
#316 = APPLICATION_CONTEXT ( 'configuration controlled 3d designs of mechanical parts and assemblies' ) ;
#317 = CYLINDRICAL_SURFACE ( 'NONE', #248, 4.250000000000000000 ) ;
#318 = EDGE_CURVE ( 'NONE', #78, #293, #27, .T. ) ;
#319 = CIRCLE ( 'NONE', #153, 4.250000000000000000 ) ;
#320 = DIRECTION ( 'NONE',  ( 0.000000000000000000, 0.000000000000000000, 1.000000000000000000 ) ) ;
#321 = CARTESIAN_POINT ( 'NONE',  ( 10.00000000000000000, 1.224646799147353256E-15, 7.000000000000000000 ) ) ;
#322 = DIRECTION ( 'NONE',  ( -1.000000000000000000, 0.000000000000000000, 0.000000000000000000 ) ) ;
#323 = ORIENTED_EDGE ( 'NONE', *, *, #119, .T. ) ;
#324 = DIRECTION ( 'NONE',  ( -0.000000000000000000, -0.000000000000000000, -1.000000000000000000 ) ) ;
#325 = ORIENTED_EDGE ( 'NONE', *, *, #222, .F. ) ;
#326 = DIRECTION ( 'NONE',  ( -1.000000000000000000, 0.000000000000000000, 0.000000000000000000 ) ) ;
#327 = ORIENTED_EDGE ( 'NONE', *, *, #149, .F. ) ;
#328 =( LENGTH_UNIT ( ) NAMED_UNIT ( * ) SI_UNIT ( .MILLI., .METRE. ) );
#329 = FACE_OUTER_BOUND ( 'NONE', #41, .T. ) ;
#330 = PRODUCT_RELATED_PRODUCT_CATEGORY ( 'detail', '', ( #109 ) ) ;
#331 = EDGE_CURVE ( 'NONE', #198, #173, #303, .T. ) ;
#332 = AXIS2_PLACEMENT_3D ( 'NONE', #156, #209, #136 ) ;
#333 = EDGE_LOOP ( 'NONE', ( #277, #65, #353, #370 ) ) ;
#334 =( NAMED_UNIT ( * ) SI_UNIT ( $, .STERADIAN. ) SOLID_ANGLE_UNIT ( ) );
#335 = CARTESIAN_POINT ( 'NONE',  ( -6.000000000000000888, 0.000000000000000000, 282.0000000000000000 ) ) ;
#336 = PERSON_AND_ORGANIZATION ( #114, #3 ) ;
#337 = ORIENTED_EDGE ( 'NONE', *, *, #201, .T. ) ;
#338 = SECURITY_CLASSIFICATION_LEVEL ( 'unclassified' ) ;
#339 = ORIENTED_EDGE ( 'NONE', *, *, #222, .T. ) ;
#340 = FACE_OUTER_BOUND ( 'NONE', #260, .T. ) ;
#341 = DATE_AND_TIME ( #375, #206 ) ;
#342 = PERSON_AND_ORGANIZATION ( #114, #3 ) ;
#343 = EDGE_CURVE ( 'NONE', #86, #68, #275, .T. ) ;
#344 = CARTESIAN_POINT ( 'NONE',  ( 4.250000000000000000, 5.204748896376250699E-16, 282.0000000000000000 ) ) ;
#345 = TOROIDAL_SURFACE ( 'NONE', #332, 6.700000000000001066, 0.6999999999999999556 ) ;
#346 = COORDINATED_UNIVERSAL_TIME_OFFSET ( 1, 0, .AHEAD. ) ;
#347 = CARTESIAN_POINT ( 'NONE',  ( 0.000000000000000000, 0.000000000000000000, 282.0000000000000000 ) ) ;
#348 = EDGE_LOOP ( 'NONE', ( #37, #305, #121, #32 ) ) ;
#349 = VECTOR ( 'NONE', #14, 1000.000000000000000 ) ;
#350 = CARTESIAN_POINT ( 'NONE',  ( 0.000000000000000000, 0.000000000000000000, 0.000000000000000000 ) ) ;
#351 = VERTEX_POINT ( 'NONE', #276 ) ;
#352 = DIRECTION ( 'NONE',  ( 1.000000000000000000, 0.000000000000000000, 0.000000000000000000 ) ) ;
#353 = ORIENTED_EDGE ( 'NONE', *, *, #177, .T. ) ;
#354 = CARTESIAN_POINT ( 'NONE',  ( 10.00000000000000000, 1.224646799147353256E-15, 0.000000000000000000 ) ) ;
#355 = CIRCLE ( 'NONE', #186, 6.700000000000001066 ) ;
#356 = CARTESIAN_POINT ( 'NONE',  ( 0.000000000000000000, 0.000000000000000000, 7.000000000000000000 ) ) ;
#357 = ORIENTED_EDGE ( 'NONE', *, *, #21, .T. ) ;
#358 = CARTESIAN_POINT ( 'NONE',  ( 4.250000000000000000, 5.204748896376250699E-16, 282.0000000000000000 ) ) ;
#359 = ORIENTED_EDGE ( 'NONE', *, *, #282, .T. ) ;
#360 = EDGE_CURVE ( 'NONE', #7, #86, #238, .T. ) ;
#361 = EDGE_CURVE ( 'NONE', #72, #271, #184, .T. ) ;
#362 = DIRECTION ( 'NONE',  ( 1.000000000000000000, 0.000000000000000000, 0.000000000000000000 ) ) ;
#363 = FACE_OUTER_BOUND ( 'NONE', #203, .T. ) ;
#364 = CIRCLE ( 'NONE', #96, 4.250000000000000000 ) ;
#365 = SECURITY_CLASSIFICATION ( '', '', #338 ) ;
#366 = ORIENTED_EDGE ( 'NONE', *, *, #177, .F. ) ;
#367 = EDGE_LOOP ( 'NONE', ( #217, #325, #129, #179 ) ) ;
#368 = APPROVAL_ROLE ( '' ) ;
#369 = ADVANCED_FACE ( 'NONE', ( #363 ), #75, .F. ) ;
#370 = ORIENTED_EDGE ( 'NONE', *, *, #201, .F. ) ;
#371 = FACE_OUTER_BOUND ( 'NONE', #333, .T. ) ;
#372 = TOROIDAL_SURFACE ( 'NONE', #225, 6.700000000000001066, 0.6999999999999999556 ) ;
#373 = DIRECTION ( 'NONE',  ( 0.000000000000000000, 0.000000000000000000, 1.000000000000000000 ) ) ;
#374 = EDGE_CURVE ( 'NONE', #176, #239, #355, .T. ) ;
#375 = CALENDAR_DATE ( 2022, 8, 7 ) ;
#376 = EDGE_CURVE ( 'NONE', #86, #239, #287, .T. ) ;
#377 = DATE_AND_TIME ( #280, #249 ) ;
#378 = CLOSED_SHELL ( 'NONE', ( #147, #49, #20, #166, #95, #272, #127, #189, #284, #162, #369 ) ) ;
#379 = CARTESIAN_POINT ( 'NONE',  ( 6.000000000000000888, 7.347880794884120722E-16, 282.0000000000000000 ) ) ;
#380 = DIRECTION ( 'NONE',  ( -0.000000000000000000, -0.000000000000000000, -1.000000000000000000 ) ) ;
#381 = ORIENTED_EDGE ( 'NONE', *, *, #331, .T. ) ;
ENDSEC;
END-ISO-10303-21;
