ISO-10303-21;
HEADER;
FILE_DESCRIPTION (( 'STEP AP203' ),
    '1' );
FILE_NAME ('30c8.STEP',
    '2022-07-08T14:40:40',
    ( '' ),
    ( '' ),
    'SwSTEP 2.0',
    'SolidWorks 2019',
    '' );
FILE_SCHEMA (( 'CONFIG_CONTROL_DESIGN' ));
ENDSEC;

DATA;
#1 = APPLICATION_CONTEXT ( 'configuration controlled 3d designs of mechanical parts and assemblies' ) ;
#2 = MECHANICAL_CONTEXT ( 'NONE', #176, 'mechanical' ) ;
#3 = APPROVAL_ROLE ( '' ) ;
#4 = PRODUCT ( '30c8', '30c8', '', ( #2 ) ) ;
#5 = AXIS2_PLACEMENT_3D ( 'NONE', #297, #117, #293 ) ;
#6 = APPLICATION_PROTOCOL_DEFINITION ( 'international standard', 'config_control_design', 1994, #1 ) ;
#7 = PERSON_AND_ORGANIZATION ( #250, #180 ) ;
#8 = ORIENTED_EDGE ( 'NONE', *, *, #32, .T. ) ;
#9 = ORIENTED_EDGE ( 'NONE', *, *, #308, .T. ) ;
#10 = DIRECTION ( 'NONE',  ( -0.000000000000000000, -0.000000000000000000, -1.000000000000000000 ) ) ;
#11 = CARTESIAN_POINT ( 'NONE',  ( 0.000000000000000000, 0.000000000000000000, 0.000000000000000000 ) ) ;
#12 = CARTESIAN_POINT ( 'NONE',  ( 0.000000000000000000, 0.000000000000000000, 707.0000000000000000 ) ) ;
#13 = EDGE_LOOP ( 'NONE', ( #72, #318 ) ) ;
#14 = DIRECTION ( 'NONE',  ( 1.000000000000000000, 0.000000000000000000, 0.000000000000000000 ) ) ;
#15 = EDGE_LOOP ( 'NONE', ( #175, #199, #68, #314 ) ) ;
#16 = DIRECTION ( 'NONE',  ( 1.000000000000000000, 0.000000000000000000, 0.000000000000000000 ) ) ;
#17 = ADVANCED_BREP_SHAPE_REPRESENTATION ( '30c8', ( #209, #65 ), #159 ) ;
#18 = ORIENTED_EDGE ( 'NONE', *, *, #42, .T. ) ;
#19 = DIRECTION ( 'NONE',  ( -1.000000000000000000, 1.224646799147351482E-16, 0.000000000000000000 ) ) ;
#20 = CIRCLE ( 'NONE', #233, 3.250000000000000444 ) ;
#21 = LOCAL_TIME ( 16, 40, 40.00000000000000000, #31 ) ;
#22 = ADVANCED_FACE ( 'NONE', ( #49 ), #215, .F. ) ;
#23 = DIRECTION ( 'NONE',  ( 1.000000000000000000, 0.000000000000000000, 0.000000000000000000 ) ) ;
#24 = PLANE ( 'NONE',  #226 ) ;
#25 = FACE_OUTER_BOUND ( 'NONE', #137, .T. ) ;
#26 = CIRCLE ( 'NONE', #273, 6.500000000000000888 ) ;
#27 = AXIS2_PLACEMENT_3D ( 'NONE', #183, #238, #23 ) ;
#28 = FACE_BOUND ( 'NONE', #249, .T. ) ;
#29 = PERSON_AND_ORGANIZATION ( #250, #180 ) ;
#30 = APPROVAL_DATE_TIME ( #299, #190 ) ;
#31 = COORDINATED_UNIVERSAL_TIME_OFFSET ( 1, 0, .AHEAD. ) ;
#32 = EDGE_CURVE ( 'NONE', #131, #54, #231, .T. ) ;
#33 = PERSON_AND_ORGANIZATION ( #250, #180 ) ;
#34 = ADVANCED_FACE ( 'NONE', ( #112 ), #234, .T. ) ;
#35 = ORIENTED_EDGE ( 'NONE', *, *, #236, .T. ) ;
#36 = APPROVAL_DATE_TIME ( #100, #278 ) ;
#37 = EDGE_CURVE ( 'NONE', #288, #157, #114, .T. ) ;
#38 = ORIENTED_EDGE ( 'NONE', *, *, #84, .F. ) ;
#39 = AXIS2_PLACEMENT_3D ( 'NONE', #115, #348, #121 ) ;
#40 = DIRECTION ( 'NONE',  ( 0.000000000000000000, 0.000000000000000000, 1.000000000000000000 ) ) ;
#41 = VERTEX_POINT ( 'NONE', #172 ) ;
#42 = EDGE_CURVE ( 'NONE', #197, #157, #261, .T. ) ;
#43 = CARTESIAN_POINT ( 'NONE',  ( -10.00000000000000000, 0.000000000000000000, 7.000000000000000000 ) ) ;
#44 = ORIENTED_EDGE ( 'NONE', *, *, #92, .T. ) ;
#45 = CARTESIAN_POINT ( 'NONE',  ( 3.250000000000000444, 3.980102097228897245E-16, 0.000000000000000000 ) ) ;
#46 = ORIENTED_EDGE ( 'NONE', *, *, #358, .F. ) ;
#47 = AXIS2_PLACEMENT_3D ( 'NONE', #341, #71, #228 ) ;
#48 = CARTESIAN_POINT ( 'NONE',  ( 6.500000000000000888, 0.000000000000000000, 6.999999999999975131 ) ) ;
#49 = FACE_OUTER_BOUND ( 'NONE', #227, .T. ) ;
#50 = CARTESIAN_POINT ( 'NONE',  ( 0.000000000000000000, 0.000000000000000000, 707.0000000000000000 ) ) ;
#51 = ADVANCED_FACE ( 'NONE', ( #141 ), #163, .T. ) ;
#52 = DIRECTION ( 'NONE',  ( 0.000000000000000000, 0.000000000000000000, 1.000000000000000000 ) ) ;
#53 = CARTESIAN_POINT ( 'NONE',  ( -6.000000000000000888, 0.000000000000000000, 707.0000000000000000 ) ) ;
#54 = VERTEX_POINT ( 'NONE', #45 ) ;
#55 = CIRCLE ( 'NONE', #366, 6.000000000000000888 ) ;
#56 = FACE_OUTER_BOUND ( 'NONE', #258, .T. ) ;
#57 = EDGE_CURVE ( 'NONE', #41, #277, #135, .T. ) ;
#58 = CARTESIAN_POINT ( 'NONE',  ( 0.000000000000000000, 0.000000000000000000, 7.000000000000000000 ) ) ;
#59 = CARTESIAN_POINT ( 'NONE',  ( -3.250000000000000444, 0.000000000000000000, 0.000000000000000000 ) ) ;
#60 = APPROVAL_PERSON_ORGANIZATION ( #29, #190, #3 ) ;
#61 = APPROVAL ( #129, 'NEURÈENÝ' ) ;
#62 = DATE_TIME_ROLE ( 'classification_date' ) ;
#63 = DATE_AND_TIME ( #324, #362 ) ;
#64 =( NAMED_UNIT ( * ) SI_UNIT ( $, .STERADIAN. ) SOLID_ANGLE_UNIT ( ) );
#65 = AXIS2_PLACEMENT_3D ( 'NONE', #69, #244, #189 ) ;
#66 = APPLICATION_PROTOCOL_DEFINITION ( 'international standard', 'config_control_design', 1994, #176 ) ;
#67 = CC_DESIGN_PERSON_AND_ORGANIZATION_ASSIGNMENT ( #158, #94, ( #127 ) ) ;
#68 = ORIENTED_EDGE ( 'NONE', *, *, #178, .T. ) ;
#69 = CARTESIAN_POINT ( 'NONE',  ( 0.000000000000000000, 0.000000000000000000, 0.000000000000000000 ) ) ;
#70 = EDGE_LOOP ( 'NONE', ( #46, #18, #173, #304 ) ) ;
#71 = DIRECTION ( 'NONE',  ( 0.000000000000000000, 0.000000000000000000, -1.000000000000000000 ) ) ;
#72 = ORIENTED_EDGE ( 'NONE', *, *, #128, .T. ) ;
#73 = AXIS2_PLACEMENT_3D ( 'NONE', #335, #198, #282 ) ;
#74 = CIRCLE ( 'NONE', #356, 3.250000000000000444 ) ;
#75 = CARTESIAN_POINT ( 'NONE',  ( -3.250000000000000444, 0.000000000000000000, 707.0000000000000000 ) ) ;
#76 = ORIENTED_EDGE ( 'NONE', *, *, #178, .F. ) ;
#77 = CYLINDRICAL_SURFACE ( 'NONE', #255, 6.000000000000000888 ) ;
#78 = CARTESIAN_POINT ( 'NONE',  ( 0.000000000000000000, 0.000000000000000000, 7.499999999999951150 ) ) ;
#79 = PRODUCT_DEFINITION_SHAPE ( 'NONE', 'NONE',  #204 ) ;
#80 = DIRECTION ( 'NONE',  ( 1.000000000000000000, 0.000000000000000000, 0.000000000000000000 ) ) ;
#81 = DIRECTION ( 'NONE',  ( 1.000000000000000000, 0.000000000000000000, 0.000000000000000000 ) ) ;
#82 = DIRECTION ( 'NONE',  ( -0.000000000000000000, -0.000000000000000000, -1.000000000000000000 ) ) ;
#83 = CARTESIAN_POINT ( 'NONE',  ( -6.500000000000000888, 7.960204194457796463E-16, 6.999999999999975131 ) ) ;
#84 = EDGE_CURVE ( 'NONE', #131, #331, #327, .T. ) ;
#85 = ORIENTED_EDGE ( 'NONE', *, *, #308, .F. ) ;
#86 = CARTESIAN_POINT ( 'NONE',  ( 0.000000000000000000, 0.000000000000000000, 0.000000000000000000 ) ) ;
#87 = EDGE_CURVE ( 'NONE', #275, #171, #26, .T. ) ;
#88 = FACE_BOUND ( 'NONE', #262, .T. ) ;
#89 = FACE_OUTER_BOUND ( 'NONE', #333, .T. ) ;
#90 = LINE ( 'NONE', #379, #146 ) ;
#91 = COORDINATED_UNIVERSAL_TIME_OFFSET ( 1, 0, .AHEAD. ) ;
#92 = EDGE_CURVE ( 'NONE', #277, #338, #380, .T. ) ;
#93 = AXIS2_PLACEMENT_3D ( 'NONE', #133, #252, #106 ) ;
#94 = PERSON_AND_ORGANIZATION_ROLE ( 'design_supplier' ) ;
#95 = PERSON_AND_ORGANIZATION_ROLE ( 'design_owner' ) ;
#96 = SHAPE_DEFINITION_REPRESENTATION ( #79, #17 ) ;
#97 = AXIS2_PLACEMENT_3D ( 'NONE', #78, #201, #165 ) ;
#98 = AXIS2_PLACEMENT_3D ( 'NONE', #210, #174, #19 ) ;
#99 = ADVANCED_FACE ( 'NONE', ( #285 ), #280, .F. ) ;
#100 = DATE_AND_TIME ( #357, #186 ) ;
#101 = ORIENTED_EDGE ( 'NONE', *, *, #57, .T. ) ;
#102 = DIRECTION ( 'NONE',  ( 0.000000000000000000, 0.000000000000000000, 1.000000000000000000 ) ) ;
#103 = EDGE_CURVE ( 'NONE', #195, #197, #220, .T. ) ;
#104 = AXIS2_PLACEMENT_3D ( 'NONE', #345, #82, #205 ) ;
#105 = ORIENTED_EDGE ( 'NONE', *, *, #128, .F. ) ;
#106 = DIRECTION ( 'NONE',  ( 1.000000000000000000, 0.000000000000000000, 0.000000000000000000 ) ) ;
#107 = EDGE_CURVE ( 'NONE', #338, #277, #269, .T. ) ;
#108 = ORIENTED_EDGE ( 'NONE', *, *, #300, .T. ) ;
#109 = CARTESIAN_POINT ( 'NONE',  ( 0.000000000000000000, 0.000000000000000000, 7.000000000000000000 ) ) ;
#110 = ORIENTED_EDGE ( 'NONE', *, *, #200, .F. ) ;
#111 = CARTESIAN_POINT ( 'NONE',  ( 0.000000000000000000, 0.000000000000000000, 0.000000000000000000 ) ) ;
#112 = FACE_OUTER_BOUND ( 'NONE', #224, .T. ) ;
#113 = DESIGN_CONTEXT ( 'detailed design', #1, 'design' ) ;
#114 = CIRCLE ( 'NONE', #125, 10.00000000000000000 ) ;
#115 = CARTESIAN_POINT ( 'NONE',  ( 0.000000000000000000, 0.000000000000000000, 707.0000000000000000 ) ) ;
#116 = ORIENTED_EDGE ( 'NONE', *, *, #300, .F. ) ;
#117 = DIRECTION ( 'NONE',  ( 0.000000000000000000, 0.000000000000000000, 1.000000000000000000 ) ) ;
#118 = CARTESIAN_POINT ( 'NONE',  ( 0.000000000000000000, 0.000000000000000000, 707.0000000000000000 ) ) ;
#119 = VECTOR ( 'NONE', #339, 1000.000000000000000 ) ;
#120 = LOCAL_TIME ( 16, 40, 40.00000000000000000, #360 ) ;
#121 = DIRECTION ( 'NONE',  ( 1.000000000000000000, 0.000000000000000000, 0.000000000000000000 ) ) ;
#122 = ADVANCED_FACE ( 'NONE', ( #143 ), #77, .T. ) ;
#123 = PERSON_AND_ORGANIZATION ( #250, #180 ) ;
#124 = COORDINATED_UNIVERSAL_TIME_OFFSET ( 1, 0, .AHEAD. ) ;
#125 = AXIS2_PLACEMENT_3D ( 'NONE', #316, #52, #144 ) ;
#126 = AXIS2_PLACEMENT_3D ( 'NONE', #111, #196, #81 ) ;
#127 = PRODUCT_DEFINITION_FORMATION_WITH_SPECIFIED_SOURCE ( 'LIBOVOLNÝ', '', #4, .NOT_KNOWN. ) ;
#128 = EDGE_CURVE ( 'NONE', #171, #275, #320, .T. ) ;
#129 = APPROVAL_STATUS ( 'not_yet_approved' ) ;
#130 = APPROVAL_PERSON_ORGANIZATION ( #7, #61, #221 ) ;
#131 = VERTEX_POINT ( 'NONE', #313 ) ;
#132 = ORIENTED_EDGE ( 'NONE', *, *, #368, .T. ) ;
#133 = CARTESIAN_POINT ( 'NONE',  ( 0.000000000000000000, 0.000000000000000000, 7.499999999999951150 ) ) ;
#134 = UNCERTAINTY_MEASURE_WITH_UNIT (LENGTH_MEASURE( 1.000000000000000082E-05 ), #294, 'distance_accuracy_value', 'NONE');
#135 = LINE ( 'NONE', #230, #136 ) ;
#136 = VECTOR ( 'NONE', #10, 1000.000000000000000 ) ;
#137 = EDGE_LOOP ( 'NONE', ( #9, #191 ) ) ;
#138 = LINE ( 'NONE', #75, #291 ) ;
#139 = ORIENTED_EDGE ( 'NONE', *, *, #370, .T. ) ;
#140 = CC_DESIGN_DATE_AND_TIME_ASSIGNMENT ( #155, #274, ( #204 ) ) ;
#141 = FACE_OUTER_BOUND ( 'NONE', #377, .T. ) ;
#142 = CARTESIAN_POINT ( 'NONE',  ( 3.250000000000000444, 3.980102097228897245E-16, 707.0000000000000000 ) ) ;
#143 = FACE_OUTER_BOUND ( 'NONE', #284, .T. ) ;
#144 = DIRECTION ( 'NONE',  ( 1.000000000000000000, 0.000000000000000000, 0.000000000000000000 ) ) ;
#145 = CIRCLE ( 'NONE', #126, 3.250000000000000444 ) ;
#146 = VECTOR ( 'NONE', #206, 1000.000000000000000 ) ;
#147 = CC_DESIGN_PERSON_AND_ORGANIZATION_ASSIGNMENT ( #330, #154, ( #127 ) ) ;
#148 = DIRECTION ( 'NONE',  ( -0.000000000000000000, -0.000000000000000000, -1.000000000000000000 ) ) ;
#149 = DIRECTION ( 'NONE',  ( 0.000000000000000000, 0.000000000000000000, -1.000000000000000000 ) ) ;
#150 = VECTOR ( 'NONE', #374, 1000.000000000000000 ) ;
#151 = CARTESIAN_POINT ( 'NONE',  ( 6.000000000000000888, 7.347880794884120722E-16, 7.499999999999951150 ) ) ;
#152 = CC_DESIGN_APPROVAL ( #61, ( #127 ) ) ;
#153 = PLANE ( 'NONE',  #334 ) ;
#154 = PERSON_AND_ORGANIZATION_ROLE ( 'creator' ) ;
#155 = DATE_AND_TIME ( #325, #120 ) ;
#156 = PERSON_AND_ORGANIZATION_ROLE ( 'classification_officer' ) ;
#157 = VERTEX_POINT ( 'NONE', #375 ) ;
#158 = PERSON_AND_ORGANIZATION ( #250, #180 ) ;
#159 =( GEOMETRIC_REPRESENTATION_CONTEXT ( 3 ) GLOBAL_UNCERTAINTY_ASSIGNED_CONTEXT ( ( #134 ) ) GLOBAL_UNIT_ASSIGNED_CONTEXT ( ( #294, #322, #64 ) ) REPRESENTATION_CONTEXT ( 'NONE', 'WORKASPACE' ) );
#160 = ORIENTED_EDGE ( 'NONE', *, *, #37, .T. ) ;
#161 = DIRECTION ( 'NONE',  ( 1.000000000000000000, 0.000000000000000000, 0.000000000000000000 ) ) ;
#162 = VERTEX_POINT ( 'NONE', #306 ) ;
#163 = CYLINDRICAL_SURFACE ( 'NONE', #167, 10.00000000000000000 ) ;
#164 = ORIENTED_EDGE ( 'NONE', *, *, #103, .T. ) ;
#165 = DIRECTION ( 'NONE',  ( 1.000000000000000000, 0.000000000000000000, 0.000000000000000000 ) ) ;
#166 = CC_DESIGN_PERSON_AND_ORGANIZATION_ASSIGNMENT ( #216, #247, ( #204 ) ) ;
#167 = AXIS2_PLACEMENT_3D ( 'NONE', #109, #223, #367 ) ;
#168 = CC_DESIGN_APPROVAL ( #190, ( #381 ) ) ;
#169 = DIRECTION ( 'NONE',  ( 0.000000000000000000, 0.000000000000000000, -1.000000000000000000 ) ) ;
#170 = EDGE_CURVE ( 'NONE', #331, #131, #20, .T. ) ;
#171 = VERTEX_POINT ( 'NONE', #48 ) ;
#172 = CARTESIAN_POINT ( 'NONE',  ( 6.000000000000000888, 7.347880794884120722E-16, 707.0000000000000000 ) ) ;
#173 = ORIENTED_EDGE ( 'NONE', *, *, #200, .T. ) ;
#174 = DIRECTION ( 'NONE',  ( 1.224646799147353207E-16, 1.000000000000000000, -0.000000000000000000 ) ) ;
#175 = ORIENTED_EDGE ( 'NONE', *, *, #32, .F. ) ;
#176 = APPLICATION_CONTEXT ( 'configuration controlled 3d designs of mechanical parts and assemblies' ) ;
#177 = AXIS2_PLACEMENT_3D ( 'NONE', #11, #373, #315 ) ;
#178 = EDGE_CURVE ( 'NONE', #331, #260, #138, .T. ) ;
#179 = CIRCLE ( 'NONE', #98, 0.5000000000000004441 ) ;
#180 = ORGANIZATION ( 'NEURÈENÝ', 'NEURÈENÝ', '' ) ;
#181 = CARTESIAN_POINT ( 'NONE',  ( 0.000000000000000000, 0.000000000000000000, 707.0000000000000000 ) ) ;
#182 = CARTESIAN_POINT ( 'NONE',  ( 0.000000000000000000, 0.000000000000000000, 7.000000000000000000 ) ) ;
#183 = CARTESIAN_POINT ( 'NONE',  ( 0.000000000000000000, 0.000000000000000000, 7.499999999999951150 ) ) ;
#184 = AXIS2_PLACEMENT_3D ( 'NONE', #365, #102, #16 ) ;
#185 = FACE_BOUND ( 'NONE', #13, .T. ) ;
#186 = LOCAL_TIME ( 16, 40, 40.00000000000000000, #303 ) ;
#187 = SECURITY_CLASSIFICATION_LEVEL ( 'unclassified' ) ;
#188 = ORIENTED_EDGE ( 'NONE', *, *, #370, .F. ) ;
#189 = DIRECTION ( 'NONE',  ( 1.000000000000000000, 0.000000000000000000, 0.000000000000000000 ) ) ;
#190 = APPROVAL ( #272, 'NEURÈENÝ' ) ;
#191 = ORIENTED_EDGE ( 'NONE', *, *, #256, .T. ) ;
#192 = CARTESIAN_POINT ( 'NONE',  ( 0.000000000000000000, 0.000000000000000000, 7.000000000000000000 ) ) ;
#193 = AXIS2_PLACEMENT_3D ( 'NONE', #232, #343, #203 ) ;
#194 = VECTOR ( 'NONE', #214, 1000.000000000000000 ) ;
#195 = VERTEX_POINT ( 'NONE', #43 ) ;
#196 = DIRECTION ( 'NONE',  ( -0.000000000000000000, -0.000000000000000000, -1.000000000000000000 ) ) ;
#197 = VERTEX_POINT ( 'NONE', #279 ) ;
#198 = DIRECTION ( 'NONE',  ( -0.000000000000000000, -0.000000000000000000, -1.000000000000000000 ) ) ;
#199 = ORIENTED_EDGE ( 'NONE', *, *, #84, .T. ) ;
#200 = EDGE_CURVE ( 'NONE', #157, #288, #276, .T. ) ;
#201 = DIRECTION ( 'NONE',  ( 0.000000000000000000, 0.000000000000000000, 1.000000000000000000 ) ) ;
#202 = DIRECTION ( 'NONE',  ( 0.000000000000000000, 0.000000000000000000, 1.000000000000000000 ) ) ;
#203 = DIRECTION ( 'NONE',  ( -1.000000000000000000, 0.000000000000000000, 0.000000000000000000 ) ) ;
#204 = PRODUCT_DEFINITION ( 'NEZNÁMÝ', '', #127, #113 ) ;
#205 = DIRECTION ( 'NONE',  ( -1.000000000000000000, 0.000000000000000000, 0.000000000000000000 ) ) ;
#206 = DIRECTION ( 'NONE',  ( -0.000000000000000000, -0.000000000000000000, -1.000000000000000000 ) ) ;
#207 = EDGE_CURVE ( 'NONE', #260, #54, #145, .T. ) ;
#208 = ORIENTED_EDGE ( 'NONE', *, *, #368, .F. ) ;
#209 = MANIFOLD_SOLID_BREP ( 'Odebrat vysunutím3', #376 ) ;
#210 = CARTESIAN_POINT ( 'NONE',  ( -6.500000000000000888, 7.960204194457796463E-16, 7.499999999999951150 ) ) ;
#211 = DIRECTION ( 'NONE',  ( 0.000000000000000000, 0.000000000000000000, 1.000000000000000000 ) ) ;
#212 = ADVANCED_FACE ( 'NONE', ( #310 ), #254, .T. ) ;
#213 = CARTESIAN_POINT ( 'NONE',  ( -10.00000000000000000, 0.000000000000000000, 0.000000000000000000 ) ) ;
#214 = DIRECTION ( 'NONE',  ( -0.000000000000000000, -0.000000000000000000, -1.000000000000000000 ) ) ;
#215 = TOROIDAL_SURFACE ( 'NONE', #361, 6.500000000000000888, 0.5000000000000000000 ) ;
#216 = PERSON_AND_ORGANIZATION ( #250, #180 ) ;
#217 = AXIS2_PLACEMENT_3D ( 'NONE', #182, #346, #271 ) ;
#218 = CC_DESIGN_PERSON_AND_ORGANIZATION_ASSIGNMENT ( #123, #156, ( #381 ) ) ;
#219 = APPROVAL_DATE_TIME ( #248, #61 ) ;
#220 = CIRCLE ( 'NONE', #184, 10.00000000000000000 ) ;
#221 = APPROVAL_ROLE ( '' ) ;
#222 = ORIENTED_EDGE ( 'NONE', *, *, #107, .T. ) ;
#223 = DIRECTION ( 'NONE',  ( -0.000000000000000000, -0.000000000000000000, -1.000000000000000000 ) ) ;
#224 = EDGE_LOOP ( 'NONE', ( #302, #101, #44, #208 ) ) ;
#225 = DIRECTION ( 'NONE',  ( -1.000000000000000000, 0.000000000000000000, 0.000000000000000000 ) ) ;
#226 = AXIS2_PLACEMENT_3D ( 'NONE', #58, #378, #295 ) ;
#227 = EDGE_LOOP ( 'NONE', ( #188, #237, #35, #286 ) ) ;
#228 = DIRECTION ( 'NONE',  ( -1.000000000000000000, 0.000000000000000000, 0.000000000000000000 ) ) ;
#229 = ORIENTED_EDGE ( 'NONE', *, *, #37, .F. ) ;
#230 = CARTESIAN_POINT ( 'NONE',  ( 6.000000000000000888, 7.347880794884120722E-16, 707.0000000000000000 ) ) ;
#231 = LINE ( 'NONE', #142, #150 ) ;
#232 = CARTESIAN_POINT ( 'NONE',  ( 0.000000000000000000, 0.000000000000000000, 7.000000000000000000 ) ) ;
#233 = AXIS2_PLACEMENT_3D ( 'NONE', #12, #40, #161 ) ;
#234 = CYLINDRICAL_SURFACE ( 'NONE', #104, 6.000000000000000888 ) ;
#235 = DIRECTION ( 'NONE',  ( -1.000000000000000000, 0.000000000000000000, 0.000000000000000000 ) ) ;
#236 = EDGE_CURVE ( 'NONE', #277, #171, #305, .T. ) ;
#237 = ORIENTED_EDGE ( 'NONE', *, *, #92, .F. ) ;
#238 = DIRECTION ( 'NONE',  ( 0.000000000000000000, 0.000000000000000000, 1.000000000000000000 ) ) ;
#239 = DIRECTION ( 'NONE',  ( 0.000000000000000000, 0.000000000000000000, 1.000000000000000000 ) ) ;
#240 = CC_DESIGN_PERSON_AND_ORGANIZATION_ASSIGNMENT ( #301, #95, ( #4 ) ) ;
#241 = CARTESIAN_POINT ( 'NONE',  ( 6.500000000000000888, 0.000000000000000000, 7.499999999999951150 ) ) ;
#242 = CYLINDRICAL_SURFACE ( 'NONE', #344, 3.250000000000000444 ) ;
#243 = APPROVAL_ROLE ( '' ) ;
#244 = DIRECTION ( 'NONE',  ( 0.000000000000000000, 0.000000000000000000, 1.000000000000000000 ) ) ;
#245 = ADVANCED_FACE ( 'NONE', ( #88, #25 ), #323, .T. ) ;
#246 = ADVANCED_FACE ( 'NONE', ( #185, #56 ), #24, .T. ) ;
#247 = PERSON_AND_ORGANIZATION_ROLE ( 'creator' ) ;
#248 = DATE_AND_TIME ( #355, #21 ) ;
#249 = EDGE_LOOP ( 'NONE', ( #329, #116 ) ) ;
#250 = PERSON ( 'NEURÈENÝ', 'NEURÈENÝ', 'NEURÈENÝ', ('NEURÈENÝ'), ('NEURÈENÝ'), ('NEURÈENÝ') ) ;
#251 = ORIENTED_EDGE ( 'NONE', *, *, #363, .T. ) ;
#252 = DIRECTION ( 'NONE',  ( 0.000000000000000000, 0.000000000000000000, 1.000000000000000000 ) ) ;
#253 = ORIENTED_EDGE ( 'NONE', *, *, #170, .F. ) ;
#254 = CYLINDRICAL_SURFACE ( 'NONE', #193, 10.00000000000000000 ) ;
#255 = AXIS2_PLACEMENT_3D ( 'NONE', #50, #263, #225 ) ;
#256 = EDGE_CURVE ( 'NONE', #41, #162, #55, .T. ) ;
#257 = LOCAL_TIME ( 16, 40, 40.00000000000000000, #124 ) ;
#258 = EDGE_LOOP ( 'NONE', ( #164, #364 ) ) ;
#259 = DIRECTION ( 'NONE',  ( 0.000000000000000000, 0.000000000000000000, 1.000000000000000000 ) ) ;
#260 = VERTEX_POINT ( 'NONE', #59 ) ;
#261 = LINE ( 'NONE', #287, #119 ) ;
#262 = EDGE_LOOP ( 'NONE', ( #253, #38 ) ) ;
#263 = DIRECTION ( 'NONE',  ( -0.000000000000000000, -0.000000000000000000, -1.000000000000000000 ) ) ;
#264 = ORIENTED_EDGE ( 'NONE', *, *, #42, .F. ) ;
#265 = CARTESIAN_POINT ( 'NONE',  ( -3.250000000000000444, 0.000000000000000000, 707.0000000000000000 ) ) ;
#266 = FACE_OUTER_BOUND ( 'NONE', #311, .T. ) ;
#267 = DIRECTION ( 'NONE',  ( 1.000000000000000000, 0.000000000000000000, 0.000000000000000000 ) ) ;
#268 = ADVANCED_FACE ( 'NONE', ( #266 ), #292, .F. ) ;
#269 = CIRCLE ( 'NONE', #97, 6.000000000000000888 ) ;
#270 = DIRECTION ( 'NONE',  ( 1.000000000000000000, 0.000000000000000000, 0.000000000000000000 ) ) ;
#271 = DIRECTION ( 'NONE',  ( 1.000000000000000000, 0.000000000000000000, 0.000000000000000000 ) ) ;
#272 = APPROVAL_STATUS ( 'not_yet_approved' ) ;
#273 = AXIS2_PLACEMENT_3D ( 'NONE', #192, #332, #14 ) ;
#274 = DATE_TIME_ROLE ( 'creation_date' ) ;
#275 = VERTEX_POINT ( 'NONE', #83 ) ;
#276 = CIRCLE ( 'NONE', #177, 10.00000000000000000 ) ;
#277 = VERTEX_POINT ( 'NONE', #151 ) ;
#278 = APPROVAL ( #326, 'NEURÈENÝ' ) ;
#279 = CARTESIAN_POINT ( 'NONE',  ( 10.00000000000000000, 1.224646799147353256E-15, 7.000000000000000000 ) ) ;
#280 = CYLINDRICAL_SURFACE ( 'NONE', #47, 3.250000000000000444 ) ;
#281 = ORIENTED_EDGE ( 'NONE', *, *, #57, .F. ) ;
#282 = DIRECTION ( 'NONE',  ( 1.000000000000000000, 0.000000000000000000, 0.000000000000000000 ) ) ;
#283 = APPROVAL_PERSON_ORGANIZATION ( #33, #278, #243 ) ;
#284 = EDGE_LOOP ( 'NONE', ( #281, #85, #132, #222 ) ) ;
#285 = FACE_OUTER_BOUND ( 'NONE', #15, .T. ) ;
#286 = ORIENTED_EDGE ( 'NONE', *, *, #87, .F. ) ;
#287 = CARTESIAN_POINT ( 'NONE',  ( 10.00000000000000000, 1.224646799147353256E-15, 7.000000000000000000 ) ) ;
#288 = VERTEX_POINT ( 'NONE', #213 ) ;
#289 = DIRECTION ( 'NONE',  ( 1.000000000000000000, 0.000000000000000000, -0.000000000000000000 ) ) ;
#290 = AXIS2_PLACEMENT_3D ( 'NONE', #241, #352, #149 ) ;
#291 = VECTOR ( 'NONE', #169, 1000.000000000000000 ) ;
#292 = TOROIDAL_SURFACE ( 'NONE', #27, 6.500000000000000888, 0.5000000000000000000 ) ;
#293 = DIRECTION ( 'NONE',  ( 1.000000000000000000, 0.000000000000000000, -0.000000000000000000 ) ) ;
#294 =( LENGTH_UNIT ( ) NAMED_UNIT ( * ) SI_UNIT ( .MILLI., .METRE. ) );
#295 = DIRECTION ( 'NONE',  ( 1.000000000000000000, 0.000000000000000000, -0.000000000000000000 ) ) ;
#296 = CC_DESIGN_APPROVAL ( #278, ( #204 ) ) ;
#297 = CARTESIAN_POINT ( 'NONE',  ( 0.000000000000000000, 0.000000000000000000, 707.0000000000000000 ) ) ;
#298 = CC_DESIGN_DATE_AND_TIME_ASSIGNMENT ( #63, #62, ( #381 ) ) ;
#299 = DATE_AND_TIME ( #359, #257 ) ;
#300 = EDGE_CURVE ( 'NONE', #54, #260, #74, .T. ) ;
#301 = PERSON_AND_ORGANIZATION ( #250, #180 ) ;
#302 = ORIENTED_EDGE ( 'NONE', *, *, #256, .F. ) ;
#303 = COORDINATED_UNIVERSAL_TIME_OFFSET ( 1, 0, .AHEAD. ) ;
#304 = ORIENTED_EDGE ( 'NONE', *, *, #363, .F. ) ;
#305 = CIRCLE ( 'NONE', #290, 0.5000000000000004441 ) ;
#306 = CARTESIAN_POINT ( 'NONE',  ( -6.000000000000000888, 0.000000000000000000, 707.0000000000000000 ) ) ;
#307 = CIRCLE ( 'NONE', #39, 6.000000000000000888 ) ;
#308 = EDGE_CURVE ( 'NONE', #162, #41, #307, .T. ) ;
#309 = ORIENTED_EDGE ( 'NONE', *, *, #107, .F. ) ;
#310 = FACE_OUTER_BOUND ( 'NONE', #70, .T. ) ;
#311 = EDGE_LOOP ( 'NONE', ( #309, #139, #105, #342 ) ) ;
#312 = DIRECTION ( 'NONE',  ( 1.000000000000000000, 0.000000000000000000, 0.000000000000000000 ) ) ;
#313 = CARTESIAN_POINT ( 'NONE',  ( 3.250000000000000444, 3.980102097228897245E-16, 707.0000000000000000 ) ) ;
#314 = ORIENTED_EDGE ( 'NONE', *, *, #207, .T. ) ;
#315 = DIRECTION ( 'NONE',  ( 1.000000000000000000, 0.000000000000000000, 0.000000000000000000 ) ) ;
#316 = CARTESIAN_POINT ( 'NONE',  ( 0.000000000000000000, 0.000000000000000000, 0.000000000000000000 ) ) ;
#317 = LINE ( 'NONE', #53, #194 ) ;
#318 = ORIENTED_EDGE ( 'NONE', *, *, #87, .T. ) ;
#319 = CARTESIAN_POINT ( 'NONE',  ( -6.000000000000000888, 0.000000000000000000, 7.499999999999951150 ) ) ;
#320 = CIRCLE ( 'NONE', #73, 6.500000000000000888 ) ;
#321 = CARTESIAN_POINT ( 'NONE',  ( 0.000000000000000000, 0.000000000000000000, 0.000000000000000000 ) ) ;
#322 =( NAMED_UNIT ( * ) PLANE_ANGLE_UNIT ( ) SI_UNIT ( $, .RADIAN. ) );
#323 = PLANE ( 'NONE',  #5 ) ;
#324 = CALENDAR_DATE ( 2022, 8, 7 ) ;
#325 = CALENDAR_DATE ( 2022, 8, 7 ) ;
#326 = APPROVAL_STATUS ( 'not_yet_approved' ) ;
#327 = CIRCLE ( 'NONE', #350, 3.250000000000000444 ) ;
#328 = ADVANCED_FACE ( 'NONE', ( #28, #89 ), #153, .F. ) ;
#329 = ORIENTED_EDGE ( 'NONE', *, *, #207, .F. ) ;
#330 = PERSON_AND_ORGANIZATION ( #250, #180 ) ;
#331 = VERTEX_POINT ( 'NONE', #265 ) ;
#332 = DIRECTION ( 'NONE',  ( -0.000000000000000000, -0.000000000000000000, -1.000000000000000000 ) ) ;
#333 = EDGE_LOOP ( 'NONE', ( #229, #110 ) ) ;
#334 = AXIS2_PLACEMENT_3D ( 'NONE', #86, #239, #289 ) ;
#335 = CARTESIAN_POINT ( 'NONE',  ( 0.000000000000000000, 0.000000000000000000, 7.000000000000000000 ) ) ;
#336 = CIRCLE ( 'NONE', #217, 10.00000000000000000 ) ;
#337 = ADVANCED_FACE ( 'NONE', ( #349 ), #242, .F. ) ;
#338 = VERTEX_POINT ( 'NONE', #319 ) ;
#339 = DIRECTION ( 'NONE',  ( -0.000000000000000000, -0.000000000000000000, -1.000000000000000000 ) ) ;
#340 = ORIENTED_EDGE ( 'NONE', *, *, #103, .F. ) ;
#341 = CARTESIAN_POINT ( 'NONE',  ( 0.000000000000000000, 0.000000000000000000, 707.0000000000000000 ) ) ;
#342 = ORIENTED_EDGE ( 'NONE', *, *, #236, .F. ) ;
#343 = DIRECTION ( 'NONE',  ( -0.000000000000000000, -0.000000000000000000, -1.000000000000000000 ) ) ;
#344 = AXIS2_PLACEMENT_3D ( 'NONE', #181, #353, #235 ) ;
#345 = CARTESIAN_POINT ( 'NONE',  ( 0.000000000000000000, 0.000000000000000000, 707.0000000000000000 ) ) ;
#346 = DIRECTION ( 'NONE',  ( 0.000000000000000000, 0.000000000000000000, 1.000000000000000000 ) ) ;
#347 = CARTESIAN_POINT ( 'NONE',  ( 0.000000000000000000, 0.000000000000000000, 7.499999999999951150 ) ) ;
#348 = DIRECTION ( 'NONE',  ( 0.000000000000000000, 0.000000000000000000, 1.000000000000000000 ) ) ;
#349 = FACE_OUTER_BOUND ( 'NONE', #372, .T. ) ;
#350 = AXIS2_PLACEMENT_3D ( 'NONE', #371, #259, #312 ) ;
#351 = CC_DESIGN_SECURITY_CLASSIFICATION ( #381, ( #127 ) ) ;
#352 = DIRECTION ( 'NONE',  ( 0.000000000000000000, -1.000000000000000000, 0.000000000000000000 ) ) ;
#353 = DIRECTION ( 'NONE',  ( 0.000000000000000000, 0.000000000000000000, -1.000000000000000000 ) ) ;
#354 = PRODUCT_RELATED_PRODUCT_CATEGORY ( 'detail', '', ( #4 ) ) ;
#355 = CALENDAR_DATE ( 2022, 8, 7 ) ;
#356 = AXIS2_PLACEMENT_3D ( 'NONE', #321, #148, #267 ) ;
#357 = CALENDAR_DATE ( 2022, 8, 7 ) ;
#358 = EDGE_CURVE ( 'NONE', #197, #195, #336, .T. ) ;
#359 = CALENDAR_DATE ( 2022, 8, 7 ) ;
#360 = COORDINATED_UNIVERSAL_TIME_OFFSET ( 1, 0, .AHEAD. ) ;
#361 = AXIS2_PLACEMENT_3D ( 'NONE', #347, #202, #80 ) ;
#362 = LOCAL_TIME ( 16, 40, 40.00000000000000000, #91 ) ;
#363 = EDGE_CURVE ( 'NONE', #195, #288, #90, .T. ) ;
#364 = ORIENTED_EDGE ( 'NONE', *, *, #358, .T. ) ;
#365 = CARTESIAN_POINT ( 'NONE',  ( 0.000000000000000000, 0.000000000000000000, 7.000000000000000000 ) ) ;
#366 = AXIS2_PLACEMENT_3D ( 'NONE', #118, #211, #270 ) ;
#367 = DIRECTION ( 'NONE',  ( -1.000000000000000000, 0.000000000000000000, 0.000000000000000000 ) ) ;
#368 = EDGE_CURVE ( 'NONE', #162, #338, #317, .T. ) ;
#369 = ORIENTED_EDGE ( 'NONE', *, *, #170, .T. ) ;
#370 = EDGE_CURVE ( 'NONE', #338, #275, #179, .T. ) ;
#371 = CARTESIAN_POINT ( 'NONE',  ( 0.000000000000000000, 0.000000000000000000, 707.0000000000000000 ) ) ;
#372 = EDGE_LOOP ( 'NONE', ( #369, #8, #108, #76 ) ) ;
#373 = DIRECTION ( 'NONE',  ( 0.000000000000000000, 0.000000000000000000, 1.000000000000000000 ) ) ;
#374 = DIRECTION ( 'NONE',  ( 0.000000000000000000, 0.000000000000000000, -1.000000000000000000 ) ) ;
#375 = CARTESIAN_POINT ( 'NONE',  ( 10.00000000000000000, 1.224646799147353256E-15, 0.000000000000000000 ) ) ;
#376 = CLOSED_SHELL ( 'NONE', ( #337, #268, #34, #212, #51, #246, #328, #122, #245, #22, #99 ) ) ;
#377 = EDGE_LOOP ( 'NONE', ( #264, #340, #251, #160 ) ) ;
#378 = DIRECTION ( 'NONE',  ( 0.000000000000000000, 0.000000000000000000, 1.000000000000000000 ) ) ;
#379 = CARTESIAN_POINT ( 'NONE',  ( -10.00000000000000000, 0.000000000000000000, 7.000000000000000000 ) ) ;
#380 = CIRCLE ( 'NONE', #93, 6.000000000000000888 ) ;
#381 = SECURITY_CLASSIFICATION ( '', '', #187 ) ;
ENDSEC;
END-ISO-10303-21;
