ISO-10303-21;
HEADER;
FILE_DESCRIPTION (( 'STEP AP203' ),
    '1' );
FILE_NAME ('c788.STEP',
    '2022-07-08T15:53:01',
    ( '' ),
    ( '' ),
    'SwSTEP 2.0',
    'SolidWorks 2019',
    '' );
FILE_SCHEMA (( 'CONFIG_CONTROL_DESIGN' ));
ENDSEC;

DATA;
#1 = DIRECTION ( 'NONE',  ( 1.000000000000000000, 0.000000000000000000, 0.000000000000000000 ) ) ;
#2 = UNCERTAINTY_MEASURE_WITH_UNIT (LENGTH_MEASURE( 1.000000000000000082E-05 ), #248, 'distance_accuracy_value', 'NONE');
#3 = VERTEX_POINT ( 'NONE', #240 ) ;
#4 = CIRCLE ( 'NONE', #358, 5.000000000000000000 ) ;
#5 = ORIENTED_EDGE ( 'NONE', *, *, #234, .T. ) ;
#6 = EDGE_CURVE ( 'NONE', #317, #238, #4, .T. ) ;
#7 = ORIENTED_EDGE ( 'NONE', *, *, #139, .T. ) ;
#8 = DATE_AND_TIME ( #141, #56 ) ;
#9 = AXIS2_PLACEMENT_3D ( 'NONE', #63, #94, #43 ) ;
#10 = DIRECTION ( 'NONE',  ( 0.000000000000000000, 0.000000000000000000, 1.000000000000000000 ) ) ;
#11 = CC_DESIGN_PERSON_AND_ORGANIZATION_ASSIGNMENT ( #82, #79, ( #57 ) ) ;
#12 = AXIS2_PLACEMENT_3D ( 'NONE', #18, #186, #307 ) ;
#13 = FACE_BOUND ( 'NONE', #111, .T. ) ;
#14 = CARTESIAN_POINT ( 'NONE',  ( 0.000000000000000000, 0.000000000000000000, 3.299999999999997158 ) ) ;
#15 = CC_DESIGN_PERSON_AND_ORGANIZATION_ASSIGNMENT ( #137, #61, ( #44 ) ) ;
#16 = AXIS2_PLACEMENT_3D ( 'NONE', #198, #228, #269 ) ;
#17 = AXIS2_PLACEMENT_3D ( 'NONE', #330, #106, #345 ) ;
#18 = CARTESIAN_POINT ( 'NONE',  ( 0.000000000000000000, 0.000000000000000000, 163.0000000000000000 ) ) ;
#19 = APPROVAL_DATE_TIME ( #368, #215 ) ;
#20 = CARTESIAN_POINT ( 'NONE',  ( 0.000000000000000000, 0.000000000000000000, 3.299999999999997158 ) ) ;
#21 = AXIS2_PLACEMENT_3D ( 'NONE', #177, #180, #300 ) ;
#22 = CARTESIAN_POINT ( 'NONE',  ( 0.000000000000000000, 0.000000000000000000, 0.000000000000000000 ) ) ;
#23 = AXIS2_PLACEMENT_3D ( 'NONE', #80, #92, #64 ) ;
#24 = SECURITY_CLASSIFICATION ( '', '', #170 ) ;
#25 = APPROVAL_ROLE ( '' ) ;
#26 = PRODUCT_RELATED_PRODUCT_CATEGORY ( 'detail', '', ( #57 ) ) ;
#27 = CARTESIAN_POINT ( 'NONE',  ( 0.000000000000000000, 0.000000000000000000, 163.0000000000000000 ) ) ;
#28 = ORIENTED_EDGE ( 'NONE', *, *, #6, .F. ) ;
#29 = DESIGN_CONTEXT ( 'detailed design', #190, 'design' ) ;
#30 = VERTEX_POINT ( 'NONE', #270 ) ;
#31 = COORDINATED_UNIVERSAL_TIME_OFFSET ( 1, 0, .AHEAD. ) ;
#32 = ADVANCED_FACE ( 'NONE', ( #13, #268 ), #149, .T. ) ;
#33 = EDGE_LOOP ( 'NONE', ( #325, #173 ) ) ;
#34 = LOCAL_TIME ( 17, 53, 1.000000000000000000, #239 ) ;
#35 = ORIENTED_EDGE ( 'NONE', *, *, #274, .F. ) ;
#36 = CARTESIAN_POINT ( 'NONE',  ( 2.500000000000000000, 3.061616997868383141E-16, 163.0000000000000000 ) ) ;
#37 = DIRECTION ( 'NONE',  ( 1.000000000000000000, 0.000000000000000000, 0.000000000000000000 ) ) ;
#38 = LINE ( 'NONE', #118, #350 ) ;
#39 = CIRCLE ( 'NONE', #256, 2.799999999999999822 ) ;
#40 = SHAPE_DEFINITION_REPRESENTATION ( #157, #355 ) ;
#41 = EDGE_LOOP ( 'NONE', ( #260, #145, #55, #58 ) ) ;
#42 = EDGE_LOOP ( 'NONE', ( #132, #88, #352, #7 ) ) ;
#43 = DIRECTION ( 'NONE',  ( 1.000000000000000000, 0.000000000000000000, 0.000000000000000000 ) ) ;
#44 = PRODUCT_DEFINITION_FORMATION_WITH_SPECIFIED_SOURCE ( 'LIBOVOLNÝ', '', #57, .NOT_KNOWN. ) ;
#45 = EDGE_CURVE ( 'NONE', #327, #3, #285, .T. ) ;
#46 = CARTESIAN_POINT ( 'NONE',  ( -2.799999999999999822, 3.429011037612588783E-16, 3.299999999999997158 ) ) ;
#47 = CYLINDRICAL_SURFACE ( 'NONE', #343, 2.500000000000000000 ) ;
#48 = AXIS2_PLACEMENT_3D ( 'NONE', #372, #301, #366 ) ;
#49 = FACE_OUTER_BOUND ( 'NONE', #208, .T. ) ;
#50 = CARTESIAN_POINT ( 'NONE',  ( 0.000000000000000000, 0.000000000000000000, 3.000000000000000000 ) ) ;
#51 = ORIENTED_EDGE ( 'NONE', *, *, #341, .F. ) ;
#52 = AXIS2_PLACEMENT_3D ( 'NONE', #277, #120, #37 ) ;
#53 = PERSON_AND_ORGANIZATION ( #158, #379 ) ;
#54 = CARTESIAN_POINT ( 'NONE',  ( 5.000000000000000000, 6.123233995736766282E-16, 0.000000000000000000 ) ) ;
#55 = ORIENTED_EDGE ( 'NONE', *, *, #332, .T. ) ;
#56 = LOCAL_TIME ( 17, 53, 1.000000000000000000, #200 ) ;
#57 = PRODUCT ( 'c788', 'c788', '', ( #160 ) ) ;
#58 = ORIENTED_EDGE ( 'NONE', *, *, #257, .F. ) ;
#59 = ADVANCED_FACE ( 'NONE', ( #305 ), #114, .F. ) ;
#60 = EDGE_LOOP ( 'NONE', ( #297, #81, #287, #83 ) ) ;
#61 = PERSON_AND_ORGANIZATION_ROLE ( 'creator' ) ;
#62 = FACE_OUTER_BOUND ( 'NONE', #235, .T. ) ;
#63 = CARTESIAN_POINT ( 'NONE',  ( 0.000000000000000000, 0.000000000000000000, 3.000000000000000000 ) ) ;
#64 = DIRECTION ( 'NONE',  ( 1.000000000000000000, 0.000000000000000000, 0.000000000000000000 ) ) ;
#65 = ORIENTED_EDGE ( 'NONE', *, *, #242, .T. ) ;
#66 =( NAMED_UNIT ( * ) PLANE_ANGLE_UNIT ( ) SI_UNIT ( $, .RADIAN. ) );
#67 =( GEOMETRIC_REPRESENTATION_CONTEXT ( 3 ) GLOBAL_UNCERTAINTY_ASSIGNED_CONTEXT ( ( #2 ) ) GLOBAL_UNIT_ASSIGNED_CONTEXT ( ( #248, #66, #273 ) ) REPRESENTATION_CONTEXT ( 'NONE', 'WORKASPACE' ) );
#68 = CARTESIAN_POINT ( 'NONE',  ( -1.000000000000000000, 0.000000000000000000, 163.0000000000000000 ) ) ;
#69 = APPROVAL ( #310, 'NEURÈENÝ' ) ;
#70 = DIRECTION ( 'NONE',  ( -0.000000000000000000, -0.000000000000000000, -1.000000000000000000 ) ) ;
#71 = AXIS2_PLACEMENT_3D ( 'NONE', #95, #183, #150 ) ;
#72 = DIRECTION ( 'NONE',  ( -1.000000000000000000, 0.000000000000000000, 0.000000000000000000 ) ) ;
#73 = DIRECTION ( 'NONE',  ( 0.000000000000000000, 0.000000000000000000, 1.000000000000000000 ) ) ;
#74 = CC_DESIGN_APPROVAL ( #151, ( #44 ) ) ;
#75 = DIRECTION ( 'NONE',  ( -0.000000000000000000, -0.000000000000000000, -1.000000000000000000 ) ) ;
#76 = DIRECTION ( 'NONE',  ( 0.000000000000000000, 0.000000000000000000, 1.000000000000000000 ) ) ;
#77 = EDGE_CURVE ( 'NONE', #167, #136, #230, .T. ) ;
#78 = CIRCLE ( 'NONE', #17, 2.500000000000000000 ) ;
#79 = PERSON_AND_ORGANIZATION_ROLE ( 'design_owner' ) ;
#80 = CARTESIAN_POINT ( 'NONE',  ( 0.000000000000000000, 0.000000000000000000, 163.0000000000000000 ) ) ;
#81 = ORIENTED_EDGE ( 'NONE', *, *, #367, .F. ) ;
#82 = PERSON_AND_ORGANIZATION ( #158, #379 ) ;
#83 = ORIENTED_EDGE ( 'NONE', *, *, #84, .T. ) ;
#84 = EDGE_CURVE ( 'NONE', #238, #317, #217, .T. ) ;
#85 = EDGE_LOOP ( 'NONE', ( #263, #99 ) ) ;
#86 = CALENDAR_DATE ( 2022, 8, 7 ) ;
#87 = EDGE_LOOP ( 'NONE', ( #298, #250, #165, #265 ) ) ;
#88 = ORIENTED_EDGE ( 'NONE', *, *, #306, .T. ) ;
#89 = ADVANCED_FACE ( 'NONE', ( #91, #328 ), #214, .T. ) ;
#90 = CIRCLE ( 'NONE', #289, 1.000000000000000000 ) ;
#91 = FACE_BOUND ( 'NONE', #113, .T. ) ;
#92 = DIRECTION ( 'NONE',  ( 0.000000000000000000, 0.000000000000000000, 1.000000000000000000 ) ) ;
#93 = DIRECTION ( 'NONE',  ( 0.000000000000000000, 0.000000000000000000, -1.000000000000000000 ) ) ;
#94 = DIRECTION ( 'NONE',  ( 0.000000000000000000, 0.000000000000000000, 1.000000000000000000 ) ) ;
#95 = CARTESIAN_POINT ( 'NONE',  ( 0.000000000000000000, 0.000000000000000000, 163.0000000000000000 ) ) ;
#96 = ADVANCED_FACE ( 'NONE', ( #62 ), #249, .T. ) ;
#97 = AXIS2_PLACEMENT_3D ( 'NONE', #22, #76, #189 ) ;
#98 = VECTOR ( 'NONE', #286, 1000.000000000000000 ) ;
#99 = ORIENTED_EDGE ( 'NONE', *, *, #313, .T. ) ;
#100 = DIRECTION ( 'NONE',  ( 0.000000000000000000, 0.000000000000000000, -1.000000000000000000 ) ) ;
#101 = ADVANCED_FACE ( 'NONE', ( #361 ), #329, .F. ) ;
#102 = CIRCLE ( 'NONE', #16, 1.000000000000000000 ) ;
#103 = DIRECTION ( 'NONE',  ( 1.224646799147353207E-16, 1.000000000000000000, -0.000000000000000000 ) ) ;
#104 = DATE_AND_TIME ( #288, #194 ) ;
#105 = CARTESIAN_POINT ( 'NONE',  ( -1.000000000000000000, 0.000000000000000000, 163.0000000000000000 ) ) ;
#106 = DIRECTION ( 'NONE',  ( 0.000000000000000000, 0.000000000000000000, 1.000000000000000000 ) ) ;
#107 = COORDINATED_UNIVERSAL_TIME_OFFSET ( 1, 0, .AHEAD. ) ;
#108 = ORIENTED_EDGE ( 'NONE', *, *, #306, .F. ) ;
#109 = ORIENTED_EDGE ( 'NONE', *, *, #251, .T. ) ;
#110 = PERSON_AND_ORGANIZATION_ROLE ( 'design_supplier' ) ;
#111 = EDGE_LOOP ( 'NONE', ( #185, #108 ) ) ;
#112 = CC_DESIGN_PERSON_AND_ORGANIZATION_ASSIGNMENT ( #262, #110, ( #44 ) ) ;
#113 = EDGE_LOOP ( 'NONE', ( #169, #266 ) ) ;
#114 = TOROIDAL_SURFACE ( 'NONE', #335, 2.799999999999999822, 0.2999999999999999889 ) ;
#115 = DIRECTION ( 'NONE',  ( -0.000000000000000000, -0.000000000000000000, -1.000000000000000000 ) ) ;
#116 = DIRECTION ( 'NONE',  ( 1.000000000000000000, 0.000000000000000000, -0.000000000000000000 ) ) ;
#117 = APPROVAL_PERSON_ORGANIZATION ( #53, #69, #25 ) ;
#118 = CARTESIAN_POINT ( 'NONE',  ( -5.000000000000000000, 0.000000000000000000, 3.000000000000000000 ) ) ;
#119 = EDGE_CURVE ( 'NONE', #136, #238, #38, .T. ) ;
#120 = DIRECTION ( 'NONE',  ( 0.000000000000000000, 0.000000000000000000, 1.000000000000000000 ) ) ;
#121 = ORIENTED_EDGE ( 'NONE', *, *, #77, .F. ) ;
#122 = CIRCLE ( 'NONE', #337, 0.2999999999999999334 ) ;
#123 = CARTESIAN_POINT ( 'NONE',  ( 2.799999999999999822, 0.000000000000000000, 3.299999999999997158 ) ) ;
#124 = DIRECTION ( 'NONE',  ( 0.000000000000000000, 0.000000000000000000, 1.000000000000000000 ) ) ;
#125 = CARTESIAN_POINT ( 'NONE',  ( 0.000000000000000000, 0.000000000000000000, 163.0000000000000000 ) ) ;
#126 = DIRECTION ( 'NONE',  ( 1.000000000000000000, 0.000000000000000000, 0.000000000000000000 ) ) ;
#127 = CC_DESIGN_PERSON_AND_ORGANIZATION_ASSIGNMENT ( #312, #376, ( #347 ) ) ;
#128 = DIRECTION ( 'NONE',  ( 1.000000000000000000, 0.000000000000000000, 0.000000000000000000 ) ) ;
#129 = CLOSED_SHELL ( 'NONE', ( #101, #59, #172, #96, #282, #89, #159, #210, #32, #221, #164 ) ) ;
#130 = DIRECTION ( 'NONE',  ( 0.000000000000000000, 0.000000000000000000, 1.000000000000000000 ) ) ;
#131 = CARTESIAN_POINT ( 'NONE',  ( 0.000000000000000000, 0.000000000000000000, 3.299999999999997158 ) ) ;
#132 = ORIENTED_EDGE ( 'NONE', *, *, #296, .F. ) ;
#133 = EDGE_CURVE ( 'NONE', #197, #3, #213, .T. ) ;
#134 = CARTESIAN_POINT ( 'NONE',  ( 0.000000000000000000, 0.000000000000000000, 0.000000000000000000 ) ) ;
#135 = DIRECTION ( 'NONE',  ( 1.000000000000000000, 0.000000000000000000, 0.000000000000000000 ) ) ;
#136 = VERTEX_POINT ( 'NONE', #255 ) ;
#137 = PERSON_AND_ORGANIZATION ( #158, #379 ) ;
#138 = ORIENTED_EDGE ( 'NONE', *, *, #292, .T. ) ;
#139 = EDGE_CURVE ( 'NONE', #3, #327, #90, .T. ) ;
#140 = VERTEX_POINT ( 'NONE', #373 ) ;
#141 = CALENDAR_DATE ( 2022, 8, 7 ) ;
#142 = AXIS2_PLACEMENT_3D ( 'NONE', #123, #219, #187 ) ;
#143 = ORIENTED_EDGE ( 'NONE', *, *, #133, .F. ) ;
#144 = CARTESIAN_POINT ( 'NONE',  ( 5.000000000000000000, 6.123233995736766282E-16, 3.000000000000000000 ) ) ;
#145 = ORIENTED_EDGE ( 'NONE', *, *, #251, .F. ) ;
#146 = EDGE_CURVE ( 'NONE', #319, #365, #264, .T. ) ;
#147 = CIRCLE ( 'NONE', #203, 2.500000000000000000 ) ;
#148 = CIRCLE ( 'NONE', #48, 5.000000000000000000 ) ;
#149 = PLANE ( 'NONE',  #71 ) ;
#150 = DIRECTION ( 'NONE',  ( 1.000000000000000000, 0.000000000000000000, -0.000000000000000000 ) ) ;
#151 = APPROVAL ( #245, 'NEURÈENÝ' ) ;
#152 = DIRECTION ( 'NONE',  ( 1.000000000000000000, 0.000000000000000000, 0.000000000000000000 ) ) ;
#153 = CYLINDRICAL_SURFACE ( 'NONE', #314, 1.000000000000000000 ) ;
#154 = DIRECTION ( 'NONE',  ( -0.000000000000000000, -0.000000000000000000, -1.000000000000000000 ) ) ;
#155 = MANIFOLD_SOLID_BREP ( 'Odebrat vysunutím3', #129 ) ;
#156 = PLANE ( 'NONE',  #97 ) ;
#157 = PRODUCT_DEFINITION_SHAPE ( 'NONE', 'NONE',  #347 ) ;
#158 = PERSON ( 'NEURÈENÝ', 'NEURÈENÝ', 'NEURÈENÝ', ('NEURÈENÝ'), ('NEURÈENÝ'), ('NEURÈENÝ') ) ;
#159 = ADVANCED_FACE ( 'NONE', ( #340, #253 ), #156, .F. ) ;
#160 = MECHANICAL_CONTEXT ( 'NONE', #202, 'mechanical' ) ;
#161 = CYLINDRICAL_SURFACE ( 'NONE', #12, 2.500000000000000000 ) ;
#162 = CALENDAR_DATE ( 2022, 8, 7 ) ;
#163 = CARTESIAN_POINT ( 'NONE',  ( -5.000000000000000000, 0.000000000000000000, 0.000000000000000000 ) ) ;
#164 = ADVANCED_FACE ( 'NONE', ( #369 ), #153, .F. ) ;
#165 = ORIENTED_EDGE ( 'NONE', *, *, #146, .F. ) ;
#166 = AXIS2_PLACEMENT_3D ( 'NONE', #218, #73, #281 ) ;
#167 = VERTEX_POINT ( 'NONE', #375 ) ;
#168 = APPROVAL_DATE_TIME ( #8, #151 ) ;
#169 = ORIENTED_EDGE ( 'NONE', *, *, #146, .T. ) ;
#170 = SECURITY_CLASSIFICATION_LEVEL ( 'unclassified' ) ;
#171 = ORIENTED_EDGE ( 'NONE', *, *, #45, .T. ) ;
#172 = ADVANCED_FACE ( 'NONE', ( #338 ), #47, .T. ) ;
#173 = ORIENTED_EDGE ( 'NONE', *, *, #77, .T. ) ;
#174 = TOROIDAL_SURFACE ( 'NONE', #166, 2.799999999999999822, 0.2999999999999999889 ) ;
#175 = LINE ( 'NONE', #36, #98 ) ;
#176 = CARTESIAN_POINT ( 'NONE',  ( 0.000000000000000000, 0.000000000000000000, 3.000000000000000000 ) ) ;
#177 = CARTESIAN_POINT ( 'NONE',  ( 0.000000000000000000, 0.000000000000000000, 163.0000000000000000 ) ) ;
#178 = VECTOR ( 'NONE', #192, 1000.000000000000000 ) ;
#179 = DIRECTION ( 'NONE',  ( 0.000000000000000000, 0.000000000000000000, 1.000000000000000000 ) ) ;
#180 = DIRECTION ( 'NONE',  ( 0.000000000000000000, 0.000000000000000000, -1.000000000000000000 ) ) ;
#181 = CIRCLE ( 'NONE', #23, 2.500000000000000000 ) ;
#182 = VECTOR ( 'NONE', #154, 1000.000000000000000 ) ;
#183 = DIRECTION ( 'NONE',  ( 0.000000000000000000, 0.000000000000000000, 1.000000000000000000 ) ) ;
#184 = CARTESIAN_POINT ( 'NONE',  ( -2.799999999999999822, 3.429011037612589276E-16, 2.999999999999998668 ) ) ;
#185 = ORIENTED_EDGE ( 'NONE', *, *, #234, .F. ) ;
#186 = DIRECTION ( 'NONE',  ( -0.000000000000000000, -0.000000000000000000, -1.000000000000000000 ) ) ;
#187 = DIRECTION ( 'NONE',  ( 0.000000000000000000, 0.000000000000000000, -1.000000000000000000 ) ) ;
#188 = APPLICATION_PROTOCOL_DEFINITION ( 'international standard', 'config_control_design', 1994, #190 ) ;
#189 = DIRECTION ( 'NONE',  ( 1.000000000000000000, 0.000000000000000000, -0.000000000000000000 ) ) ;
#190 = APPLICATION_CONTEXT ( 'configuration controlled 3d designs of mechanical parts and assemblies' ) ;
#191 = DATE_TIME_ROLE ( 'creation_date' ) ;
#192 = DIRECTION ( 'NONE',  ( 0.000000000000000000, 0.000000000000000000, -1.000000000000000000 ) ) ;
#193 = AXIS2_PLACEMENT_3D ( 'NONE', #336, #222, #342 ) ;
#194 = LOCAL_TIME ( 17, 53, 1.000000000000000000, #107 ) ;
#195 = COORDINATED_UNIVERSAL_TIME_OFFSET ( 1, 0, .AHEAD. ) ;
#196 = CC_DESIGN_DATE_AND_TIME_ASSIGNMENT ( #324, #357, ( #24 ) ) ;
#197 = VERTEX_POINT ( 'NONE', #105 ) ;
#198 = CARTESIAN_POINT ( 'NONE',  ( 0.000000000000000000, 0.000000000000000000, 163.0000000000000000 ) ) ;
#199 = ORIENTED_EDGE ( 'NONE', *, *, #313, .F. ) ;
#200 = COORDINATED_UNIVERSAL_TIME_OFFSET ( 1, 0, .AHEAD. ) ;
#201 = CARTESIAN_POINT ( 'NONE',  ( 1.000000000000000000, 1.224646799147353207E-16, 163.0000000000000000 ) ) ;
#202 = APPLICATION_CONTEXT ( 'configuration controlled 3d designs of mechanical parts and assemblies' ) ;
#203 = AXIS2_PLACEMENT_3D ( 'NONE', #131, #130, #135 ) ;
#204 = ORIENTED_EDGE ( 'NONE', *, *, #296, .T. ) ;
#205 = APPROVAL_PERSON_ORGANIZATION ( #326, #151, #241 ) ;
#206 = ORIENTED_EDGE ( 'NONE', *, *, #6, .T. ) ;
#207 = EDGE_CURVE ( 'NONE', #291, #365, #122, .T. ) ;
#208 = EDGE_LOOP ( 'NONE', ( #295, #35, #356, #229 ) ) ;
#209 = LOCAL_TIME ( 17, 53, 1.000000000000000000, #195 ) ;
#210 = ADVANCED_FACE ( 'NONE', ( #49 ), #161, .T. ) ;
#211 = DIRECTION ( 'NONE',  ( 0.000000000000000000, 0.000000000000000000, 1.000000000000000000 ) ) ;
#212 = DIRECTION ( 'NONE',  ( 1.000000000000000000, 0.000000000000000000, 0.000000000000000000 ) ) ;
#213 = LINE ( 'NONE', #68, #178 ) ;
#214 = PLANE ( 'NONE',  #371 ) ;
#215 = APPROVAL ( #237, 'NEURÈENÝ' ) ;
#216 = ORIENTED_EDGE ( 'NONE', *, *, #45, .F. ) ;
#217 = CIRCLE ( 'NONE', #52, 5.000000000000000000 ) ;
#218 = CARTESIAN_POINT ( 'NONE',  ( 0.000000000000000000, 0.000000000000000000, 3.299999999999997158 ) ) ;
#219 = DIRECTION ( 'NONE',  ( 0.000000000000000000, -1.000000000000000000, 0.000000000000000000 ) ) ;
#220 = CIRCLE ( 'NONE', #271, 2.500000000000000000 ) ;
#221 = ADVANCED_FACE ( 'NONE', ( #370 ), #174, .F. ) ;
#222 = DIRECTION ( 'NONE',  ( -0.000000000000000000, -0.000000000000000000, -1.000000000000000000 ) ) ;
#223 = DIRECTION ( 'NONE',  ( 1.000000000000000000, 0.000000000000000000, 0.000000000000000000 ) ) ;
#224 = EDGE_CURVE ( 'NONE', #291, #30, #220, .T. ) ;
#225 = DIRECTION ( 'NONE',  ( 0.000000000000000000, 0.000000000000000000, 1.000000000000000000 ) ) ;
#226 = CARTESIAN_POINT ( 'NONE',  ( -2.500000000000000000, 0.000000000000000000, 163.0000000000000000 ) ) ;
#227 = AXIS2_PLACEMENT_3D ( 'NONE', #50, #318, #348 ) ;
#228 = DIRECTION ( 'NONE',  ( 0.000000000000000000, 0.000000000000000000, 1.000000000000000000 ) ) ;
#229 = ORIENTED_EDGE ( 'NONE', *, *, #224, .T. ) ;
#230 = CIRCLE ( 'NONE', #9, 5.000000000000000000 ) ;
#231 = LINE ( 'NONE', #144, #320 ) ;
#232 = VERTEX_POINT ( 'NONE', #201 ) ;
#233 = PERSON_AND_ORGANIZATION_ROLE ( 'classification_officer' ) ;
#234 = EDGE_CURVE ( 'NONE', #197, #232, #102, .T. ) ;
#235 = EDGE_LOOP ( 'NONE', ( #121, #65, #206, #331 ) ) ;
#236 = CIRCLE ( 'NONE', #142, 0.2999999999999999334 ) ;
#237 = APPROVAL_STATUS ( 'not_yet_approved' ) ;
#238 = VERTEX_POINT ( 'NONE', #163 ) ;
#239 = COORDINATED_UNIVERSAL_TIME_OFFSET ( 1, 0, .AHEAD. ) ;
#240 = CARTESIAN_POINT ( 'NONE',  ( -1.000000000000000000, 0.000000000000000000, 0.000000000000000000 ) ) ;
#241 = APPROVAL_ROLE ( '' ) ;
#242 = EDGE_CURVE ( 'NONE', #167, #317, #231, .T. ) ;
#243 = CARTESIAN_POINT ( 'NONE',  ( 0.000000000000000000, 0.000000000000000000, 3.000000000000000000 ) ) ;
#244 = DIRECTION ( 'NONE',  ( -1.000000000000000000, 0.000000000000000000, 0.000000000000000000 ) ) ;
#245 = APPROVAL_STATUS ( 'not_yet_approved' ) ;
#246 = FACE_OUTER_BOUND ( 'NONE', #60, .T. ) ;
#247 = DIRECTION ( 'NONE',  ( -0.000000000000000000, -0.000000000000000000, -1.000000000000000000 ) ) ;
#248 =( LENGTH_UNIT ( ) NAMED_UNIT ( * ) SI_UNIT ( .MILLI., .METRE. ) );
#249 = CYLINDRICAL_SURFACE ( 'NONE', #254, 5.000000000000000000 ) ;
#250 = ORIENTED_EDGE ( 'NONE', *, *, #207, .T. ) ;
#251 = EDGE_CURVE ( 'NONE', #30, #291, #147, .T. ) ;
#252 = APPROVAL_PERSON_ORGANIZATION ( #267, #215, #294 ) ;
#253 = FACE_OUTER_BOUND ( 'NONE', #346, .T. ) ;
#254 = AXIS2_PLACEMENT_3D ( 'NONE', #176, #333, #244 ) ;
#255 = CARTESIAN_POINT ( 'NONE',  ( -5.000000000000000000, 0.000000000000000000, 3.000000000000000000 ) ) ;
#256 = AXIS2_PLACEMENT_3D ( 'NONE', #243, #261, #1 ) ;
#257 = EDGE_CURVE ( 'NONE', #365, #319, #39, .T. ) ;
#258 = CARTESIAN_POINT ( 'NONE',  ( 2.799999999999999822, 0.000000000000000000, 2.999999999999998668 ) ) ;
#259 = VECTOR ( 'NONE', #93, 1000.000000000000000 ) ;
#260 = ORIENTED_EDGE ( 'NONE', *, *, #207, .F. ) ;
#261 = DIRECTION ( 'NONE',  ( -0.000000000000000000, -0.000000000000000000, -1.000000000000000000 ) ) ;
#262 = PERSON_AND_ORGANIZATION ( #158, #379 ) ;
#263 = ORIENTED_EDGE ( 'NONE', *, *, #274, .T. ) ;
#264 = CIRCLE ( 'NONE', #193, 2.799999999999999822 ) ;
#265 = ORIENTED_EDGE ( 'NONE', *, *, #332, .F. ) ;
#266 = ORIENTED_EDGE ( 'NONE', *, *, #257, .T. ) ;
#267 = PERSON_AND_ORGANIZATION ( #158, #379 ) ;
#268 = FACE_OUTER_BOUND ( 'NONE', #85, .T. ) ;
#269 = DIRECTION ( 'NONE',  ( 1.000000000000000000, 0.000000000000000000, 0.000000000000000000 ) ) ;
#270 = CARTESIAN_POINT ( 'NONE',  ( 2.500000000000000000, 3.061616997868383141E-16, 3.299999999999997158 ) ) ;
#271 = AXIS2_PLACEMENT_3D ( 'NONE', #20, #124, #223 ) ;
#272 = CARTESIAN_POINT ( 'NONE',  ( 0.000000000000000000, 0.000000000000000000, 3.000000000000000000 ) ) ;
#273 =( NAMED_UNIT ( * ) SI_UNIT ( $, .STERADIAN. ) SOLID_ANGLE_UNIT ( ) );
#274 = EDGE_CURVE ( 'NONE', #293, #140, #181, .T. ) ;
#275 = DIRECTION ( 'NONE',  ( 1.000000000000000000, 0.000000000000000000, 0.000000000000000000 ) ) ;
#276 = LINE ( 'NONE', #309, #182 ) ;
#277 = CARTESIAN_POINT ( 'NONE',  ( 0.000000000000000000, 0.000000000000000000, 0.000000000000000000 ) ) ;
#278 = APPLICATION_PROTOCOL_DEFINITION ( 'international standard', 'config_control_design', 1994, #202 ) ;
#279 = DIRECTION ( 'NONE',  ( -1.000000000000000000, 1.224646799147353207E-16, 0.000000000000000000 ) ) ;
#280 = CC_DESIGN_PERSON_AND_ORGANIZATION_ASSIGNMENT ( #360, #233, ( #24 ) ) ;
#281 = DIRECTION ( 'NONE',  ( 1.000000000000000000, 0.000000000000000000, 0.000000000000000000 ) ) ;
#282 = ADVANCED_FACE ( 'NONE', ( #246 ), #351, .T. ) ;
#283 = DIRECTION ( 'NONE',  ( -0.000000000000000000, -0.000000000000000000, -1.000000000000000000 ) ) ;
#284 = APPROVAL_DATE_TIME ( #339, #69 ) ;
#285 = CIRCLE ( 'NONE', #299, 1.000000000000000000 ) ;
#286 = DIRECTION ( 'NONE',  ( -0.000000000000000000, -0.000000000000000000, -1.000000000000000000 ) ) ;
#287 = ORIENTED_EDGE ( 'NONE', *, *, #119, .T. ) ;
#288 = CALENDAR_DATE ( 2022, 8, 7 ) ;
#289 = AXIS2_PLACEMENT_3D ( 'NONE', #316, #283, #128 ) ;
#290 = CC_DESIGN_APPROVAL ( #215, ( #24 ) ) ;
#291 = VERTEX_POINT ( 'NONE', #321 ) ;
#292 = EDGE_CURVE ( 'NONE', #140, #30, #175, .T. ) ;
#293 = VERTEX_POINT ( 'NONE', #226 ) ;
#294 = APPROVAL_ROLE ( '' ) ;
#295 = ORIENTED_EDGE ( 'NONE', *, *, #292, .F. ) ;
#296 = EDGE_CURVE ( 'NONE', #232, #327, #362, .T. ) ;
#297 = ORIENTED_EDGE ( 'NONE', *, *, #242, .F. ) ;
#298 = ORIENTED_EDGE ( 'NONE', *, *, #224, .F. ) ;
#299 = AXIS2_PLACEMENT_3D ( 'NONE', #334, #70, #275 ) ;
#300 = DIRECTION ( 'NONE',  ( -1.000000000000000000, 0.000000000000000000, 0.000000000000000000 ) ) ;
#301 = DIRECTION ( 'NONE',  ( 0.000000000000000000, 0.000000000000000000, 1.000000000000000000 ) ) ;
#302 = CALENDAR_DATE ( 2022, 8, 7 ) ;
#303 = ORIENTED_EDGE ( 'NONE', *, *, #84, .F. ) ;
#304 = DIRECTION ( 'NONE',  ( 0.000000000000000000, 0.000000000000000000, 1.000000000000000000 ) ) ;
#305 = FACE_OUTER_BOUND ( 'NONE', #87, .T. ) ;
#306 = EDGE_CURVE ( 'NONE', #232, #197, #322, .T. ) ;
#307 = DIRECTION ( 'NONE',  ( -1.000000000000000000, 0.000000000000000000, 0.000000000000000000 ) ) ;
#308 = AXIS2_PLACEMENT_3D ( 'NONE', #134, #225, #126 ) ;
#309 = CARTESIAN_POINT ( 'NONE',  ( -2.500000000000000000, 0.000000000000000000, 163.0000000000000000 ) ) ;
#310 = APPROVAL_STATUS ( 'not_yet_approved' ) ;
#311 = CARTESIAN_POINT ( 'NONE',  ( 0.000000000000000000, 0.000000000000000000, 163.0000000000000000 ) ) ;
#312 = PERSON_AND_ORGANIZATION ( #158, #379 ) ;
#313 = EDGE_CURVE ( 'NONE', #140, #293, #78, .T. ) ;
#314 = AXIS2_PLACEMENT_3D ( 'NONE', #125, #100, #72 ) ;
#315 = LOCAL_TIME ( 17, 53, 1.000000000000000000, #31 ) ;
#316 = CARTESIAN_POINT ( 'NONE',  ( 0.000000000000000000, 0.000000000000000000, 0.000000000000000000 ) ) ;
#317 = VERTEX_POINT ( 'NONE', #54 ) ;
#318 = DIRECTION ( 'NONE',  ( -0.000000000000000000, -0.000000000000000000, -1.000000000000000000 ) ) ;
#319 = VERTEX_POINT ( 'NONE', #258 ) ;
#320 = VECTOR ( 'NONE', #115, 1000.000000000000000 ) ;
#321 = CARTESIAN_POINT ( 'NONE',  ( -2.500000000000000000, 0.000000000000000000, 3.299999999999997158 ) ) ;
#322 = CIRCLE ( 'NONE', #353, 1.000000000000000000 ) ;
#323 = EDGE_LOOP ( 'NONE', ( #354, #216 ) ) ;
#324 = DATE_AND_TIME ( #86, #34 ) ;
#325 = ORIENTED_EDGE ( 'NONE', *, *, #367, .T. ) ;
#326 = PERSON_AND_ORGANIZATION ( #158, #379 ) ;
#327 = VERTEX_POINT ( 'NONE', #380 ) ;
#328 = FACE_OUTER_BOUND ( 'NONE', #33, .T. ) ;
#329 = CYLINDRICAL_SURFACE ( 'NONE', #21, 1.000000000000000000 ) ;
#330 = CARTESIAN_POINT ( 'NONE',  ( 0.000000000000000000, 0.000000000000000000, 163.0000000000000000 ) ) ;
#331 = ORIENTED_EDGE ( 'NONE', *, *, #119, .F. ) ;
#332 = EDGE_CURVE ( 'NONE', #30, #319, #236, .T. ) ;
#333 = DIRECTION ( 'NONE',  ( -0.000000000000000000, -0.000000000000000000, -1.000000000000000000 ) ) ;
#334 = CARTESIAN_POINT ( 'NONE',  ( 0.000000000000000000, 0.000000000000000000, 0.000000000000000000 ) ) ;
#335 = AXIS2_PLACEMENT_3D ( 'NONE', #14, #211, #152 ) ;
#336 = CARTESIAN_POINT ( 'NONE',  ( 0.000000000000000000, 0.000000000000000000, 3.000000000000000000 ) ) ;
#337 = AXIS2_PLACEMENT_3D ( 'NONE', #46, #103, #279 ) ;
#338 = FACE_OUTER_BOUND ( 'NONE', #349, .T. ) ;
#339 = DATE_AND_TIME ( #162, #209 ) ;
#340 = FACE_BOUND ( 'NONE', #323, .T. ) ;
#341 = EDGE_CURVE ( 'NONE', #293, #291, #276, .T. ) ;
#342 = DIRECTION ( 'NONE',  ( 1.000000000000000000, 0.000000000000000000, 0.000000000000000000 ) ) ;
#343 = AXIS2_PLACEMENT_3D ( 'NONE', #311, #75, #377 ) ;
#344 = CC_DESIGN_SECURITY_CLASSIFICATION ( #24, ( #44 ) ) ;
#345 = DIRECTION ( 'NONE',  ( 1.000000000000000000, 0.000000000000000000, 0.000000000000000000 ) ) ;
#346 = EDGE_LOOP ( 'NONE', ( #303, #28 ) ) ;
#347 = PRODUCT_DEFINITION ( 'NEZNÁMÝ', '', #44, #29 ) ;
#348 = DIRECTION ( 'NONE',  ( -1.000000000000000000, 0.000000000000000000, 0.000000000000000000 ) ) ;
#349 = EDGE_LOOP ( 'NONE', ( #199, #138, #109, #51 ) ) ;
#350 = VECTOR ( 'NONE', #247, 1000.000000000000000 ) ;
#351 = CYLINDRICAL_SURFACE ( 'NONE', #227, 5.000000000000000000 ) ;
#352 = ORIENTED_EDGE ( 'NONE', *, *, #133, .T. ) ;
#353 = AXIS2_PLACEMENT_3D ( 'NONE', #27, #179, #212 ) ;
#354 = ORIENTED_EDGE ( 'NONE', *, *, #139, .F. ) ;
#355 = ADVANCED_BREP_SHAPE_REPRESENTATION ( 'c788', ( #155, #308 ), #67 ) ;
#356 = ORIENTED_EDGE ( 'NONE', *, *, #341, .T. ) ;
#357 = DATE_TIME_ROLE ( 'classification_date' ) ;
#358 = AXIS2_PLACEMENT_3D ( 'NONE', #364, #304, #359 ) ;
#359 = DIRECTION ( 'NONE',  ( 1.000000000000000000, 0.000000000000000000, 0.000000000000000000 ) ) ;
#360 = PERSON_AND_ORGANIZATION ( #158, #379 ) ;
#361 = FACE_OUTER_BOUND ( 'NONE', #381, .T. ) ;
#362 = LINE ( 'NONE', #378, #259 ) ;
#363 = CC_DESIGN_DATE_AND_TIME_ASSIGNMENT ( #104, #191, ( #347 ) ) ;
#364 = CARTESIAN_POINT ( 'NONE',  ( 0.000000000000000000, 0.000000000000000000, 0.000000000000000000 ) ) ;
#365 = VERTEX_POINT ( 'NONE', #184 ) ;
#366 = DIRECTION ( 'NONE',  ( 1.000000000000000000, 0.000000000000000000, 0.000000000000000000 ) ) ;
#367 = EDGE_CURVE ( 'NONE', #136, #167, #148, .T. ) ;
#368 = DATE_AND_TIME ( #302, #315 ) ;
#369 = FACE_OUTER_BOUND ( 'NONE', #42, .T. ) ;
#370 = FACE_OUTER_BOUND ( 'NONE', #41, .T. ) ;
#371 = AXIS2_PLACEMENT_3D ( 'NONE', #272, #10, #116 ) ;
#372 = CARTESIAN_POINT ( 'NONE',  ( 0.000000000000000000, 0.000000000000000000, 3.000000000000000000 ) ) ;
#373 = CARTESIAN_POINT ( 'NONE',  ( 2.500000000000000000, 3.061616997868383141E-16, 163.0000000000000000 ) ) ;
#374 = CC_DESIGN_APPROVAL ( #69, ( #347 ) ) ;
#375 = CARTESIAN_POINT ( 'NONE',  ( 5.000000000000000000, 6.123233995736766282E-16, 3.000000000000000000 ) ) ;
#376 = PERSON_AND_ORGANIZATION_ROLE ( 'creator' ) ;
#377 = DIRECTION ( 'NONE',  ( -1.000000000000000000, 0.000000000000000000, 0.000000000000000000 ) ) ;
#378 = CARTESIAN_POINT ( 'NONE',  ( 1.000000000000000000, 1.224646799147353207E-16, 163.0000000000000000 ) ) ;
#379 = ORGANIZATION ( 'NEURÈENÝ', 'NEURÈENÝ', '' ) ;
#380 = CARTESIAN_POINT ( 'NONE',  ( 1.000000000000000000, 1.224646799147353207E-16, 0.000000000000000000 ) ) ;
#381 = EDGE_LOOP ( 'NONE', ( #5, #204, #171, #143 ) ) ;
ENDSEC;
END-ISO-10303-21;
