ISO-10303-21;
HEADER;
FILE_DESCRIPTION (( 'STEP AP203' ),
    '1' );
FILE_NAME ('a3a0.STEP',
    '2022-07-08T14:18:15',
    ( '' ),
    ( '' ),
    'SwSTEP 2.0',
    'SolidWorks 2019',
    '' );
FILE_SCHEMA (( 'CONFIG_CONTROL_DESIGN' ));
ENDSEC;

DATA;
#1 = CARTESIAN_POINT ( 'NONE',  ( 0.000000000000000000, 0.000000000000000000, 7.000000000000000000 ) ) ;
#2 = DIRECTION ( 'NONE',  ( -1.000000000000000000, 0.000000000000000000, 0.000000000000000000 ) ) ;
#3 = CLOSED_SHELL ( 'NONE', ( #222, #111, #247, #146, #277, #284, #63, #142, #301, #214, #22 ) ) ;
#4 = CC_DESIGN_DATE_AND_TIME_ASSIGNMENT ( #108, #349, ( #375 ) ) ;
#5 = PLANE ( 'NONE',  #250 ) ;
#6 = APPROVAL_PERSON_ORGANIZATION ( #282, #327, #170 ) ;
#7 = PERSON_AND_ORGANIZATION_ROLE ( 'creator' ) ;
#8 = PLANE ( 'NONE',  #218 ) ;
#9 = ORIENTED_EDGE ( 'NONE', *, *, #79, .T. ) ;
#10 = CARTESIAN_POINT ( 'NONE',  ( -8.699999999999999289, 1.065442715258197248E-15, 7.000000000000020428 ) ) ;
#11 = ORIENTED_EDGE ( 'NONE', *, *, #138, .T. ) ;
#12 = EDGE_CURVE ( 'NONE', #246, #169, #204, .T. ) ;
#13 = CIRCLE ( 'NONE', #377, 11.00000000000000000 ) ;
#14 = UNCERTAINTY_MEASURE_WITH_UNIT (LENGTH_MEASURE( 1.000000000000000082E-05 ), #191, 'distance_accuracy_value', 'NONE');
#15 = CARTESIAN_POINT ( 'NONE',  ( 8.000000000000000000, 9.797174393178825657E-16, 557.0000000000000000 ) ) ;
#16 = ORIENTED_EDGE ( 'NONE', *, *, #211, .T. ) ;
#17 = AXIS2_PLACEMENT_3D ( 'NONE', #208, #266, #303 ) ;
#18 = DATE_AND_TIME ( #371, #61 ) ;
#19 = ORIENTED_EDGE ( 'NONE', *, *, #128, .F. ) ;
#20 = COORDINATED_UNIVERSAL_TIME_OFFSET ( 1, 0, .AHEAD. ) ;
#21 = DIRECTION ( 'NONE',  ( 1.224646799147353207E-16, 1.000000000000000000, -0.000000000000000000 ) ) ;
#22 = ADVANCED_FACE ( 'NONE', ( #294 ), #30, .F. ) ;
#23 = DIRECTION ( 'NONE',  ( -0.000000000000000000, -0.000000000000000000, -1.000000000000000000 ) ) ;
#24 = ORIENTED_EDGE ( 'NONE', *, *, #243, .T. ) ;
#25 = ORGANIZATION ( 'NEURÈENÝ', 'NEURÈENÝ', '' ) ;
#26 = ORIENTED_EDGE ( 'NONE', *, *, #351, .T. ) ;
#27 = ORIENTED_EDGE ( 'NONE', *, *, #172, .F. ) ;
#28 = CARTESIAN_POINT ( 'NONE',  ( 0.000000000000000000, 0.000000000000000000, 0.000000000000000000 ) ) ;
#29 = TOROIDAL_SURFACE ( 'NONE', #374, 8.699999999999999289, 0.6999999999999999556 ) ;
#30 = CYLINDRICAL_SURFACE ( 'NONE', #304, 6.000000000000000888 ) ;
#31 = LINE ( 'NONE', #34, #164 ) ;
#32 = EDGE_CURVE ( 'NONE', #227, #77, #54, .T. ) ;
#33 = DIRECTION ( 'NONE',  ( 1.000000000000000000, 0.000000000000000000, 0.000000000000000000 ) ) ;
#34 = CARTESIAN_POINT ( 'NONE',  ( 11.00000000000000000, 1.347111479062088405E-15, 7.000000000000000000 ) ) ;
#35 = FACE_OUTER_BOUND ( 'NONE', #132, .T. ) ;
#36 = EDGE_CURVE ( 'NONE', #337, #242, #347, .T. ) ;
#37 = DIRECTION ( 'NONE',  ( 0.000000000000000000, 0.000000000000000000, 1.000000000000000000 ) ) ;
#38 = CARTESIAN_POINT ( 'NONE',  ( 0.000000000000000000, 0.000000000000000000, 7.700000000000040146 ) ) ;
#39 = CARTESIAN_POINT ( 'NONE',  ( 0.000000000000000000, 0.000000000000000000, 7.000000000000000000 ) ) ;
#40 = PERSON_AND_ORGANIZATION ( #168, #25 ) ;
#41 = CARTESIAN_POINT ( 'NONE',  ( 0.000000000000000000, 0.000000000000000000, 7.000000000000000000 ) ) ;
#42 = ORIENTED_EDGE ( 'NONE', *, *, #94, .T. ) ;
#43 = CIRCLE ( 'NONE', #135, 6.000000000000000888 ) ;
#44 = EDGE_LOOP ( 'NONE', ( #318, #199, #9, #217 ) ) ;
#45 = EDGE_CURVE ( 'NONE', #246, #123, #113, .T. ) ;
#46 = MECHANICAL_CONTEXT ( 'NONE', #101, 'mechanical' ) ;
#47 = EDGE_LOOP ( 'NONE', ( #134, #309 ) ) ;
#48 = EDGE_LOOP ( 'NONE', ( #367, #254, #16, #125 ) ) ;
#49 = CIRCLE ( 'NONE', #341, 6.000000000000000888 ) ;
#50 = APPROVAL_DATE_TIME ( #223, #327 ) ;
#51 = PRODUCT_DEFINITION ( 'NEZNÁMÝ', '', #380, #68 ) ;
#52 = EDGE_LOOP ( 'NONE', ( #194, #350 ) ) ;
#53 = DIRECTION ( 'NONE',  ( 1.000000000000000000, 0.000000000000000000, 0.000000000000000000 ) ) ;
#54 = CIRCLE ( 'NONE', #293, 11.00000000000000000 ) ;
#55 = CARTESIAN_POINT ( 'NONE',  ( 0.000000000000000000, 0.000000000000000000, 0.000000000000000000 ) ) ;
#56 = AXIS2_PLACEMENT_3D ( 'NONE', #39, #154, #180 ) ;
#57 = CC_DESIGN_SECURITY_CLASSIFICATION ( #375, ( #380 ) ) ;
#58 = DIRECTION ( 'NONE',  ( 1.000000000000000000, 0.000000000000000000, 0.000000000000000000 ) ) ;
#59 = DIRECTION ( 'NONE',  ( 1.000000000000000000, 0.000000000000000000, 0.000000000000000000 ) ) ;
#60 = CARTESIAN_POINT ( 'NONE',  ( 6.000000000000000888, 7.347880794884120722E-16, 557.0000000000000000 ) ) ;
#61 = LOCAL_TIME ( 16, 18, 15.00000000000000000, #20 ) ;
#62 = CARTESIAN_POINT ( 'NONE',  ( -11.00000000000000000, 0.000000000000000000, 0.000000000000000000 ) ) ;
#63 = ADVANCED_FACE ( 'NONE', ( #288, #257 ), #173, .F. ) ;
#64 = CARTESIAN_POINT ( 'NONE',  ( 8.000000000000000000, 9.797174393178825657E-16, 557.0000000000000000 ) ) ;
#65 = DIRECTION ( 'NONE',  ( 1.000000000000000000, 0.000000000000000000, 0.000000000000000000 ) ) ;
#66 = LOCAL_TIME ( 16, 18, 15.00000000000000000, #366 ) ;
#67 = EDGE_LOOP ( 'NONE', ( #373, #196 ) ) ;
#68 = DESIGN_CONTEXT ( 'detailed design', #264, 'design' ) ;
#69 = EDGE_CURVE ( 'NONE', #123, #221, #312, .T. ) ;
#70 = DIRECTION ( 'NONE',  ( 0.000000000000000000, 0.000000000000000000, 1.000000000000000000 ) ) ;
#71 = PERSON_AND_ORGANIZATION ( #168, #25 ) ;
#72 = VERTEX_POINT ( 'NONE', #60 ) ;
#73 = EDGE_CURVE ( 'NONE', #285, #77, #31, .T. ) ;
#74 = CALENDAR_DATE ( 2022, 8, 7 ) ;
#75 = DIRECTION ( 'NONE',  ( -1.000000000000000000, 1.224646799147353207E-16, 0.000000000000000000 ) ) ;
#76 = SHAPE_DEFINITION_REPRESENTATION ( #225, #269 ) ;
#77 = VERTEX_POINT ( 'NONE', #145 ) ;
#78 = PRODUCT ( 'a3a0', 'a3a0', '', ( #46 ) ) ;
#79 = EDGE_CURVE ( 'NONE', #77, #227, #13, .T. ) ;
#80 = ORIENTED_EDGE ( 'NONE', *, *, #255, .F. ) ;
#81 = AXIS2_PLACEMENT_3D ( 'NONE', #87, #114, #148 ) ;
#82 = DIRECTION ( 'NONE',  ( 0.000000000000000000, 0.000000000000000000, -1.000000000000000000 ) ) ;
#83 = CARTESIAN_POINT ( 'NONE',  ( 0.000000000000000000, 0.000000000000000000, 0.000000000000000000 ) ) ;
#84 = DIRECTION ( 'NONE',  ( 1.000000000000000000, 0.000000000000000000, 0.000000000000000000 ) ) ;
#85 = EDGE_CURVE ( 'NONE', #252, #227, #258, .T. ) ;
#86 =( GEOMETRIC_REPRESENTATION_CONTEXT ( 3 ) GLOBAL_UNCERTAINTY_ASSIGNED_CONTEXT ( ( #14 ) ) GLOBAL_UNIT_ASSIGNED_CONTEXT ( ( #191, #251, #344 ) ) REPRESENTATION_CONTEXT ( 'NONE', 'WORKASPACE' ) );
#87 = CARTESIAN_POINT ( 'NONE',  ( 0.000000000000000000, 0.000000000000000000, 557.0000000000000000 ) ) ;
#88 = DIRECTION ( 'NONE',  ( -0.000000000000000000, -0.000000000000000000, -1.000000000000000000 ) ) ;
#89 = FACE_OUTER_BOUND ( 'NONE', #370, .T. ) ;
#90 = CC_DESIGN_APPROVAL ( #363, ( #380 ) ) ;
#91 = CARTESIAN_POINT ( 'NONE',  ( 0.000000000000000000, 0.000000000000000000, 7.000000000000000000 ) ) ;
#92 = CARTESIAN_POINT ( 'NONE',  ( 8.699999999999999289, 0.000000000000000000, 7.000000000000020428 ) ) ;
#93 = DIRECTION ( 'NONE',  ( 1.000000000000000000, 0.000000000000000000, -0.000000000000000000 ) ) ;
#94 = EDGE_CURVE ( 'NONE', #130, #256, #320, .T. ) ;
#95 = DIRECTION ( 'NONE',  ( 0.000000000000000000, 0.000000000000000000, 1.000000000000000000 ) ) ;
#96 = AXIS2_PLACEMENT_3D ( 'NONE', #38, #240, #149 ) ;
#97 = EDGE_CURVE ( 'NONE', #242, #337, #49, .T. ) ;
#98 = CARTESIAN_POINT ( 'NONE',  ( 0.000000000000000000, 0.000000000000000000, 7.000000000000000000 ) ) ;
#99 = ORIENTED_EDGE ( 'NONE', *, *, #255, .T. ) ;
#100 = APPROVAL_STATUS ( 'not_yet_approved' ) ;
#101 = APPLICATION_CONTEXT ( 'configuration controlled 3d designs of mechanical parts and assemblies' ) ;
#102 = ORIENTED_EDGE ( 'NONE', *, *, #122, .F. ) ;
#103 = AXIS2_PLACEMENT_3D ( 'NONE', #98, #280, #245 ) ;
#104 = APPROVAL_STATUS ( 'not_yet_approved' ) ;
#105 = CARTESIAN_POINT ( 'NONE',  ( 0.000000000000000000, 0.000000000000000000, 0.000000000000000000 ) ) ;
#106 = ORIENTED_EDGE ( 'NONE', *, *, #351, .F. ) ;
#107 = EDGE_LOOP ( 'NONE', ( #24, #276, #226, #80 ) ) ;
#108 = DATE_AND_TIME ( #339, #267 ) ;
#109 = ORIENTED_EDGE ( 'NONE', *, *, #381, .T. ) ;
#110 = CARTESIAN_POINT ( 'NONE',  ( 0.000000000000000000, 0.000000000000000000, 7.000000000000000000 ) ) ;
#111 = ADVANCED_FACE ( 'NONE', ( #141 ), #29, .F. ) ;
#112 = CYLINDRICAL_SURFACE ( 'NONE', #209, 8.000000000000000000 ) ;
#113 = CIRCLE ( 'NONE', #140, 8.000000000000000000 ) ;
#114 = DIRECTION ( 'NONE',  ( 0.000000000000000000, 0.000000000000000000, 1.000000000000000000 ) ) ;
#115 = DIRECTION ( 'NONE',  ( -1.000000000000000000, 0.000000000000000000, 0.000000000000000000 ) ) ;
#116 = CC_DESIGN_PERSON_AND_ORGANIZATION_ASSIGNMENT ( #275, #342, ( #78 ) ) ;
#117 = FACE_OUTER_BOUND ( 'NONE', #166, .T. ) ;
#118 = CARTESIAN_POINT ( 'NONE',  ( -11.00000000000000000, 0.000000000000000000, 7.000000000000000000 ) ) ;
#119 = AXIS2_PLACEMENT_3D ( 'NONE', #91, #151, #338 ) ;
#120 = CARTESIAN_POINT ( 'NONE',  ( 11.00000000000000000, 1.347111479062088405E-15, 7.000000000000000000 ) ) ;
#121 = FACE_OUTER_BOUND ( 'NONE', #48, .T. ) ;
#122 = EDGE_CURVE ( 'NONE', #169, #221, #368, .T. ) ;
#123 = VERTEX_POINT ( 'NONE', #290 ) ;
#124 = DIRECTION ( 'NONE',  ( -0.000000000000000000, -0.000000000000000000, -1.000000000000000000 ) ) ;
#125 = ORIENTED_EDGE ( 'NONE', *, *, #381, .F. ) ;
#126 = CARTESIAN_POINT ( 'NONE',  ( 0.000000000000000000, 0.000000000000000000, 557.0000000000000000 ) ) ;
#127 = CIRCLE ( 'NONE', #103, 8.699999999999999289 ) ;
#128 = EDGE_CURVE ( 'NONE', #72, #242, #259, .T. ) ;
#129 = PERSON_AND_ORGANIZATION_ROLE ( 'creator' ) ;
#130 = VERTEX_POINT ( 'NONE', #319 ) ;
#131 = PERSON_AND_ORGANIZATION ( #168, #25 ) ;
#132 = EDGE_LOOP ( 'NONE', ( #139, #372, #311, #102 ) ) ;
#133 = AXIS2_PLACEMENT_3D ( 'NONE', #144, #376, #33 ) ;
#134 = ORIENTED_EDGE ( 'NONE', *, *, #32, .F. ) ;
#135 = AXIS2_PLACEMENT_3D ( 'NONE', #188, #95, #336 ) ;
#136 = PERSON_AND_ORGANIZATION ( #168, #25 ) ;
#137 = ORIENTED_EDGE ( 'NONE', *, *, #32, .T. ) ;
#138 = EDGE_CURVE ( 'NONE', #256, #130, #237, .T. ) ;
#139 = ORIENTED_EDGE ( 'NONE', *, *, #12, .F. ) ;
#140 = AXIS2_PLACEMENT_3D ( 'NONE', #234, #291, #354 ) ;
#141 = FACE_OUTER_BOUND ( 'NONE', #163, .T. ) ;
#142 = ADVANCED_FACE ( 'NONE', ( #117 ), #112, .T. ) ;
#143 = DIRECTION ( 'NONE',  ( -0.000000000000000000, -0.000000000000000000, -1.000000000000000000 ) ) ;
#144 = CARTESIAN_POINT ( 'NONE',  ( 0.000000000000000000, 0.000000000000000000, 557.0000000000000000 ) ) ;
#145 = CARTESIAN_POINT ( 'NONE',  ( 11.00000000000000000, 1.347111479062088405E-15, 0.000000000000000000 ) ) ;
#146 = ADVANCED_FACE ( 'NONE', ( #326 ), #261, .T. ) ;
#147 = VECTOR ( 'NONE', #298, 1000.000000000000000 ) ;
#148 = DIRECTION ( 'NONE',  ( 1.000000000000000000, 0.000000000000000000, 0.000000000000000000 ) ) ;
#149 = DIRECTION ( 'NONE',  ( 1.000000000000000000, 0.000000000000000000, 0.000000000000000000 ) ) ;
#150 = APPROVAL_DATE_TIME ( #195, #363 ) ;
#151 = DIRECTION ( 'NONE',  ( -0.000000000000000000, -0.000000000000000000, -1.000000000000000000 ) ) ;
#152 = AXIS2_PLACEMENT_3D ( 'NONE', #110, #175, #379 ) ;
#153 = FACE_BOUND ( 'NONE', #306, .T. ) ;
#154 = DIRECTION ( 'NONE',  ( 0.000000000000000000, 0.000000000000000000, 1.000000000000000000 ) ) ;
#155 = ORIENTED_EDGE ( 'NONE', *, *, #36, .T. ) ;
#156 = PERSON_AND_ORGANIZATION_ROLE ( 'design_supplier' ) ;
#157 = DIRECTION ( 'NONE',  ( 0.000000000000000000, 0.000000000000000000, 1.000000000000000000 ) ) ;
#158 = DIRECTION ( 'NONE',  ( 0.000000000000000000, 0.000000000000000000, 1.000000000000000000 ) ) ;
#159 = EDGE_LOOP ( 'NONE', ( #286, #345, #224, #137 ) ) ;
#160 = APPLICATION_PROTOCOL_DEFINITION ( 'international standard', 'config_control_design', 1994, #264 ) ;
#161 = ORIENTED_EDGE ( 'NONE', *, *, #178, .T. ) ;
#162 = CARTESIAN_POINT ( 'NONE',  ( -6.000000000000000888, 0.000000000000000000, 0.000000000000000000 ) ) ;
#163 = EDGE_LOOP ( 'NONE', ( #281, #348, #106, #340 ) ) ;
#164 = VECTOR ( 'NONE', #88, 1000.000000000000000 ) ;
#165 = CC_DESIGN_DATE_AND_TIME_ASSIGNMENT ( #278, #310, ( #51 ) ) ;
#166 = EDGE_LOOP ( 'NONE', ( #27, #192, #109, #186 ) ) ;
#167 = AXIS2_PLACEMENT_3D ( 'NONE', #241, #297, #331 ) ;
#168 = PERSON ( 'NEURÈENÝ', 'NEURÈENÝ', 'NEURÈENÝ', ('NEURÈENÝ'), ('NEURÈENÝ'), ('NEURÈENÝ') ) ;
#169 = VERTEX_POINT ( 'NONE', #10 ) ;
#170 = APPROVAL_ROLE ( '' ) ;
#171 = DIRECTION ( 'NONE',  ( 0.000000000000000000, 0.000000000000000000, 1.000000000000000000 ) ) ;
#172 = EDGE_CURVE ( 'NONE', #256, #123, #210, .T. ) ;
#173 = PLANE ( 'NONE',  #263 ) ;
#174 = CIRCLE ( 'NONE', #200, 8.000000000000000000 ) ;
#175 = DIRECTION ( 'NONE',  ( -0.000000000000000000, -0.000000000000000000, -1.000000000000000000 ) ) ;
#176 = CARTESIAN_POINT ( 'NONE',  ( 8.699999999999999289, 0.000000000000000000, 7.700000000000040146 ) ) ;
#177 = AXIS2_PLACEMENT_3D ( 'NONE', #279, #21, #75 ) ;
#178 = EDGE_CURVE ( 'NONE', #252, #285, #296, .T. ) ;
#179 = DIRECTION ( 'NONE',  ( 0.000000000000000000, 0.000000000000000000, -1.000000000000000000 ) ) ;
#180 = DIRECTION ( 'NONE',  ( 1.000000000000000000, 0.000000000000000000, 0.000000000000000000 ) ) ;
#181 = CARTESIAN_POINT ( 'NONE',  ( -8.000000000000000000, 0.000000000000000000, 7.700000000000040146 ) ) ;
#182 = CC_DESIGN_PERSON_AND_ORGANIZATION_ASSIGNMENT ( #71, #129, ( #51 ) ) ;
#183 = DIRECTION ( 'NONE',  ( -1.000000000000000000, 0.000000000000000000, 0.000000000000000000 ) ) ;
#184 = AXIS2_PLACEMENT_3D ( 'NONE', #105, #158, #197 ) ;
#185 = DIRECTION ( 'NONE',  ( 0.000000000000000000, 0.000000000000000000, -1.000000000000000000 ) ) ;
#186 = ORIENTED_EDGE ( 'NONE', *, *, #45, .T. ) ;
#187 = EDGE_CURVE ( 'NONE', #72, #271, #307, .T. ) ;
#188 = CARTESIAN_POINT ( 'NONE',  ( 0.000000000000000000, 0.000000000000000000, 557.0000000000000000 ) ) ;
#189 = PERSON_AND_ORGANIZATION_ROLE ( 'classification_officer' ) ;
#190 = VECTOR ( 'NONE', #292, 1000.000000000000000 ) ;
#191 =( LENGTH_UNIT ( ) NAMED_UNIT ( * ) SI_UNIT ( .MILLI., .METRE. ) );
#192 = ORIENTED_EDGE ( 'NONE', *, *, #94, .F. ) ;
#193 = APPROVAL_STATUS ( 'not_yet_approved' ) ;
#194 = ORIENTED_EDGE ( 'NONE', *, *, #36, .F. ) ;
#195 = DATE_AND_TIME ( #74, #220 ) ;
#196 = ORIENTED_EDGE ( 'NONE', *, *, #187, .F. ) ;
#197 = DIRECTION ( 'NONE',  ( 1.000000000000000000, 0.000000000000000000, 0.000000000000000000 ) ) ;
#198 = ORIENTED_EDGE ( 'NONE', *, *, #187, .T. ) ;
#199 = ORIENTED_EDGE ( 'NONE', *, *, #73, .T. ) ;
#200 = AXIS2_PLACEMENT_3D ( 'NONE', #362, #37, #238 ) ;
#201 = CC_DESIGN_APPROVAL ( #327, ( #375 ) ) ;
#202 = DIRECTION ( 'NONE',  ( 0.000000000000000000, 0.000000000000000000, -1.000000000000000000 ) ) ;
#203 = CARTESIAN_POINT ( 'NONE',  ( 0.000000000000000000, 0.000000000000000000, 0.000000000000000000 ) ) ;
#204 = CIRCLE ( 'NONE', #177, 0.6999999999999992895 ) ;
#205 = CARTESIAN_POINT ( 'NONE',  ( 0.000000000000000000, 0.000000000000000000, 557.0000000000000000 ) ) ;
#206 = DIRECTION ( 'NONE',  ( -0.000000000000000000, -0.000000000000000000, -1.000000000000000000 ) ) ;
#207 = DIRECTION ( 'NONE',  ( 1.000000000000000000, 0.000000000000000000, 0.000000000000000000 ) ) ;
#208 = CARTESIAN_POINT ( 'NONE',  ( 0.000000000000000000, 0.000000000000000000, 557.0000000000000000 ) ) ;
#209 = AXIS2_PLACEMENT_3D ( 'NONE', #353, #206, #115 ) ;
#210 = LINE ( 'NONE', #15, #147 ) ;
#211 = EDGE_CURVE ( 'NONE', #123, #246, #174, .T. ) ;
#212 = FACE_OUTER_BOUND ( 'NONE', #107, .T. ) ;
#213 = FACE_OUTER_BOUND ( 'NONE', #249, .T. ) ;
#214 = ADVANCED_FACE ( 'NONE', ( #35 ), #317, .F. ) ;
#215 = DIRECTION ( 'NONE',  ( 0.000000000000000000, 0.000000000000000000, 1.000000000000000000 ) ) ;
#216 = APPROVAL_DATE_TIME ( #18, #232 ) ;
#217 = ORIENTED_EDGE ( 'NONE', *, *, #85, .F. ) ;
#218 = AXIS2_PLACEMENT_3D ( 'NONE', #360, #157, #302 ) ;
#219 = COORDINATED_UNIVERSAL_TIME_OFFSET ( 1, 0, .AHEAD. ) ;
#220 = LOCAL_TIME ( 16, 18, 15.00000000000000000, #219 ) ;
#221 = VERTEX_POINT ( 'NONE', #92 ) ;
#222 = ADVANCED_FACE ( 'NONE', ( #212 ), #262, .F. ) ;
#223 = DATE_AND_TIME ( #315, #369 ) ;
#224 = ORIENTED_EDGE ( 'NONE', *, *, #85, .T. ) ;
#225 = PRODUCT_DEFINITION_SHAPE ( 'NONE', 'NONE',  #51 ) ;
#226 = ORIENTED_EDGE ( 'NONE', *, *, #97, .T. ) ;
#227 = VERTEX_POINT ( 'NONE', #62 ) ;
#228 = APPROVAL_PERSON_ORGANIZATION ( #136, #232, #253 ) ;
#229 = DIRECTION ( 'NONE',  ( 0.000000000000000000, 0.000000000000000000, 1.000000000000000000 ) ) ;
#230 = DIRECTION ( 'NONE',  ( -1.000000000000000000, 0.000000000000000000, 0.000000000000000000 ) ) ;
#231 = DIRECTION ( 'NONE',  ( 0.000000000000000000, -1.000000000000000000, 0.000000000000000000 ) ) ;
#232 = APPROVAL ( #193, 'NEURÈENÝ' ) ;
#233 = CC_DESIGN_APPROVAL ( #232, ( #51 ) ) ;
#234 = CARTESIAN_POINT ( 'NONE',  ( 0.000000000000000000, 0.000000000000000000, 7.700000000000040146 ) ) ;
#235 = DIRECTION ( 'NONE',  ( 0.000000000000000000, 0.000000000000000000, 1.000000000000000000 ) ) ;
#236 = LINE ( 'NONE', #359, #289 ) ;
#237 = CIRCLE ( 'NONE', #81, 8.000000000000000000 ) ;
#238 = DIRECTION ( 'NONE',  ( 1.000000000000000000, 0.000000000000000000, 0.000000000000000000 ) ) ;
#239 = SECURITY_CLASSIFICATION_LEVEL ( 'unclassified' ) ;
#240 = DIRECTION ( 'NONE',  ( 0.000000000000000000, 0.000000000000000000, 1.000000000000000000 ) ) ;
#241 = CARTESIAN_POINT ( 'NONE',  ( 0.000000000000000000, 0.000000000000000000, 7.000000000000000000 ) ) ;
#242 = VERTEX_POINT ( 'NONE', #299 ) ;
#243 = EDGE_CURVE ( 'NONE', #271, #72, #43, .T. ) ;
#244 = VECTOR ( 'NONE', #179, 1000.000000000000000 ) ;
#245 = DIRECTION ( 'NONE',  ( 1.000000000000000000, 0.000000000000000000, 0.000000000000000000 ) ) ;
#246 = VERTEX_POINT ( 'NONE', #181 ) ;
#247 = ADVANCED_FACE ( 'NONE', ( #121 ), #270, .T. ) ;
#248 = APPROVAL_ROLE ( '' ) ;
#249 = EDGE_LOOP ( 'NONE', ( #161, #314 ) ) ;
#250 = AXIS2_PLACEMENT_3D ( 'NONE', #41, #70, #93 ) ;
#251 =( NAMED_UNIT ( * ) PLANE_ANGLE_UNIT ( ) SI_UNIT ( $, .RADIAN. ) );
#252 = VERTEX_POINT ( 'NONE', #118 ) ;
#253 = APPROVAL_ROLE ( '' ) ;
#254 = ORIENTED_EDGE ( 'NONE', *, *, #172, .T. ) ;
#255 = EDGE_CURVE ( 'NONE', #271, #337, #236, .T. ) ;
#256 = VERTEX_POINT ( 'NONE', #64 ) ;
#257 = FACE_OUTER_BOUND ( 'NONE', #47, .T. ) ;
#258 = LINE ( 'NONE', #378, #190 ) ;
#259 = LINE ( 'NONE', #321, #244 ) ;
#260 = DIRECTION ( 'NONE',  ( -0.000000000000000000, -0.000000000000000000, -1.000000000000000000 ) ) ;
#261 = CYLINDRICAL_SURFACE ( 'NONE', #358, 11.00000000000000000 ) ;
#262 = CYLINDRICAL_SURFACE ( 'NONE', #283, 6.000000000000000888 ) ;
#263 = AXIS2_PLACEMENT_3D ( 'NONE', #203, #235, #355 ) ;
#264 = APPLICATION_CONTEXT ( 'configuration controlled 3d designs of mechanical parts and assemblies' ) ;
#265 = PERSON_AND_ORGANIZATION ( #168, #25 ) ;
#266 = DIRECTION ( 'NONE',  ( -0.000000000000000000, -0.000000000000000000, -1.000000000000000000 ) ) ;
#267 = LOCAL_TIME ( 16, 18, 15.00000000000000000, #273 ) ;
#268 = FACE_BOUND ( 'NONE', #67, .T. ) ;
#269 = ADVANCED_BREP_SHAPE_REPRESENTATION ( 'a3a0', ( #330, #184 ), #86 ) ;
#270 = CYLINDRICAL_SURFACE ( 'NONE', #17, 8.000000000000000000 ) ;
#271 = VERTEX_POINT ( 'NONE', #356 ) ;
#272 = DIRECTION ( 'NONE',  ( 0.000000000000000000, 0.000000000000000000, -1.000000000000000000 ) ) ;
#273 = COORDINATED_UNIVERSAL_TIME_OFFSET ( 1, 0, .AHEAD. ) ;
#274 = CIRCLE ( 'NONE', #56, 11.00000000000000000 ) ;
#275 = PERSON_AND_ORGANIZATION ( #168, #25 ) ;
#276 = ORIENTED_EDGE ( 'NONE', *, *, #128, .T. ) ;
#277 = ADVANCED_FACE ( 'NONE', ( #357 ), #329, .T. ) ;
#278 = DATE_AND_TIME ( #308, #66 ) ;
#279 = CARTESIAN_POINT ( 'NONE',  ( -8.699999999999999289, 1.065442715258197248E-15, 7.700000000000040146 ) ) ;
#280 = DIRECTION ( 'NONE',  ( -0.000000000000000000, -0.000000000000000000, -1.000000000000000000 ) ) ;
#281 = ORIENTED_EDGE ( 'NONE', *, *, #45, .F. ) ;
#282 = PERSON_AND_ORGANIZATION ( #168, #25 ) ;
#283 = AXIS2_PLACEMENT_3D ( 'NONE', #332, #272, #2 ) ;
#284 = ADVANCED_FACE ( 'NONE', ( #153, #213 ), #5, .T. ) ;
#285 = VERTEX_POINT ( 'NONE', #120 ) ;
#286 = ORIENTED_EDGE ( 'NONE', *, *, #73, .F. ) ;
#287 = COORDINATED_UNIVERSAL_TIME_OFFSET ( 1, 0, .AHEAD. ) ;
#288 = FACE_BOUND ( 'NONE', #52, .T. ) ;
#289 = VECTOR ( 'NONE', #185, 1000.000000000000000 ) ;
#290 = CARTESIAN_POINT ( 'NONE',  ( 8.000000000000000000, 9.797174393178825657E-16, 7.700000000000040146 ) ) ;
#291 = DIRECTION ( 'NONE',  ( 0.000000000000000000, 0.000000000000000000, 1.000000000000000000 ) ) ;
#292 = DIRECTION ( 'NONE',  ( -0.000000000000000000, -0.000000000000000000, -1.000000000000000000 ) ) ;
#293 = AXIS2_PLACEMENT_3D ( 'NONE', #83, #324, #84 ) ;
#294 = FACE_OUTER_BOUND ( 'NONE', #365, .T. ) ;
#295 = CC_DESIGN_PERSON_AND_ORGANIZATION_ASSIGNMENT ( #40, #156, ( #380 ) ) ;
#296 = CIRCLE ( 'NONE', #167, 11.00000000000000000 ) ;
#297 = DIRECTION ( 'NONE',  ( 0.000000000000000000, 0.000000000000000000, 1.000000000000000000 ) ) ;
#298 = DIRECTION ( 'NONE',  ( -0.000000000000000000, -0.000000000000000000, -1.000000000000000000 ) ) ;
#299 = CARTESIAN_POINT ( 'NONE',  ( 6.000000000000000888, 7.347880794884120722E-16, 0.000000000000000000 ) ) ;
#300 = AXIS2_PLACEMENT_3D ( 'NONE', #126, #215, #65 ) ;
#301 = ADVANCED_FACE ( 'NONE', ( #268, #89 ), #8, .T. ) ;
#302 = DIRECTION ( 'NONE',  ( 1.000000000000000000, 0.000000000000000000, -0.000000000000000000 ) ) ;
#303 = DIRECTION ( 'NONE',  ( -1.000000000000000000, 0.000000000000000000, 0.000000000000000000 ) ) ;
#304 = AXIS2_PLACEMENT_3D ( 'NONE', #205, #202, #230 ) ;
#305 = LINE ( 'NONE', #364, #323 ) ;
#306 = EDGE_LOOP ( 'NONE', ( #26, #343 ) ) ;
#307 = CIRCLE ( 'NONE', #300, 6.000000000000000888 ) ;
#308 = CALENDAR_DATE ( 2022, 8, 7 ) ;
#309 = ORIENTED_EDGE ( 'NONE', *, *, #79, .F. ) ;
#310 = DATE_TIME_ROLE ( 'creation_date' ) ;
#311 = ORIENTED_EDGE ( 'NONE', *, *, #69, .T. ) ;
#312 = CIRCLE ( 'NONE', #334, 0.7000000000000000666 ) ;
#313 = APPLICATION_PROTOCOL_DEFINITION ( 'international standard', 'config_control_design', 1994, #101 ) ;
#314 = ORIENTED_EDGE ( 'NONE', *, *, #316, .T. ) ;
#315 = CALENDAR_DATE ( 2022, 8, 7 ) ;
#316 = EDGE_CURVE ( 'NONE', #285, #252, #274, .T. ) ;
#317 = TOROIDAL_SURFACE ( 'NONE', #96, 8.699999999999999289, 0.6999999999999999556 ) ;
#318 = ORIENTED_EDGE ( 'NONE', *, *, #316, .F. ) ;
#319 = CARTESIAN_POINT ( 'NONE',  ( -8.000000000000000000, 0.000000000000000000, 557.0000000000000000 ) ) ;
#320 = CIRCLE ( 'NONE', #133, 8.000000000000000000 ) ;
#321 = CARTESIAN_POINT ( 'NONE',  ( 6.000000000000000888, 7.347880794884120722E-16, 557.0000000000000000 ) ) ;
#322 = PRODUCT_RELATED_PRODUCT_CATEGORY ( 'detail', '', ( #78 ) ) ;
#323 = VECTOR ( 'NONE', #23, 1000.000000000000000 ) ;
#324 = DIRECTION ( 'NONE',  ( 0.000000000000000000, 0.000000000000000000, 1.000000000000000000 ) ) ;
#325 = APPROVAL_PERSON_ORGANIZATION ( #131, #363, #248 ) ;
#326 = FACE_OUTER_BOUND ( 'NONE', #44, .T. ) ;
#327 = APPROVAL ( #104, 'NEURÈENÝ' ) ;
#328 = CARTESIAN_POINT ( 'NONE',  ( 0.000000000000000000, 0.000000000000000000, 7.700000000000040146 ) ) ;
#329 = CYLINDRICAL_SURFACE ( 'NONE', #119, 11.00000000000000000 ) ;
#330 = MANIFOLD_SOLID_BREP ( 'Odebrat vysunutím3', #3 ) ;
#331 = DIRECTION ( 'NONE',  ( 1.000000000000000000, 0.000000000000000000, 0.000000000000000000 ) ) ;
#332 = CARTESIAN_POINT ( 'NONE',  ( 0.000000000000000000, 0.000000000000000000, 557.0000000000000000 ) ) ;
#333 = CC_DESIGN_PERSON_AND_ORGANIZATION_ASSIGNMENT ( #265, #7, ( #380 ) ) ;
#334 = AXIS2_PLACEMENT_3D ( 'NONE', #176, #231, #82 ) ;
#335 = PERSON_AND_ORGANIZATION ( #168, #25 ) ;
#336 = DIRECTION ( 'NONE',  ( 1.000000000000000000, 0.000000000000000000, 0.000000000000000000 ) ) ;
#337 = VERTEX_POINT ( 'NONE', #162 ) ;
#338 = DIRECTION ( 'NONE',  ( -1.000000000000000000, 0.000000000000000000, 0.000000000000000000 ) ) ;
#339 = CALENDAR_DATE ( 2022, 8, 7 ) ;
#340 = ORIENTED_EDGE ( 'NONE', *, *, #69, .F. ) ;
#341 = AXIS2_PLACEMENT_3D ( 'NONE', #28, #260, #207 ) ;
#342 = PERSON_AND_ORGANIZATION_ROLE ( 'design_owner' ) ;
#343 = ORIENTED_EDGE ( 'NONE', *, *, #122, .T. ) ;
#344 =( NAMED_UNIT ( * ) SI_UNIT ( $, .STERADIAN. ) SOLID_ANGLE_UNIT ( ) );
#345 = ORIENTED_EDGE ( 'NONE', *, *, #178, .F. ) ;
#346 = CC_DESIGN_PERSON_AND_ORGANIZATION_ASSIGNMENT ( #335, #189, ( #375 ) ) ;
#347 = CIRCLE ( 'NONE', #361, 6.000000000000000888 ) ;
#348 = ORIENTED_EDGE ( 'NONE', *, *, #12, .T. ) ;
#349 = DATE_TIME_ROLE ( 'classification_date' ) ;
#350 = ORIENTED_EDGE ( 'NONE', *, *, #97, .F. ) ;
#351 = EDGE_CURVE ( 'NONE', #221, #169, #127, .T. ) ;
#352 = CARTESIAN_POINT ( 'NONE',  ( 0.000000000000000000, 0.000000000000000000, 0.000000000000000000 ) ) ;
#353 = CARTESIAN_POINT ( 'NONE',  ( 0.000000000000000000, 0.000000000000000000, 557.0000000000000000 ) ) ;
#354 = DIRECTION ( 'NONE',  ( 1.000000000000000000, 0.000000000000000000, 0.000000000000000000 ) ) ;
#355 = DIRECTION ( 'NONE',  ( 1.000000000000000000, 0.000000000000000000, -0.000000000000000000 ) ) ;
#356 = CARTESIAN_POINT ( 'NONE',  ( -6.000000000000000888, 0.000000000000000000, 557.0000000000000000 ) ) ;
#357 = FACE_OUTER_BOUND ( 'NONE', #159, .T. ) ;
#358 = AXIS2_PLACEMENT_3D ( 'NONE', #1, #124, #183 ) ;
#359 = CARTESIAN_POINT ( 'NONE',  ( -6.000000000000000888, 0.000000000000000000, 557.0000000000000000 ) ) ;
#360 = CARTESIAN_POINT ( 'NONE',  ( 0.000000000000000000, 0.000000000000000000, 557.0000000000000000 ) ) ;
#361 = AXIS2_PLACEMENT_3D ( 'NONE', #352, #143, #58 ) ;
#362 = CARTESIAN_POINT ( 'NONE',  ( 0.000000000000000000, 0.000000000000000000, 7.700000000000040146 ) ) ;
#363 = APPROVAL ( #100, 'NEURÈENÝ' ) ;
#364 = CARTESIAN_POINT ( 'NONE',  ( -8.000000000000000000, 0.000000000000000000, 557.0000000000000000 ) ) ;
#365 = EDGE_LOOP ( 'NONE', ( #19, #198, #99, #155 ) ) ;
#366 = COORDINATED_UNIVERSAL_TIME_OFFSET ( 1, 0, .AHEAD. ) ;
#367 = ORIENTED_EDGE ( 'NONE', *, *, #138, .F. ) ;
#368 = CIRCLE ( 'NONE', #152, 8.699999999999999289 ) ;
#369 = LOCAL_TIME ( 16, 18, 15.00000000000000000, #287 ) ;
#370 = EDGE_LOOP ( 'NONE', ( #42, #11 ) ) ;
#371 = CALENDAR_DATE ( 2022, 8, 7 ) ;
#372 = ORIENTED_EDGE ( 'NONE', *, *, #211, .F. ) ;
#373 = ORIENTED_EDGE ( 'NONE', *, *, #243, .F. ) ;
#374 = AXIS2_PLACEMENT_3D ( 'NONE', #328, #229, #53 ) ;
#375 = SECURITY_CLASSIFICATION ( '', '', #239 ) ;
#376 = DIRECTION ( 'NONE',  ( 0.000000000000000000, 0.000000000000000000, 1.000000000000000000 ) ) ;
#377 = AXIS2_PLACEMENT_3D ( 'NONE', #55, #171, #59 ) ;
#378 = CARTESIAN_POINT ( 'NONE',  ( -11.00000000000000000, 0.000000000000000000, 7.000000000000000000 ) ) ;
#379 = DIRECTION ( 'NONE',  ( 1.000000000000000000, 0.000000000000000000, 0.000000000000000000 ) ) ;
#380 = PRODUCT_DEFINITION_FORMATION_WITH_SPECIFIED_SOURCE ( 'LIBOVOLNÝ', '', #78, .NOT_KNOWN. ) ;
#381 = EDGE_CURVE ( 'NONE', #130, #246, #305, .T. ) ;
ENDSEC;
END-ISO-10303-21;
