ISO-10303-21;
HEADER;
FILE_DESCRIPTION (( 'STEP AP203' ),
    '1' );
FILE_NAME ('a886.STEP',
    '2022-07-08T15:52:43',
    ( '' ),
    ( '' ),
    'SwSTEP 2.0',
    'SolidWorks 2019',
    '' );
FILE_SCHEMA (( 'CONFIG_CONTROL_DESIGN' ));
ENDSEC;

DATA;
#1 = AXIS2_PLACEMENT_3D ( 'NONE', #75, #134, #274 ) ;
#2 = CC_DESIGN_SECURITY_CLASSIFICATION ( #185, ( #132 ) ) ;
#3 = COORDINATED_UNIVERSAL_TIME_OFFSET ( 1, 0, .AHEAD. ) ;
#4 = VERTEX_POINT ( 'NONE', #294 ) ;
#5 = ORIENTED_EDGE ( 'NONE', *, *, #248, .F. ) ;
#6 = MANIFOLD_SOLID_BREP ( 'Odebrat vysunutím3', #189 ) ;
#7 = ORIENTED_EDGE ( 'NONE', *, *, #27, .T. ) ;
#8 = AXIS2_PLACEMENT_3D ( 'NONE', #198, #316, #26 ) ;
#9 = EDGE_LOOP ( 'NONE', ( #360, #10, #177, #206 ) ) ;
#10 = ORIENTED_EDGE ( 'NONE', *, *, #248, .T. ) ;
#11 = CARTESIAN_POINT ( 'NONE',  ( 0.000000000000000000, 0.000000000000000000, 3.000000000000000000 ) ) ;
#12 = LINE ( 'NONE', #161, #48 ) ;
#13 = CC_DESIGN_APPROVAL ( #128, ( #185 ) ) ;
#14 = CARTESIAN_POINT ( 'NONE',  ( 5.000000000000000000, 6.123233995736766282E-16, 3.000000000000000000 ) ) ;
#15 = CC_DESIGN_DATE_AND_TIME_ASSIGNMENT ( #182, #351, ( #193 ) ) ;
#16 = CARTESIAN_POINT ( 'NONE',  ( 1.000000000000000000, 1.224646799147352961E-16, 203.0000000000000000 ) ) ;
#17 = DIRECTION ( 'NONE',  ( 1.000000000000000000, 0.000000000000000000, 0.000000000000000000 ) ) ;
#18 = AXIS2_PLACEMENT_3D ( 'NONE', #106, #369, #108 ) ;
#19 = EDGE_CURVE ( 'NONE', #358, #86, #375, .T. ) ;
#20 = LINE ( 'NONE', #89, #174 ) ;
#21 = ORIENTED_EDGE ( 'NONE', *, *, #163, .T. ) ;
#22 = CARTESIAN_POINT ( 'NONE',  ( 0.000000000000000000, 0.000000000000000000, 3.299999999999997158 ) ) ;
#23 = VERTEX_POINT ( 'NONE', #352 ) ;
#24 = FACE_OUTER_BOUND ( 'NONE', #322, .T. ) ;
#25 = VERTEX_POINT ( 'NONE', #33 ) ;
#26 = DIRECTION ( 'NONE',  ( 1.000000000000000000, 0.000000000000000000, 0.000000000000000000 ) ) ;
#27 = EDGE_CURVE ( 'NONE', #35, #65, #60, .T. ) ;
#28 = PERSON_AND_ORGANIZATION ( #83, #303 ) ;
#29 = EDGE_LOOP ( 'NONE', ( #5, #320, #350, #258 ) ) ;
#30 = CALENDAR_DATE ( 2022, 8, 7 ) ;
#31 = ORIENTED_EDGE ( 'NONE', *, *, #168, .T. ) ;
#32 = AXIS2_PLACEMENT_3D ( 'NONE', #158, #41, #216 ) ;
#33 = CARTESIAN_POINT ( 'NONE',  ( 1.000000000000000000, 1.224646799147352961E-16, 203.0000000000000000 ) ) ;
#34 = PERSON_AND_ORGANIZATION ( #83, #303 ) ;
#35 = VERTEX_POINT ( 'NONE', #95 ) ;
#36 = APPROVAL_STATUS ( 'not_yet_approved' ) ;
#37 = DIRECTION ( 'NONE',  ( 0.000000000000000000, 0.000000000000000000, 1.000000000000000000 ) ) ;
#38 = AXIS2_PLACEMENT_3D ( 'NONE', #342, #197, #315 ) ;
#39 = VERTEX_POINT ( 'NONE', #210 ) ;
#40 = DIRECTION ( 'NONE',  ( -1.000000000000000000, 0.000000000000000000, 0.000000000000000000 ) ) ;
#41 = DIRECTION ( 'NONE',  ( -0.000000000000000000, -0.000000000000000000, -1.000000000000000000 ) ) ;
#42 = DIRECTION ( 'NONE',  ( 1.000000000000000000, 0.000000000000000000, 0.000000000000000000 ) ) ;
#43 = DIRECTION ( 'NONE',  ( -0.000000000000000000, -0.000000000000000000, -1.000000000000000000 ) ) ;
#44 = DIRECTION ( 'NONE',  ( -1.000000000000000000, 0.000000000000000000, 0.000000000000000000 ) ) ;
#45 = UNCERTAINTY_MEASURE_WITH_UNIT (LENGTH_MEASURE( 1.000000000000000082E-05 ), #260, 'distance_accuracy_value', 'NONE');
#46 = EDGE_CURVE ( 'NONE', #54, #115, #121, .T. ) ;
#47 = PLANE ( 'NONE',  #286 ) ;
#48 = VECTOR ( 'NONE', #300, 1000.000000000000000 ) ;
#49 = CIRCLE ( 'NONE', #73, 0.2999999999999999334 ) ;
#50 = DIRECTION ( 'NONE',  ( 1.224646799147353207E-16, 1.000000000000000000, -0.000000000000000000 ) ) ;
#51 = EDGE_CURVE ( 'NONE', #25, #39, #240, .T. ) ;
#52 = DIRECTION ( 'NONE',  ( 1.000000000000000000, 0.000000000000000000, -0.000000000000000000 ) ) ;
#53 = LOCAL_TIME ( 17, 52, 43.00000000000000000, #325 ) ;
#54 = VERTEX_POINT ( 'NONE', #129 ) ;
#55 = APPROVAL_ROLE ( '' ) ;
#56 = ORIENTED_EDGE ( 'NONE', *, *, #371, .F. ) ;
#57 = PERSON_AND_ORGANIZATION_ROLE ( 'design_owner' ) ;
#58 = VERTEX_POINT ( 'NONE', #69 ) ;
#59 = CIRCLE ( 'NONE', #269, 5.000000000000000000 ) ;
#60 = CIRCLE ( 'NONE', #334, 5.000000000000000000 ) ;
#61 = APPROVAL_DATE_TIME ( #119, #380 ) ;
#62 = DIRECTION ( 'NONE',  ( -0.000000000000000000, -0.000000000000000000, -1.000000000000000000 ) ) ;
#63 = CARTESIAN_POINT ( 'NONE',  ( 0.000000000000000000, 0.000000000000000000, 3.299999999999997158 ) ) ;
#64 = APPLICATION_PROTOCOL_DEFINITION ( 'international standard', 'config_control_design', 1994, #202 ) ;
#65 = VERTEX_POINT ( 'NONE', #363 ) ;
#66 = CC_DESIGN_PERSON_AND_ORGANIZATION_ASSIGNMENT ( #381, #57, ( #338 ) ) ;
#67 = APPROVAL_DATE_TIME ( #146, #128 ) ;
#68 = AXIS2_PLACEMENT_3D ( 'NONE', #256, #114, #308 ) ;
#69 = CARTESIAN_POINT ( 'NONE',  ( -2.500000000000000000, 0.000000000000000000, 203.0000000000000000 ) ) ;
#70 = CARTESIAN_POINT ( 'NONE',  ( 0.000000000000000000, 0.000000000000000000, 203.0000000000000000 ) ) ;
#71 = DIRECTION ( 'NONE',  ( 0.000000000000000000, 0.000000000000000000, -1.000000000000000000 ) ) ;
#72 = AXIS2_PLACEMENT_3D ( 'NONE', #101, #247, #44 ) ;
#73 = AXIS2_PLACEMENT_3D ( 'NONE', #331, #219, #71 ) ;
#74 = DIRECTION ( 'NONE',  ( -0.000000000000000000, -0.000000000000000000, -1.000000000000000000 ) ) ;
#75 = CARTESIAN_POINT ( 'NONE',  ( 0.000000000000000000, 0.000000000000000000, 3.000000000000000000 ) ) ;
#76 = ADVANCED_FACE ( 'NONE', ( #162 ), #278, .F. ) ;
#77 = CARTESIAN_POINT ( 'NONE',  ( 0.000000000000000000, 0.000000000000000000, 3.000000000000000000 ) ) ;
#78 = EDGE_LOOP ( 'NONE', ( #196, #288 ) ) ;
#79 = CARTESIAN_POINT ( 'NONE',  ( 0.000000000000000000, 0.000000000000000000, 203.0000000000000000 ) ) ;
#80 = AXIS2_PLACEMENT_3D ( 'NONE', #123, #62, #271 ) ;
#81 = VERTEX_POINT ( 'NONE', #14 ) ;
#82 = CC_DESIGN_APPROVAL ( #113, ( #193 ) ) ;
#83 = PERSON ( 'NEURÈENÝ', 'NEURÈENÝ', 'NEURÈENÝ', ('NEURÈENÝ'), ('NEURÈENÝ'), ('NEURÈENÝ') ) ;
#84 = EDGE_CURVE ( 'NONE', #86, #358, #131, .T. ) ;
#85 = DIRECTION ( 'NONE',  ( 0.000000000000000000, 0.000000000000000000, 1.000000000000000000 ) ) ;
#86 = VERTEX_POINT ( 'NONE', #241 ) ;
#87 = FACE_OUTER_BOUND ( 'NONE', #379, .T. ) ;
#88 = EDGE_LOOP ( 'NONE', ( #111, #355, #309, #56 ) ) ;
#89 = CARTESIAN_POINT ( 'NONE',  ( -1.000000000000000000, 0.000000000000000000, 203.0000000000000000 ) ) ;
#90 = APPROVAL_PERSON_ORGANIZATION ( #124, #380, #354 ) ;
#91 = SECURITY_CLASSIFICATION_LEVEL ( 'unclassified' ) ;
#92 = ORIENTED_EDGE ( 'NONE', *, *, #19, .T. ) ;
#93 = EDGE_LOOP ( 'NONE', ( #157, #324 ) ) ;
#94 = APPROVAL_ROLE ( '' ) ;
#95 = CARTESIAN_POINT ( 'NONE',  ( 5.000000000000000000, 6.123233995736766282E-16, 0.000000000000000000 ) ) ;
#96 = APPROVAL_DATE_TIME ( #239, #113 ) ;
#97 = CARTESIAN_POINT ( 'NONE',  ( 0.000000000000000000, 0.000000000000000000, 0.000000000000000000 ) ) ;
#98 = CALENDAR_DATE ( 2022, 8, 7 ) ;
#99 = DIRECTION ( 'NONE',  ( -1.000000000000000000, 0.000000000000000000, 0.000000000000000000 ) ) ;
#100 = LOCAL_TIME ( 17, 52, 43.00000000000000000, #357 ) ;
#101 = CARTESIAN_POINT ( 'NONE',  ( 0.000000000000000000, 0.000000000000000000, 203.0000000000000000 ) ) ;
#102 = FACE_OUTER_BOUND ( 'NONE', #9, .T. ) ;
#103 = CARTESIAN_POINT ( 'NONE',  ( 0.000000000000000000, 0.000000000000000000, 203.0000000000000000 ) ) ;
#104 = AXIS2_PLACEMENT_3D ( 'NONE', #252, #370, #17 ) ;
#105 = CARTESIAN_POINT ( 'NONE',  ( -5.000000000000000000, 0.000000000000000000, 3.000000000000000000 ) ) ;
#106 = CARTESIAN_POINT ( 'NONE',  ( 0.000000000000000000, 0.000000000000000000, 203.0000000000000000 ) ) ;
#107 = DIRECTION ( 'NONE',  ( 0.000000000000000000, 0.000000000000000000, 1.000000000000000000 ) ) ;
#108 = DIRECTION ( 'NONE',  ( 1.000000000000000000, 0.000000000000000000, 0.000000000000000000 ) ) ;
#109 = VECTOR ( 'NONE', #302, 1000.000000000000000 ) ;
#110 =( GEOMETRIC_REPRESENTATION_CONTEXT ( 3 ) GLOBAL_UNCERTAINTY_ASSIGNED_CONTEXT ( ( #45 ) ) GLOBAL_UNIT_ASSIGNED_CONTEXT ( ( #260, #122, #292 ) ) REPRESENTATION_CONTEXT ( 'NONE', 'WORKASPACE' ) );
#111 = ORIENTED_EDGE ( 'NONE', *, *, #220, .T. ) ;
#112 = CIRCLE ( 'NONE', #364, 2.500000000000000000 ) ;
#113 = APPROVAL ( #296, 'NEURÈENÝ' ) ;
#114 = DIRECTION ( 'NONE',  ( -0.000000000000000000, -0.000000000000000000, -1.000000000000000000 ) ) ;
#115 = VERTEX_POINT ( 'NONE', #249 ) ;
#116 = DESIGN_CONTEXT ( 'detailed design', #372, 'design' ) ;
#117 = ADVANCED_FACE ( 'NONE', ( #366 ), #276, .T. ) ;
#118 = CARTESIAN_POINT ( 'NONE',  ( -5.000000000000000000, 0.000000000000000000, 3.000000000000000000 ) ) ;
#119 = DATE_AND_TIME ( #207, #218 ) ;
#120 = EDGE_CURVE ( 'NONE', #58, #54, #12, .T. ) ;
#121 = CIRCLE ( 'NONE', #279, 2.500000000000000000 ) ;
#122 =( NAMED_UNIT ( * ) PLANE_ANGLE_UNIT ( ) SI_UNIT ( $, .RADIAN. ) );
#123 = CARTESIAN_POINT ( 'NONE',  ( 0.000000000000000000, 0.000000000000000000, 3.000000000000000000 ) ) ;
#124 = PERSON_AND_ORGANIZATION ( #83, #303 ) ;
#125 = ORIENTED_EDGE ( 'NONE', *, *, #51, .F. ) ;
#126 = MECHANICAL_CONTEXT ( 'NONE', #202, 'mechanical' ) ;
#127 = ORIENTED_EDGE ( 'NONE', *, *, #163, .F. ) ;
#128 = APPROVAL ( #204, 'NEURÈENÝ' ) ;
#129 = CARTESIAN_POINT ( 'NONE',  ( -2.500000000000000000, 0.000000000000000000, 3.299999999999997158 ) ) ;
#130 = DIRECTION ( 'NONE',  ( 1.000000000000000000, 0.000000000000000000, -0.000000000000000000 ) ) ;
#131 = CIRCLE ( 'NONE', #1, 2.799999999999999822 ) ;
#132 = PRODUCT_DEFINITION_FORMATION_WITH_SPECIFIED_SOURCE ( 'LIBOVOLNÝ', '', #338, .NOT_KNOWN. ) ;
#133 = CARTESIAN_POINT ( 'NONE',  ( 0.000000000000000000, 0.000000000000000000, 203.0000000000000000 ) ) ;
#134 = DIRECTION ( 'NONE',  ( -0.000000000000000000, -0.000000000000000000, -1.000000000000000000 ) ) ;
#135 = FACE_OUTER_BOUND ( 'NONE', #212, .T. ) ;
#136 = EDGE_CURVE ( 'NONE', #25, #23, #285, .T. ) ;
#137 = CIRCLE ( 'NONE', #18, 2.500000000000000000 ) ;
#138 = DIRECTION ( 'NONE',  ( -1.000000000000000000, 0.000000000000000000, 0.000000000000000000 ) ) ;
#139 = DIRECTION ( 'NONE',  ( 0.000000000000000000, 0.000000000000000000, 1.000000000000000000 ) ) ;
#140 = FACE_OUTER_BOUND ( 'NONE', #208, .T. ) ;
#141 = DIRECTION ( 'NONE',  ( 0.000000000000000000, 0.000000000000000000, 1.000000000000000000 ) ) ;
#142 = LINE ( 'NONE', #118, #243 ) ;
#143 = ORIENTED_EDGE ( 'NONE', *, *, #27, .F. ) ;
#144 = DATE_AND_TIME ( #289, #53 ) ;
#145 = VERTEX_POINT ( 'NONE', #105 ) ;
#146 = DATE_AND_TIME ( #30, #165 ) ;
#147 = ORIENTED_EDGE ( 'NONE', *, *, #215, .T. ) ;
#148 = AXIS2_PLACEMENT_3D ( 'NONE', #186, #43, #42 ) ;
#149 = CIRCLE ( 'NONE', #335, 2.500000000000000000 ) ;
#150 = DIRECTION ( 'NONE',  ( 0.000000000000000000, 0.000000000000000000, 1.000000000000000000 ) ) ;
#151 = PERSON_AND_ORGANIZATION_ROLE ( 'classification_officer' ) ;
#152 = ADVANCED_FACE ( 'NONE', ( #244 ), #330, .F. ) ;
#153 = PERSON_AND_ORGANIZATION_ROLE ( 'design_supplier' ) ;
#154 = ORIENTED_EDGE ( 'NONE', *, *, #215, .F. ) ;
#155 = VECTOR ( 'NONE', #251, 1000.000000000000000 ) ;
#156 = ADVANCED_FACE ( 'NONE', ( #327, #135 ), #214, .T. ) ;
#157 = ORIENTED_EDGE ( 'NONE', *, *, #220, .F. ) ;
#158 = CARTESIAN_POINT ( 'NONE',  ( 0.000000000000000000, 0.000000000000000000, 203.0000000000000000 ) ) ;
#159 = DIRECTION ( 'NONE',  ( 0.000000000000000000, 0.000000000000000000, 1.000000000000000000 ) ) ;
#160 = CIRCLE ( 'NONE', #232, 5.000000000000000000 ) ;
#161 = CARTESIAN_POINT ( 'NONE',  ( -2.500000000000000000, 0.000000000000000000, 203.0000000000000000 ) ) ;
#162 = FACE_OUTER_BOUND ( 'NONE', #297, .T. ) ;
#163 = EDGE_CURVE ( 'NONE', #81, #145, #225, .T. ) ;
#164 = CARTESIAN_POINT ( 'NONE',  ( 0.000000000000000000, 0.000000000000000000, 203.0000000000000000 ) ) ;
#165 = LOCAL_TIME ( 17, 52, 43.00000000000000000, #175 ) ;
#166 = DIRECTION ( 'NONE',  ( 1.000000000000000000, 0.000000000000000000, 0.000000000000000000 ) ) ;
#167 = ORIENTED_EDGE ( 'NONE', *, *, #272, .T. ) ;
#168 = EDGE_CURVE ( 'NONE', #4, #39, #173, .T. ) ;
#169 = DIRECTION ( 'NONE',  ( -1.000000000000000000, 1.224646799147353207E-16, 0.000000000000000000 ) ) ;
#170 = ORIENTED_EDGE ( 'NONE', *, *, #353, .F. ) ;
#171 = CARTESIAN_POINT ( 'NONE',  ( 2.500000000000000000, 3.061616997868383141E-16, 203.0000000000000000 ) ) ;
#172 = FACE_OUTER_BOUND ( 'NONE', #317, .T. ) ;
#173 = CIRCLE ( 'NONE', #148, 1.000000000000000000 ) ;
#174 = VECTOR ( 'NONE', #200, 1000.000000000000000 ) ;
#175 = COORDINATED_UNIVERSAL_TIME_OFFSET ( 1, 0, .AHEAD. ) ;
#176 = EDGE_CURVE ( 'NONE', #65, #35, #59, .T. ) ;
#177 = ORIENTED_EDGE ( 'NONE', *, *, #228, .T. ) ;
#178 = TOROIDAL_SURFACE ( 'NONE', #38, 2.799999999999999822, 0.2999999999999999889 ) ;
#179 = CALENDAR_DATE ( 2022, 8, 7 ) ;
#180 = ADVANCED_FACE ( 'NONE', ( #102 ), #333, .T. ) ;
#181 = ORIENTED_EDGE ( 'NONE', *, *, #46, .F. ) ;
#182 = DATE_AND_TIME ( #98, #250 ) ;
#183 = EDGE_LOOP ( 'NONE', ( #283, #374, #184, #326 ) ) ;
#184 = ORIENTED_EDGE ( 'NONE', *, *, #199, .T. ) ;
#185 = SECURITY_CLASSIFICATION ( '', '', #91 ) ;
#186 = CARTESIAN_POINT ( 'NONE',  ( 0.000000000000000000, 0.000000000000000000, 0.000000000000000000 ) ) ;
#187 = CARTESIAN_POINT ( 'NONE',  ( 0.000000000000000000, 0.000000000000000000, 0.000000000000000000 ) ) ;
#188 = DIRECTION ( 'NONE',  ( 0.000000000000000000, 0.000000000000000000, -1.000000000000000000 ) ) ;
#189 = CLOSED_SHELL ( 'NONE', ( #152, #305, #180, #201, #245, #340, #314, #117, #156, #332, #76 ) ) ;
#190 = CARTESIAN_POINT ( 'NONE',  ( 0.000000000000000000, 0.000000000000000000, 3.000000000000000000 ) ) ;
#191 = CYLINDRICAL_SURFACE ( 'NONE', #263, 5.000000000000000000 ) ;
#192 = CC_DESIGN_PERSON_AND_ORGANIZATION_ASSIGNMENT ( #34, #153, ( #132 ) ) ;
#193 = PRODUCT_DEFINITION ( 'NEZNÁMÝ', '', #132, #116 ) ;
#194 = AXIS2_PLACEMENT_3D ( 'NONE', #287, #141, #52 ) ;
#195 = CARTESIAN_POINT ( 'NONE',  ( 0.000000000000000000, 0.000000000000000000, 3.000000000000000000 ) ) ;
#196 = ORIENTED_EDGE ( 'NONE', *, *, #168, .F. ) ;
#197 = DIRECTION ( 'NONE',  ( 0.000000000000000000, 0.000000000000000000, 1.000000000000000000 ) ) ;
#198 = CARTESIAN_POINT ( 'NONE',  ( 0.000000000000000000, 0.000000000000000000, 3.299999999999997158 ) ) ;
#199 = EDGE_CURVE ( 'NONE', #115, #358, #49, .T. ) ;
#200 = DIRECTION ( 'NONE',  ( 0.000000000000000000, 0.000000000000000000, -1.000000000000000000 ) ) ;
#201 = ADVANCED_FACE ( 'NONE', ( #299 ), #191, .T. ) ;
#202 = APPLICATION_CONTEXT ( 'configuration controlled 3d designs of mechanical parts and assemblies' ) ;
#203 = ORIENTED_EDGE ( 'NONE', *, *, #353, .T. ) ;
#204 = APPROVAL_STATUS ( 'not_yet_approved' ) ;
#205 = ORIENTED_EDGE ( 'NONE', *, *, #176, .T. ) ;
#206 = ORIENTED_EDGE ( 'NONE', *, *, #120, .F. ) ;
#207 = CALENDAR_DATE ( 2022, 8, 7 ) ;
#208 = EDGE_LOOP ( 'NONE', ( #343, #154, #203, #205 ) ) ;
#209 = PRODUCT_RELATED_PRODUCT_CATEGORY ( 'detail', '', ( #338 ) ) ;
#210 = CARTESIAN_POINT ( 'NONE',  ( 1.000000000000000000, 1.224646799147352961E-16, 0.000000000000000000 ) ) ;
#211 = PERSON_AND_ORGANIZATION ( #83, #303 ) ;
#212 = EDGE_LOOP ( 'NONE', ( #167, #254 ) ) ;
#213 = DIRECTION ( 'NONE',  ( 0.000000000000000000, 0.000000000000000000, 1.000000000000000000 ) ) ;
#214 = PLANE ( 'NONE',  #237 ) ;
#215 = EDGE_CURVE ( 'NONE', #145, #81, #160, .T. ) ;
#216 = DIRECTION ( 'NONE',  ( -1.000000000000000000, 0.000000000000000000, 0.000000000000000000 ) ) ;
#217 = DIRECTION ( 'NONE',  ( 1.000000000000000000, 0.000000000000000000, 0.000000000000000000 ) ) ;
#218 = LOCAL_TIME ( 17, 52, 43.00000000000000000, #267 ) ;
#219 = DIRECTION ( 'NONE',  ( 0.000000000000000000, -1.000000000000000000, 0.000000000000000000 ) ) ;
#220 = EDGE_CURVE ( 'NONE', #23, #25, #341, .T. ) ;
#221 = CYLINDRICAL_SURFACE ( 'NONE', #298, 5.000000000000000000 ) ;
#222 = ORIENTED_EDGE ( 'NONE', *, *, #84, .T. ) ;
#223 = CC_DESIGN_PERSON_AND_ORGANIZATION_ASSIGNMENT ( #211, #151, ( #185 ) ) ;
#224 = AXIS2_PLACEMENT_3D ( 'NONE', #190, #159, #217 ) ;
#225 = CIRCLE ( 'NONE', #224, 5.000000000000000000 ) ;
#226 = EDGE_CURVE ( 'NONE', #313, #58, #149, .T. ) ;
#227 = FACE_OUTER_BOUND ( 'NONE', #183, .T. ) ;
#228 = EDGE_CURVE ( 'NONE', #115, #54, #112, .T. ) ;
#229 = DIRECTION ( 'NONE',  ( -0.000000000000000000, -0.000000000000000000, -1.000000000000000000 ) ) ;
#230 = ORIENTED_EDGE ( 'NONE', *, *, #176, .F. ) ;
#231 = PERSON_AND_ORGANIZATION_ROLE ( 'creator' ) ;
#232 = AXIS2_PLACEMENT_3D ( 'NONE', #11, #242, #304 ) ;
#233 = ORIENTED_EDGE ( 'NONE', *, *, #199, .F. ) ;
#234 = DIRECTION ( 'NONE',  ( 1.000000000000000000, 0.000000000000000000, 0.000000000000000000 ) ) ;
#235 = DIRECTION ( 'NONE',  ( 1.000000000000000000, 0.000000000000000000, 0.000000000000000000 ) ) ;
#236 = APPLICATION_PROTOCOL_DEFINITION ( 'international standard', 'config_control_design', 1994, #372 ) ;
#237 = AXIS2_PLACEMENT_3D ( 'NONE', #103, #213, #130 ) ;
#238 = ORIENTED_EDGE ( 'NONE', *, *, #270, .T. ) ;
#239 = DATE_AND_TIME ( #179, #100 ) ;
#240 = LINE ( 'NONE', #16, #109 ) ;
#241 = CARTESIAN_POINT ( 'NONE',  ( -2.799999999999999822, 3.429011037612589276E-16, 2.999999999999998668 ) ) ;
#242 = DIRECTION ( 'NONE',  ( 0.000000000000000000, 0.000000000000000000, 1.000000000000000000 ) ) ;
#243 = VECTOR ( 'NONE', #229, 1000.000000000000000 ) ;
#244 = FACE_OUTER_BOUND ( 'NONE', #88, .T. ) ;
#245 = ADVANCED_FACE ( 'NONE', ( #140 ), #221, .T. ) ;
#246 = SHAPE_DEFINITION_REPRESENTATION ( #280, #301 ) ;
#247 = DIRECTION ( 'NONE',  ( -0.000000000000000000, -0.000000000000000000, -1.000000000000000000 ) ) ;
#248 = EDGE_CURVE ( 'NONE', #313, #115, #312, .T. ) ;
#249 = CARTESIAN_POINT ( 'NONE',  ( 2.500000000000000000, 3.061616997868383141E-16, 3.299999999999997158 ) ) ;
#250 = LOCAL_TIME ( 17, 52, 43.00000000000000000, #3 ) ;
#251 = DIRECTION ( 'NONE',  ( -0.000000000000000000, -0.000000000000000000, -1.000000000000000000 ) ) ;
#252 = CARTESIAN_POINT ( 'NONE',  ( 0.000000000000000000, 0.000000000000000000, 203.0000000000000000 ) ) ;
#253 = DIRECTION ( 'NONE',  ( -0.000000000000000000, -0.000000000000000000, -1.000000000000000000 ) ) ;
#254 = ORIENTED_EDGE ( 'NONE', *, *, #226, .T. ) ;
#255 = AXIS2_PLACEMENT_3D ( 'NONE', #321, #323, #234 ) ;
#256 = CARTESIAN_POINT ( 'NONE',  ( 0.000000000000000000, 0.000000000000000000, 0.000000000000000000 ) ) ;
#257 = PLANE ( 'NONE',  #194 ) ;
#258 = ORIENTED_EDGE ( 'NONE', *, *, #46, .T. ) ;
#259 = DATE_TIME_ROLE ( 'classification_date' ) ;
#260 =( LENGTH_UNIT ( ) NAMED_UNIT ( * ) SI_UNIT ( .MILLI., .METRE. ) );
#261 = EDGE_CURVE ( 'NONE', #54, #86, #318, .T. ) ;
#262 = AXIS2_PLACEMENT_3D ( 'NONE', #164, #277, #336 ) ;
#263 = AXIS2_PLACEMENT_3D ( 'NONE', #306, #74, #40 ) ;
#264 = ORIENTED_EDGE ( 'NONE', *, *, #371, .T. ) ;
#265 = PERSON_AND_ORGANIZATION ( #83, #303 ) ;
#266 = ORIENTED_EDGE ( 'NONE', *, *, #136, .T. ) ;
#267 = COORDINATED_UNIVERSAL_TIME_OFFSET ( 1, 0, .AHEAD. ) ;
#268 = DIRECTION ( 'NONE',  ( 1.000000000000000000, 0.000000000000000000, 0.000000000000000000 ) ) ;
#269 = AXIS2_PLACEMENT_3D ( 'NONE', #187, #367, #365 ) ;
#270 = EDGE_CURVE ( 'NONE', #81, #35, #345, .T. ) ;
#271 = DIRECTION ( 'NONE',  ( 1.000000000000000000, 0.000000000000000000, 0.000000000000000000 ) ) ;
#272 = EDGE_CURVE ( 'NONE', #58, #313, #137, .T. ) ;
#273 = DIRECTION ( 'NONE',  ( -1.000000000000000000, 0.000000000000000000, 0.000000000000000000 ) ) ;
#274 = DIRECTION ( 'NONE',  ( 1.000000000000000000, 0.000000000000000000, 0.000000000000000000 ) ) ;
#275 = TOROIDAL_SURFACE ( 'NONE', #8, 2.799999999999999822, 0.2999999999999999889 ) ;
#276 = CYLINDRICAL_SURFACE ( 'NONE', #72, 2.500000000000000000 ) ;
#277 = DIRECTION ( 'NONE',  ( 0.000000000000000000, 0.000000000000000000, 1.000000000000000000 ) ) ;
#278 = CYLINDRICAL_SURFACE ( 'NONE', #310, 1.000000000000000000 ) ;
#279 = AXIS2_PLACEMENT_3D ( 'NONE', #63, #37, #268 ) ;
#280 = PRODUCT_DEFINITION_SHAPE ( 'NONE', 'NONE',  #193 ) ;
#281 = DIRECTION ( 'NONE',  ( 1.000000000000000000, 0.000000000000000000, -0.000000000000000000 ) ) ;
#282 = CARTESIAN_POINT ( 'NONE',  ( -2.799999999999999822, 3.429011037612588783E-16, 3.299999999999997158 ) ) ;
#283 = ORIENTED_EDGE ( 'NONE', *, *, #261, .F. ) ;
#284 = FACE_BOUND ( 'NONE', #78, .T. ) ;
#285 = CIRCLE ( 'NONE', #262, 1.000000000000000000 ) ;
#286 = AXIS2_PLACEMENT_3D ( 'NONE', #77, #139, #281 ) ;
#287 = CARTESIAN_POINT ( 'NONE',  ( 0.000000000000000000, 0.000000000000000000, 0.000000000000000000 ) ) ;
#288 = ORIENTED_EDGE ( 'NONE', *, *, #329, .F. ) ;
#289 = CALENDAR_DATE ( 2022, 8, 7 ) ;
#290 = ORIENTED_EDGE ( 'NONE', *, *, #19, .F. ) ;
#291 = ORIENTED_EDGE ( 'NONE', *, *, #261, .T. ) ;
#292 =( NAMED_UNIT ( * ) SI_UNIT ( $, .STERADIAN. ) SOLID_ANGLE_UNIT ( ) );
#293 = APPROVAL_PERSON_ORGANIZATION ( #265, #113, #94 ) ;
#294 = CARTESIAN_POINT ( 'NONE',  ( -1.000000000000000000, 0.000000000000000000, 0.000000000000000000 ) ) ;
#295 = PERSON_AND_ORGANIZATION ( #83, #303 ) ;
#296 = APPROVAL_STATUS ( 'not_yet_approved' ) ;
#297 = EDGE_LOOP ( 'NONE', ( #125, #266, #264, #31 ) ) ;
#298 = AXIS2_PLACEMENT_3D ( 'NONE', #195, #319, #138 ) ;
#299 = FACE_OUTER_BOUND ( 'NONE', #339, .T. ) ;
#300 = DIRECTION ( 'NONE',  ( -0.000000000000000000, -0.000000000000000000, -1.000000000000000000 ) ) ;
#301 = ADVANCED_BREP_SHAPE_REPRESENTATION ( 'a886', ( #6, #255 ), #110 ) ;
#302 = DIRECTION ( 'NONE',  ( 0.000000000000000000, 0.000000000000000000, -1.000000000000000000 ) ) ;
#303 = ORGANIZATION ( 'NEURÈENÝ', 'NEURÈENÝ', '' ) ;
#304 = DIRECTION ( 'NONE',  ( 1.000000000000000000, 0.000000000000000000, 0.000000000000000000 ) ) ;
#305 = ADVANCED_FACE ( 'NONE', ( #172 ), #178, .F. ) ;
#306 = CARTESIAN_POINT ( 'NONE',  ( 0.000000000000000000, 0.000000000000000000, 3.000000000000000000 ) ) ;
#307 = CC_DESIGN_PERSON_AND_ORGANIZATION_ASSIGNMENT ( #295, #231, ( #132 ) ) ;
#308 = DIRECTION ( 'NONE',  ( 1.000000000000000000, 0.000000000000000000, 0.000000000000000000 ) ) ;
#309 = ORIENTED_EDGE ( 'NONE', *, *, #329, .T. ) ;
#310 = AXIS2_PLACEMENT_3D ( 'NONE', #133, #188, #273 ) ;
#311 = AXIS2_PLACEMENT_3D ( 'NONE', #282, #50, #169 ) ;
#312 = LINE ( 'NONE', #171, #376 ) ;
#313 = VERTEX_POINT ( 'NONE', #378 ) ;
#314 = ADVANCED_FACE ( 'NONE', ( #284, #24 ), #257, .F. ) ;
#315 = DIRECTION ( 'NONE',  ( 1.000000000000000000, 0.000000000000000000, 0.000000000000000000 ) ) ;
#316 = DIRECTION ( 'NONE',  ( 0.000000000000000000, 0.000000000000000000, 1.000000000000000000 ) ) ;
#317 = EDGE_LOOP ( 'NONE', ( #181, #291, #290, #233 ) ) ;
#318 = CIRCLE ( 'NONE', #311, 0.2999999999999999334 ) ;
#319 = DIRECTION ( 'NONE',  ( -0.000000000000000000, -0.000000000000000000, -1.000000000000000000 ) ) ;
#320 = ORIENTED_EDGE ( 'NONE', *, *, #272, .F. ) ;
#321 = CARTESIAN_POINT ( 'NONE',  ( 0.000000000000000000, 0.000000000000000000, 0.000000000000000000 ) ) ;
#322 = EDGE_LOOP ( 'NONE', ( #230, #143 ) ) ;
#323 = DIRECTION ( 'NONE',  ( 0.000000000000000000, 0.000000000000000000, 1.000000000000000000 ) ) ;
#324 = ORIENTED_EDGE ( 'NONE', *, *, #136, .F. ) ;
#325 = COORDINATED_UNIVERSAL_TIME_OFFSET ( 1, 0, .AHEAD. ) ;
#326 = ORIENTED_EDGE ( 'NONE', *, *, #84, .F. ) ;
#327 = FACE_BOUND ( 'NONE', #93, .T. ) ;
#328 = APPROVAL_PERSON_ORGANIZATION ( #349, #128, #55 ) ;
#329 = EDGE_CURVE ( 'NONE', #39, #4, #368, .T. ) ;
#330 = CYLINDRICAL_SURFACE ( 'NONE', #362, 1.000000000000000000 ) ;
#331 = CARTESIAN_POINT ( 'NONE',  ( 2.799999999999999822, 0.000000000000000000, 3.299999999999997158 ) ) ;
#332 = ADVANCED_FACE ( 'NONE', ( #227 ), #275, .F. ) ;
#333 = CYLINDRICAL_SURFACE ( 'NONE', #32, 2.500000000000000000 ) ;
#334 = AXIS2_PLACEMENT_3D ( 'NONE', #97, #150, #235 ) ;
#335 = AXIS2_PLACEMENT_3D ( 'NONE', #79, #107, #377 ) ;
#336 = DIRECTION ( 'NONE',  ( 1.000000000000000000, 0.000000000000000000, 0.000000000000000000 ) ) ;
#337 = FACE_BOUND ( 'NONE', #346, .T. ) ;
#338 = PRODUCT ( 'a886', 'a886', '', ( #126 ) ) ;
#339 = EDGE_LOOP ( 'NONE', ( #127, #238, #7, #170 ) ) ;
#340 = ADVANCED_FACE ( 'NONE', ( #337, #87 ), #47, .T. ) ;
#341 = CIRCLE ( 'NONE', #104, 1.000000000000000000 ) ;
#342 = CARTESIAN_POINT ( 'NONE',  ( 0.000000000000000000, 0.000000000000000000, 3.299999999999997158 ) ) ;
#343 = ORIENTED_EDGE ( 'NONE', *, *, #270, .F. ) ;
#344 = CC_DESIGN_DATE_AND_TIME_ASSIGNMENT ( #144, #259, ( #185 ) ) ;
#345 = LINE ( 'NONE', #373, #155 ) ;
#346 = EDGE_LOOP ( 'NONE', ( #92, #222 ) ) ;
#347 = CARTESIAN_POINT ( 'NONE',  ( 2.799999999999999822, 0.000000000000000000, 2.999999999999998668 ) ) ;
#348 = CC_DESIGN_APPROVAL ( #380, ( #132 ) ) ;
#349 = PERSON_AND_ORGANIZATION ( #83, #303 ) ;
#350 = ORIENTED_EDGE ( 'NONE', *, *, #120, .T. ) ;
#351 = DATE_TIME_ROLE ( 'creation_date' ) ;
#352 = CARTESIAN_POINT ( 'NONE',  ( -1.000000000000000000, 0.000000000000000000, 203.0000000000000000 ) ) ;
#353 = EDGE_CURVE ( 'NONE', #145, #65, #142, .T. ) ;
#354 = APPROVAL_ROLE ( '' ) ;
#355 = ORIENTED_EDGE ( 'NONE', *, *, #51, .T. ) ;
#356 = CC_DESIGN_PERSON_AND_ORGANIZATION_ASSIGNMENT ( #28, #359, ( #193 ) ) ;
#357 = COORDINATED_UNIVERSAL_TIME_OFFSET ( 1, 0, .AHEAD. ) ;
#358 = VERTEX_POINT ( 'NONE', #347 ) ;
#359 = PERSON_AND_ORGANIZATION_ROLE ( 'creator' ) ;
#360 = ORIENTED_EDGE ( 'NONE', *, *, #226, .F. ) ;
#361 = DIRECTION ( 'NONE',  ( 0.000000000000000000, 0.000000000000000000, -1.000000000000000000 ) ) ;
#362 = AXIS2_PLACEMENT_3D ( 'NONE', #70, #361, #99 ) ;
#363 = CARTESIAN_POINT ( 'NONE',  ( -5.000000000000000000, 0.000000000000000000, 0.000000000000000000 ) ) ;
#364 = AXIS2_PLACEMENT_3D ( 'NONE', #22, #85, #166 ) ;
#365 = DIRECTION ( 'NONE',  ( 1.000000000000000000, 0.000000000000000000, 0.000000000000000000 ) ) ;
#366 = FACE_OUTER_BOUND ( 'NONE', #29, .T. ) ;
#367 = DIRECTION ( 'NONE',  ( 0.000000000000000000, 0.000000000000000000, 1.000000000000000000 ) ) ;
#368 = CIRCLE ( 'NONE', #68, 1.000000000000000000 ) ;
#369 = DIRECTION ( 'NONE',  ( 0.000000000000000000, 0.000000000000000000, 1.000000000000000000 ) ) ;
#370 = DIRECTION ( 'NONE',  ( 0.000000000000000000, 0.000000000000000000, 1.000000000000000000 ) ) ;
#371 = EDGE_CURVE ( 'NONE', #23, #4, #20, .T. ) ;
#372 = APPLICATION_CONTEXT ( 'configuration controlled 3d designs of mechanical parts and assemblies' ) ;
#373 = CARTESIAN_POINT ( 'NONE',  ( 5.000000000000000000, 6.123233995736766282E-16, 3.000000000000000000 ) ) ;
#374 = ORIENTED_EDGE ( 'NONE', *, *, #228, .F. ) ;
#375 = CIRCLE ( 'NONE', #80, 2.799999999999999822 ) ;
#376 = VECTOR ( 'NONE', #253, 1000.000000000000000 ) ;
#377 = DIRECTION ( 'NONE',  ( 1.000000000000000000, 0.000000000000000000, 0.000000000000000000 ) ) ;
#378 = CARTESIAN_POINT ( 'NONE',  ( 2.500000000000000000, 3.061616997868383141E-16, 203.0000000000000000 ) ) ;
#379 = EDGE_LOOP ( 'NONE', ( #147, #21 ) ) ;
#380 = APPROVAL ( #36, 'NEURÈENÝ' ) ;
#381 = PERSON_AND_ORGANIZATION ( #83, #303 ) ;
ENDSEC;
END-ISO-10303-21;
