ISO-10303-21;
HEADER;
FILE_DESCRIPTION (( 'STEP AP203' ),
    '1' );
FILE_NAME ('6510.STEP',
    '2022-07-08T15:23:42',
    ( '' ),
    ( '' ),
    'SwSTEP 2.0',
    'SolidWorks 2019',
    '' );
FILE_SCHEMA (( 'CONFIG_CONTROL_DESIGN' ));
ENDSEC;

DATA;
#1 = CARTESIAN_POINT ( 'NONE',  ( 7.000000000000000000, 8.572527594031473190E-16, 5.000000000000000000 ) ) ;
#2 = EDGE_CURVE ( 'NONE', #70, #96, #327, .T. ) ;
#3 = CARTESIAN_POINT ( 'NONE',  ( 0.000000000000000000, 0.000000000000000000, 5.000000000000000000 ) ) ;
#4 = EDGE_LOOP ( 'NONE', ( #121, #364, #323, #92 ) ) ;
#5 = EDGE_LOOP ( 'NONE', ( #128, #358, #45, #126 ) ) ;
#6 = PERSON_AND_ORGANIZATION ( #266, #253 ) ;
#7 = VERTEX_POINT ( 'NONE', #369 ) ;
#8 = EDGE_CURVE ( 'NONE', #300, #180, #317, .T. ) ;
#9 = EDGE_LOOP ( 'NONE', ( #276, #309 ) ) ;
#10 = APPROVAL_ROLE ( '' ) ;
#11 = ORIENTED_EDGE ( 'NONE', *, *, #205, .T. ) ;
#12 = AXIS2_PLACEMENT_3D ( 'NONE', #200, #315, #178 ) ;
#13 = CIRCLE ( 'NONE', #149, 7.000000000000000000 ) ;
#14 = SHAPE_DEFINITION_REPRESENTATION ( #221, #303 ) ;
#15 = CARTESIAN_POINT ( 'NONE',  ( 0.000000000000000000, 0.000000000000000000, 0.000000000000000000 ) ) ;
#16 = EDGE_CURVE ( 'NONE', #330, #302, #91, .T. ) ;
#17 = CARTESIAN_POINT ( 'NONE',  ( 0.000000000000000000, 0.000000000000000000, 5.500000000000005329 ) ) ;
#18 = DIRECTION ( 'NONE',  ( 0.000000000000000000, 0.000000000000000000, 1.000000000000000000 ) ) ;
#19 = CIRCLE ( 'NONE', #239, 0.5000000000000004441 ) ;
#20 = PERSON_AND_ORGANIZATION ( #266, #253 ) ;
#21 = DIRECTION ( 'NONE',  ( -0.000000000000000000, -0.000000000000000000, -1.000000000000000000 ) ) ;
#22 = EDGE_CURVE ( 'NONE', #340, #224, #109, .T. ) ;
#23 = DIRECTION ( 'NONE',  ( -0.000000000000000000, -0.000000000000000000, -1.000000000000000000 ) ) ;
#24 = DIRECTION ( 'NONE',  ( 1.000000000000000000, 0.000000000000000000, 0.000000000000000000 ) ) ;
#25 = AXIS2_PLACEMENT_3D ( 'NONE', #175, #170, #165 ) ;
#26 = DIRECTION ( 'NONE',  ( 1.000000000000000000, 0.000000000000000000, 0.000000000000000000 ) ) ;
#27 = DIRECTION ( 'NONE',  ( -1.000000000000000000, 0.000000000000000000, 0.000000000000000000 ) ) ;
#28 = FACE_OUTER_BOUND ( 'NONE', #148, .T. ) ;
#29 = VERTEX_POINT ( 'NONE', #368 ) ;
#30 = AXIS2_PLACEMENT_3D ( 'NONE', #59, #147, #114 ) ;
#31 = EDGE_CURVE ( 'NONE', #154, #65, #47, .T. ) ;
#32 = LOCAL_TIME ( 17, 23, 42.00000000000000000, #77 ) ;
#33 = DIRECTION ( 'NONE',  ( -0.000000000000000000, -0.000000000000000000, -1.000000000000000000 ) ) ;
#34 = CIRCLE ( 'NONE', #55, 0.5000000000000004441 ) ;
#35 = PERSON_AND_ORGANIZATION_ROLE ( 'creator' ) ;
#36 = EDGE_LOOP ( 'NONE', ( #251, #188, #123, #87 ) ) ;
#37 = PERSON_AND_ORGANIZATION_ROLE ( 'creator' ) ;
#38 = EDGE_LOOP ( 'NONE', ( #156, #101 ) ) ;
#39 = APPROVAL_STATUS ( 'not_yet_approved' ) ;
#40 = EDGE_LOOP ( 'NONE', ( #333, #46, #278, #362 ) ) ;
#41 = APPLICATION_CONTEXT ( 'configuration controlled 3d designs of mechanical parts and assemblies' ) ;
#42 = ADVANCED_FACE ( 'NONE', ( #140 ), #233, .F. ) ;
#43 = EDGE_LOOP ( 'NONE', ( #68, #69, #190, #335 ) ) ;
#44 = PERSON_AND_ORGANIZATION ( #266, #253 ) ;
#45 = ORIENTED_EDGE ( 'NONE', *, *, #226, .T. ) ;
#46 = ORIENTED_EDGE ( 'NONE', *, *, #259, .F. ) ;
#47 = CIRCLE ( 'NONE', #201, 4.000000000000000000 ) ;
#48 = CC_DESIGN_APPROVAL ( #174, ( #203 ) ) ;
#49 = PLANE ( 'NONE',  #53 ) ;
#50 = CALENDAR_DATE ( 2022, 8, 7 ) ;
#51 = DIRECTION ( 'NONE',  ( 0.000000000000000000, 0.000000000000000000, -1.000000000000000000 ) ) ;
#52 = CARTESIAN_POINT ( 'NONE',  ( 2.250000000000000000, 2.755455298081544285E-16, 280.0000000000000000 ) ) ;
#53 = AXIS2_PLACEMENT_3D ( 'NONE', #371, #103, #167 ) ;
#54 = PRODUCT_DEFINITION ( 'NEZNÁMÝ', '', #203, #198 ) ;
#55 = AXIS2_PLACEMENT_3D ( 'NONE', #176, #238, #353 ) ;
#56 = FACE_OUTER_BOUND ( 'NONE', #5, .T. ) ;
#57 = CARTESIAN_POINT ( 'NONE',  ( 0.000000000000000000, 0.000000000000000000, 0.000000000000000000 ) ) ;
#58 = EDGE_CURVE ( 'NONE', #65, #96, #349, .T. ) ;
#59 = CARTESIAN_POINT ( 'NONE',  ( 0.000000000000000000, 0.000000000000000000, 280.0000000000000000 ) ) ;
#60 = SECURITY_CLASSIFICATION ( '', '', #93 ) ;
#61 = CYLINDRICAL_SURFACE ( 'NONE', #30, 2.250000000000000000 ) ;
#62 = DIRECTION ( 'NONE',  ( 1.000000000000000000, 0.000000000000000000, -0.000000000000000000 ) ) ;
#63 = PERSON_AND_ORGANIZATION ( #266, #253 ) ;
#64 = FACE_OUTER_BOUND ( 'NONE', #94, .T. ) ;
#65 = VERTEX_POINT ( 'NONE', #284 ) ;
#66 = APPLICATION_CONTEXT ( 'configuration controlled 3d designs of mechanical parts and assemblies' ) ;
#67 = CC_DESIGN_PERSON_AND_ORGANIZATION_ASSIGNMENT ( #155, #359, ( #203 ) ) ;
#68 = ORIENTED_EDGE ( 'NONE', *, *, #146, .F. ) ;
#69 = ORIENTED_EDGE ( 'NONE', *, *, #58, .T. ) ;
#70 = VERTEX_POINT ( 'NONE', #282 ) ;
#71 = EDGE_CURVE ( 'NONE', #217, #180, #289, .T. ) ;
#72 = ORIENTED_EDGE ( 'NONE', *, *, #291, .T. ) ;
#73 = PERSON_AND_ORGANIZATION ( #266, #253 ) ;
#74 = DIRECTION ( 'NONE',  ( -1.000000000000000000, 0.000000000000000000, 0.000000000000000000 ) ) ;
#75 = COORDINATED_UNIVERSAL_TIME_OFFSET ( 1, 0, .AHEAD. ) ;
#76 = DIRECTION ( 'NONE',  ( 0.000000000000000000, 0.000000000000000000, 1.000000000000000000 ) ) ;
#77 = COORDINATED_UNIVERSAL_TIME_OFFSET ( 1, 0, .AHEAD. ) ;
#78 = CARTESIAN_POINT ( 'NONE',  ( -4.000000000000000000, 0.000000000000000000, 280.0000000000000000 ) ) ;
#79 = EDGE_CURVE ( 'NONE', #224, #7, #182, .T. ) ;
#80 = DIRECTION ( 'NONE',  ( 0.000000000000000000, 0.000000000000000000, 1.000000000000000000 ) ) ;
#81 = CIRCLE ( 'NONE', #223, 4.500000000000000888 ) ;
#82 = FACE_OUTER_BOUND ( 'NONE', #40, .T. ) ;
#83 = ADVANCED_FACE ( 'NONE', ( #56 ), #110, .F. ) ;
#84 = CARTESIAN_POINT ( 'NONE',  ( 0.000000000000000000, 0.000000000000000000, 280.0000000000000000 ) ) ;
#85 = CARTESIAN_POINT ( 'NONE',  ( -7.000000000000000000, 0.000000000000000000, 5.000000000000000000 ) ) ;
#86 = FACE_OUTER_BOUND ( 'NONE', #280, .T. ) ;
#87 = ORIENTED_EDGE ( 'NONE', *, *, #131, .F. ) ;
#88 = CARTESIAN_POINT ( 'NONE',  ( 0.000000000000000000, 0.000000000000000000, 5.500000000000005329 ) ) ;
#89 = CALENDAR_DATE ( 2022, 8, 7 ) ;
#90 = COORDINATED_UNIVERSAL_TIME_OFFSET ( 1, 0, .AHEAD. ) ;
#91 = CIRCLE ( 'NONE', #25, 4.500000000000000888 ) ;
#92 = ORIENTED_EDGE ( 'NONE', *, *, #191, .T. ) ;
#93 = SECURITY_CLASSIFICATION_LEVEL ( 'unclassified' ) ;
#94 = EDGE_LOOP ( 'NONE', ( #186, #11, #212, #250 ) ) ;
#95 = FACE_BOUND ( 'NONE', #225, .T. ) ;
#96 = VERTEX_POINT ( 'NONE', #194 ) ;
#97 = CIRCLE ( 'NONE', #204, 2.250000000000000000 ) ;
#98 = ORIENTED_EDGE ( 'NONE', *, *, #122, .F. ) ;
#99 = EDGE_CURVE ( 'NONE', #96, #70, #183, .T. ) ;
#100 = CALENDAR_DATE ( 2022, 8, 7 ) ;
#101 = ORIENTED_EDGE ( 'NONE', *, *, #328, .T. ) ;
#102 = DATE_AND_TIME ( #100, #32 ) ;
#103 = DIRECTION ( 'NONE',  ( 0.000000000000000000, 0.000000000000000000, 1.000000000000000000 ) ) ;
#104 = DIRECTION ( 'NONE',  ( 1.000000000000000000, 0.000000000000000000, 0.000000000000000000 ) ) ;
#105 = UNCERTAINTY_MEASURE_WITH_UNIT (LENGTH_MEASURE( 1.000000000000000082E-05 ), #192, 'distance_accuracy_value', 'NONE');
#106 = ADVANCED_FACE ( 'NONE', ( #261, #255 ), #49, .T. ) ;
#107 = DIRECTION ( 'NONE',  ( -0.000000000000000000, -0.000000000000000000, -1.000000000000000000 ) ) ;
#108 = DIRECTION ( 'NONE',  ( 0.000000000000000000, 0.000000000000000000, 1.000000000000000000 ) ) ;
#109 = LINE ( 'NONE', #52, #214 ) ;
#110 = TOROIDAL_SURFACE ( 'NONE', #222, 4.500000000000000888, 0.5000000000000000000 ) ;
#111 = CLOSED_SHELL ( 'NONE', ( #219, #168, #241, #352, #274, #231, #356, #339, #106, #83, #42 ) ) ;
#112 = DIRECTION ( 'NONE',  ( 1.000000000000000000, 0.000000000000000000, 0.000000000000000000 ) ) ;
#113 = CARTESIAN_POINT ( 'NONE',  ( 4.500000000000000888, 0.000000000000000000, 5.000000000000002665 ) ) ;
#114 = DIRECTION ( 'NONE',  ( -1.000000000000000000, 0.000000000000000000, 0.000000000000000000 ) ) ;
#115 = CC_DESIGN_APPROVAL ( #236, ( #54 ) ) ;
#116 = AXIS2_PLACEMENT_3D ( 'NONE', #118, #377, #26 ) ;
#117 = CC_DESIGN_PERSON_AND_ORGANIZATION_ASSIGNMENT ( #44, #162, ( #277 ) ) ;
#118 = CARTESIAN_POINT ( 'NONE',  ( 0.000000000000000000, 0.000000000000000000, 5.000000000000000000 ) ) ;
#119 = DIRECTION ( 'NONE',  ( 0.000000000000000000, 0.000000000000000000, 1.000000000000000000 ) ) ;
#120 = PERSON_AND_ORGANIZATION ( #266, #253 ) ;
#121 = ORIENTED_EDGE ( 'NONE', *, *, #22, .F. ) ;
#122 = EDGE_CURVE ( 'NONE', #340, #29, #97, .T. ) ;
#123 = ORIENTED_EDGE ( 'NONE', *, *, #79, .T. ) ;
#124 = CC_DESIGN_SECURITY_CLASSIFICATION ( #60, ( #203 ) ) ;
#125 = PERSON_AND_ORGANIZATION ( #266, #253 ) ;
#126 = ORIENTED_EDGE ( 'NONE', *, *, #16, .F. ) ;
#127 = DIRECTION ( 'NONE',  ( -1.000000000000000000, 0.000000000000000000, 0.000000000000000000 ) ) ;
#128 = ORIENTED_EDGE ( 'NONE', *, *, #324, .F. ) ;
#129 = CYLINDRICAL_SURFACE ( 'NONE', #252, 7.000000000000000000 ) ;
#130 =( GEOMETRIC_REPRESENTATION_CONTEXT ( 3 ) GLOBAL_UNCERTAINTY_ASSIGNED_CONTEXT ( ( #105 ) ) GLOBAL_UNIT_ASSIGNED_CONTEXT ( ( #192, #218, #363 ) ) REPRESENTATION_CONTEXT ( 'NONE', 'WORKASPACE' ) );
#131 = EDGE_CURVE ( 'NONE', #29, #7, #197, .T. ) ;
#132 = EDGE_LOOP ( 'NONE', ( #158, #338 ) ) ;
#133 = AXIS2_PLACEMENT_3D ( 'NONE', #308, #187, #185 ) ;
#134 = CARTESIAN_POINT ( 'NONE',  ( 0.000000000000000000, 0.000000000000000000, 5.500000000000005329 ) ) ;
#135 = CARTESIAN_POINT ( 'NONE',  ( 0.000000000000000000, 0.000000000000000000, 280.0000000000000000 ) ) ;
#136 = CC_DESIGN_PERSON_AND_ORGANIZATION_ASSIGNMENT ( #6, #37, ( #203 ) ) ;
#137 = DIRECTION ( 'NONE',  ( 1.000000000000000000, 0.000000000000000000, 0.000000000000000000 ) ) ;
#138 = CC_DESIGN_APPROVAL ( #248, ( #60 ) ) ;
#139 = DATE_AND_TIME ( #50, #210 ) ;
#140 = FACE_OUTER_BOUND ( 'NONE', #4, .T. ) ;
#141 = DIRECTION ( 'NONE',  ( 1.000000000000000000, 0.000000000000000000, 0.000000000000000000 ) ) ;
#142 = CARTESIAN_POINT ( 'NONE',  ( -4.500000000000000888, 5.510910596163088569E-16, 5.000000000000002665 ) ) ;
#143 = CIRCLE ( 'NONE', #245, 2.250000000000000000 ) ;
#144 = CARTESIAN_POINT ( 'NONE',  ( 0.000000000000000000, 0.000000000000000000, 5.000000000000000000 ) ) ;
#145 = CARTESIAN_POINT ( 'NONE',  ( 0.000000000000000000, 0.000000000000000000, 0.000000000000000000 ) ) ;
#146 = EDGE_CURVE ( 'NONE', #65, #154, #268, .T. ) ;
#147 = DIRECTION ( 'NONE',  ( 0.000000000000000000, 0.000000000000000000, -1.000000000000000000 ) ) ;
#148 = EDGE_LOOP ( 'NONE', ( #307, #360, #247, #366 ) ) ;
#149 = AXIS2_PLACEMENT_3D ( 'NONE', #57, #242, #112 ) ;
#150 = AXIS2_PLACEMENT_3D ( 'NONE', #207, #211, #351 ) ;
#151 = CARTESIAN_POINT ( 'NONE',  ( 0.000000000000000000, 0.000000000000000000, 5.000000000000000000 ) ) ;
#152 = COORDINATED_UNIVERSAL_TIME_OFFSET ( 1, 0, .AHEAD. ) ;
#153 = EDGE_CURVE ( 'NONE', #154, #70, #229, .T. ) ;
#154 = VERTEX_POINT ( 'NONE', #78 ) ;
#155 = PERSON_AND_ORGANIZATION ( #266, #253 ) ;
#156 = ORIENTED_EDGE ( 'NONE', *, *, #259, .T. ) ;
#157 = APPROVAL_DATE_TIME ( #246, #236 ) ;
#158 = ORIENTED_EDGE ( 'NONE', *, *, #31, .T. ) ;
#159 = CARTESIAN_POINT ( 'NONE',  ( 2.250000000000000000, 2.755455298081544285E-16, 280.0000000000000000 ) ) ;
#160 = EDGE_LOOP ( 'NONE', ( #296, #98 ) ) ;
#161 = EDGE_CURVE ( 'NONE', #29, #340, #372, .T. ) ;
#162 = PERSON_AND_ORGANIZATION_ROLE ( 'design_owner' ) ;
#163 = ORIENTED_EDGE ( 'NONE', *, *, #31, .F. ) ;
#164 = AXIS2_PLACEMENT_3D ( 'NONE', #227, #367, #74 ) ;
#165 = DIRECTION ( 'NONE',  ( 1.000000000000000000, 0.000000000000000000, 0.000000000000000000 ) ) ;
#166 = AXIS2_PLACEMENT_3D ( 'NONE', #17, #256, #202 ) ;
#167 = DIRECTION ( 'NONE',  ( 1.000000000000000000, 0.000000000000000000, -0.000000000000000000 ) ) ;
#168 = ADVANCED_FACE ( 'NONE', ( #28 ), #262, .F. ) ;
#169 = APPROVAL_ROLE ( '' ) ;
#170 = DIRECTION ( 'NONE',  ( -0.000000000000000000, -0.000000000000000000, -1.000000000000000000 ) ) ;
#171 = AXIS2_PLACEMENT_3D ( 'NONE', #15, #80, #260 ) ;
#172 = CARTESIAN_POINT ( 'NONE',  ( 0.000000000000000000, 0.000000000000000000, 280.0000000000000000 ) ) ;
#173 = VECTOR ( 'NONE', #375, 1000.000000000000000 ) ;
#174 = APPROVAL ( #271, 'NEURÈENÝ' ) ;
#175 = CARTESIAN_POINT ( 'NONE',  ( 0.000000000000000000, 0.000000000000000000, 5.000000000000000000 ) ) ;
#176 = CARTESIAN_POINT ( 'NONE',  ( -4.500000000000000888, 5.510910596163089556E-16, 5.500000000000005329 ) ) ;
#177 = LOCAL_TIME ( 17, 23, 42.00000000000000000, #90 ) ;
#178 = DIRECTION ( 'NONE',  ( 1.000000000000000000, 0.000000000000000000, 0.000000000000000000 ) ) ;
#179 = LINE ( 'NONE', #181, #173 ) ;
#180 = VERTEX_POINT ( 'NONE', #263 ) ;
#181 = CARTESIAN_POINT ( 'NONE',  ( 7.000000000000000000, 8.572527594031473190E-16, 5.000000000000000000 ) ) ;
#182 = CIRCLE ( 'NONE', #311, 2.250000000000000000 ) ;
#183 = CIRCLE ( 'NONE', #326, 4.000000000000000000 ) ;
#184 = DIRECTION ( 'NONE',  ( -0.000000000000000000, -0.000000000000000000, -1.000000000000000000 ) ) ;
#185 = DIRECTION ( 'NONE',  ( 1.000000000000000000, 0.000000000000000000, 0.000000000000000000 ) ) ;
#186 = ORIENTED_EDGE ( 'NONE', *, *, #328, .F. ) ;
#187 = DIRECTION ( 'NONE',  ( 0.000000000000000000, 0.000000000000000000, 1.000000000000000000 ) ) ;
#188 = ORIENTED_EDGE ( 'NONE', *, *, #22, .T. ) ;
#189 = DIRECTION ( 'NONE',  ( 0.000000000000000000, 0.000000000000000000, 1.000000000000000000 ) ) ;
#190 = ORIENTED_EDGE ( 'NONE', *, *, #99, .T. ) ;
#191 = EDGE_CURVE ( 'NONE', #7, #224, #143, .T. ) ;
#192 =( LENGTH_UNIT ( ) NAMED_UNIT ( * ) SI_UNIT ( .MILLI., .METRE. ) );
#193 = ORIENTED_EDGE ( 'NONE', *, *, #16, .T. ) ;
#194 = CARTESIAN_POINT ( 'NONE',  ( 4.000000000000000000, 4.898587196589412829E-16, 5.500000000000005329 ) ) ;
#195 = VECTOR ( 'NONE', #23, 1000.000000000000000 ) ;
#196 = EDGE_CURVE ( 'NONE', #180, #217, #13, .T. ) ;
#197 = LINE ( 'NONE', #313, #348 ) ;
#198 = DESIGN_CONTEXT ( 'detailed design', #41, 'design' ) ;
#199 = APPROVAL_STATUS ( 'not_yet_approved' ) ;
#200 = CARTESIAN_POINT ( 'NONE',  ( 0.000000000000000000, 0.000000000000000000, 280.0000000000000000 ) ) ;
#201 = AXIS2_PLACEMENT_3D ( 'NONE', #172, #290, #341 ) ;
#202 = DIRECTION ( 'NONE',  ( 1.000000000000000000, 0.000000000000000000, 0.000000000000000000 ) ) ;
#203 = PRODUCT_DEFINITION_FORMATION_WITH_SPECIFIED_SOURCE ( 'LIBOVOLNÝ', '', #277, .NOT_KNOWN. ) ;
#204 = AXIS2_PLACEMENT_3D ( 'NONE', #135, #76, #104 ) ;
#205 = EDGE_CURVE ( 'NONE', #244, #217, #179, .T. ) ;
#206 = CARTESIAN_POINT ( 'NONE',  ( 2.250000000000000000, 2.755455298081544285E-16, 0.000000000000000000 ) ) ;
#207 = CARTESIAN_POINT ( 'NONE',  ( 0.000000000000000000, 0.000000000000000000, 280.0000000000000000 ) ) ;
#208 = CC_DESIGN_DATE_AND_TIME_ASSIGNMENT ( #332, #275, ( #54 ) ) ;
#209 = DIRECTION ( 'NONE',  ( 0.000000000000000000, 0.000000000000000000, 1.000000000000000000 ) ) ;
#210 = LOCAL_TIME ( 17, 23, 42.00000000000000000, #75 ) ;
#211 = DIRECTION ( 'NONE',  ( -0.000000000000000000, -0.000000000000000000, -1.000000000000000000 ) ) ;
#212 = ORIENTED_EDGE ( 'NONE', *, *, #71, .T. ) ;
#213 = DIRECTION ( 'NONE',  ( 0.000000000000000000, 0.000000000000000000, -1.000000000000000000 ) ) ;
#214 = VECTOR ( 'NONE', #310, 1000.000000000000000 ) ;
#215 = CALENDAR_DATE ( 2022, 8, 7 ) ;
#216 = ORIENTED_EDGE ( 'NONE', *, *, #2, .T. ) ;
#217 = VERTEX_POINT ( 'NONE', #319 ) ;
#218 =( NAMED_UNIT ( * ) PLANE_ANGLE_UNIT ( ) SI_UNIT ( $, .RADIAN. ) );
#219 = ADVANCED_FACE ( 'NONE', ( #295 ), #61, .F. ) ;
#220 = ORIENTED_EDGE ( 'NONE', *, *, #58, .F. ) ;
#221 = PRODUCT_DEFINITION_SHAPE ( 'NONE', 'NONE',  #54 ) ;
#222 = AXIS2_PLACEMENT_3D ( 'NONE', #288, #230, #312 ) ;
#223 = AXIS2_PLACEMENT_3D ( 'NONE', #151, #270, #24 ) ;
#224 = VERTEX_POINT ( 'NONE', #206 ) ;
#225 = EDGE_LOOP ( 'NONE', ( #273, #305 ) ) ;
#226 = EDGE_CURVE ( 'NONE', #96, #302, #19, .T. ) ;
#227 = CARTESIAN_POINT ( 'NONE',  ( 0.000000000000000000, 0.000000000000000000, 280.0000000000000000 ) ) ;
#228 = DIRECTION ( 'NONE',  ( 1.000000000000000000, 0.000000000000000000, 0.000000000000000000 ) ) ;
#229 = LINE ( 'NONE', #257, #316 ) ;
#230 = DIRECTION ( 'NONE',  ( 0.000000000000000000, 0.000000000000000000, 1.000000000000000000 ) ) ;
#231 = ADVANCED_FACE ( 'NONE', ( #293, #235 ), #325, .T. ) ;
#232 = CIRCLE ( 'NONE', #116, 7.000000000000000000 ) ;
#233 = CYLINDRICAL_SURFACE ( 'NONE', #164, 2.250000000000000000 ) ;
#234 = AXIS2_PLACEMENT_3D ( 'NONE', #88, #119, #240 ) ;
#235 = FACE_OUTER_BOUND ( 'NONE', #38, .T. ) ;
#236 = APPROVAL ( #39, 'NEURÈENÝ' ) ;
#237 = DIRECTION ( 'NONE',  ( 1.000000000000000000, 0.000000000000000000, 0.000000000000000000 ) ) ;
#238 = DIRECTION ( 'NONE',  ( 1.224646799147353207E-16, 1.000000000000000000, -0.000000000000000000 ) ) ;
#239 = AXIS2_PLACEMENT_3D ( 'NONE', #265, #321, #213 ) ;
#240 = DIRECTION ( 'NONE',  ( 1.000000000000000000, 0.000000000000000000, 0.000000000000000000 ) ) ;
#241 = ADVANCED_FACE ( 'NONE', ( #322 ), #380, .T. ) ;
#242 = DIRECTION ( 'NONE',  ( 0.000000000000000000, 0.000000000000000000, 1.000000000000000000 ) ) ;
#243 = APPROVAL_ROLE ( '' ) ;
#244 = VERTEX_POINT ( 'NONE', #1 ) ;
#245 = AXIS2_PLACEMENT_3D ( 'NONE', #145, #320, #237 ) ;
#246 = DATE_AND_TIME ( #89, #287 ) ;
#247 = ORIENTED_EDGE ( 'NONE', *, *, #291, .F. ) ;
#248 = APPROVAL ( #199, 'NEURÈENÝ' ) ;
#249 = CALENDAR_DATE ( 2022, 8, 7 ) ;
#250 = ORIENTED_EDGE ( 'NONE', *, *, #8, .F. ) ;
#251 = ORIENTED_EDGE ( 'NONE', *, *, #161, .T. ) ;
#252 = AXIS2_PLACEMENT_3D ( 'NONE', #3, #184, #127 ) ;
#253 = ORGANIZATION ( 'NEURÈENÝ', 'NEURÈENÝ', '' ) ;
#254 = EDGE_LOOP ( 'NONE', ( #72, #193 ) ) ;
#255 = FACE_OUTER_BOUND ( 'NONE', #132, .T. ) ;
#256 = DIRECTION ( 'NONE',  ( 0.000000000000000000, 0.000000000000000000, 1.000000000000000000 ) ) ;
#257 = CARTESIAN_POINT ( 'NONE',  ( -4.000000000000000000, 0.000000000000000000, 280.0000000000000000 ) ) ;
#258 = APPROVAL_DATE_TIME ( #139, #248 ) ;
#259 = EDGE_CURVE ( 'NONE', #300, #244, #232, .T. ) ;
#260 = DIRECTION ( 'NONE',  ( 1.000000000000000000, 0.000000000000000000, 0.000000000000000000 ) ) ;
#261 = FACE_BOUND ( 'NONE', #160, .T. ) ;
#262 = TOROIDAL_SURFACE ( 'NONE', #234, 4.500000000000000888, 0.5000000000000000000 ) ;
#263 = CARTESIAN_POINT ( 'NONE',  ( -7.000000000000000000, 0.000000000000000000, 0.000000000000000000 ) ) ;
#264 = DIRECTION ( 'NONE',  ( 1.000000000000000000, 0.000000000000000000, 0.000000000000000000 ) ) ;
#265 = CARTESIAN_POINT ( 'NONE',  ( 4.500000000000000888, 0.000000000000000000, 5.500000000000005329 ) ) ;
#266 = PERSON ( 'NEURÈENÝ', 'NEURÈENÝ', 'NEURÈENÝ', ('NEURÈENÝ'), ('NEURÈENÝ'), ('NEURÈENÝ') ) ;
#267 = DIRECTION ( 'NONE',  ( 0.000000000000000000, 0.000000000000000000, 1.000000000000000000 ) ) ;
#268 = CIRCLE ( 'NONE', #357, 4.000000000000000000 ) ;
#269 = CIRCLE ( 'NONE', #378, 7.000000000000000000 ) ;
#270 = DIRECTION ( 'NONE',  ( -0.000000000000000000, -0.000000000000000000, -1.000000000000000000 ) ) ;
#271 = APPROVAL_STATUS ( 'not_yet_approved' ) ;
#272 = ORIENTED_EDGE ( 'NONE', *, *, #153, .T. ) ;
#273 = ORIENTED_EDGE ( 'NONE', *, *, #191, .F. ) ;
#274 = ADVANCED_FACE ( 'NONE', ( #82 ), #374, .T. ) ;
#275 = DATE_TIME_ROLE ( 'creation_date' ) ;
#276 = ORIENTED_EDGE ( 'NONE', *, *, #196, .F. ) ;
#277 = PRODUCT ( '6510', '6510', '', ( #304 ) ) ;
#278 = ORIENTED_EDGE ( 'NONE', *, *, #8, .T. ) ;
#279 = APPLICATION_PROTOCOL_DEFINITION ( 'international standard', 'config_control_design', 1994, #41 ) ;
#280 = EDGE_LOOP ( 'NONE', ( #220, #163, #272, #216 ) ) ;
#281 = APPROVAL_PERSON_ORGANIZATION ( #125, #236, #10 ) ;
#282 = CARTESIAN_POINT ( 'NONE',  ( -4.000000000000000000, 0.000000000000000000, 5.500000000000005329 ) ) ;
#283 = DATE_TIME_ROLE ( 'classification_date' ) ;
#284 = CARTESIAN_POINT ( 'NONE',  ( 4.000000000000000000, 4.898587196589412829E-16, 280.0000000000000000 ) ) ;
#285 = CARTESIAN_POINT ( 'NONE',  ( 0.000000000000000000, 0.000000000000000000, 280.0000000000000000 ) ) ;
#286 = PRODUCT_RELATED_PRODUCT_CATEGORY ( 'detail', '', ( #277 ) ) ;
#287 = LOCAL_TIME ( 17, 23, 42.00000000000000000, #355 ) ;
#288 = CARTESIAN_POINT ( 'NONE',  ( 0.000000000000000000, 0.000000000000000000, 5.500000000000005329 ) ) ;
#289 = CIRCLE ( 'NONE', #171, 7.000000000000000000 ) ;
#290 = DIRECTION ( 'NONE',  ( 0.000000000000000000, 0.000000000000000000, 1.000000000000000000 ) ) ;
#291 = EDGE_CURVE ( 'NONE', #302, #330, #81, .T. ) ;
#292 = CARTESIAN_POINT ( 'NONE',  ( 0.000000000000000000, 0.000000000000000000, 5.000000000000000000 ) ) ;
#293 = FACE_BOUND ( 'NONE', #254, .T. ) ;
#294 = CARTESIAN_POINT ( 'NONE',  ( 0.000000000000000000, 0.000000000000000000, 5.000000000000000000 ) ) ;
#295 = FACE_OUTER_BOUND ( 'NONE', #36, .T. ) ;
#296 = ORIENTED_EDGE ( 'NONE', *, *, #161, .F. ) ;
#297 = DIRECTION ( 'NONE',  ( -0.000000000000000000, -0.000000000000000000, -1.000000000000000000 ) ) ;
#298 = AXIS2_PLACEMENT_3D ( 'NONE', #84, #297, #27 ) ;
#299 = FACE_OUTER_BOUND ( 'NONE', #9, .T. ) ;
#300 = VERTEX_POINT ( 'NONE', #85 ) ;
#301 = APPROVAL_DATE_TIME ( #329, #174 ) ;
#302 = VERTEX_POINT ( 'NONE', #113 ) ;
#303 = ADVANCED_BREP_SHAPE_REPRESENTATION ( '6510', ( #331, #133 ), #130 ) ;
#304 = MECHANICAL_CONTEXT ( 'NONE', #66, 'mechanical' ) ;
#305 = ORIENTED_EDGE ( 'NONE', *, *, #79, .F. ) ;
#306 = PLANE ( 'NONE',  #318 ) ;
#307 = ORIENTED_EDGE ( 'NONE', *, *, #2, .F. ) ;
#308 = CARTESIAN_POINT ( 'NONE',  ( 0.000000000000000000, 0.000000000000000000, 0.000000000000000000 ) ) ;
#309 = ORIENTED_EDGE ( 'NONE', *, *, #71, .F. ) ;
#310 = DIRECTION ( 'NONE',  ( 0.000000000000000000, 0.000000000000000000, -1.000000000000000000 ) ) ;
#311 = AXIS2_PLACEMENT_3D ( 'NONE', #347, #370, #228 ) ;
#312 = DIRECTION ( 'NONE',  ( 1.000000000000000000, 0.000000000000000000, 0.000000000000000000 ) ) ;
#313 = CARTESIAN_POINT ( 'NONE',  ( -2.250000000000000000, 0.000000000000000000, 280.0000000000000000 ) ) ;
#314 = CC_DESIGN_DATE_AND_TIME_ASSIGNMENT ( #102, #283, ( #60 ) ) ;
#315 = DIRECTION ( 'NONE',  ( 0.000000000000000000, 0.000000000000000000, 1.000000000000000000 ) ) ;
#316 = VECTOR ( 'NONE', #107, 1000.000000000000000 ) ;
#317 = LINE ( 'NONE', #346, #373 ) ;
#318 = AXIS2_PLACEMENT_3D ( 'NONE', #361, #189, #337 ) ;
#319 = CARTESIAN_POINT ( 'NONE',  ( 7.000000000000000000, 8.572527594031473190E-16, 0.000000000000000000 ) ) ;
#320 = DIRECTION ( 'NONE',  ( -0.000000000000000000, -0.000000000000000000, -1.000000000000000000 ) ) ;
#321 = DIRECTION ( 'NONE',  ( 0.000000000000000000, -1.000000000000000000, 0.000000000000000000 ) ) ;
#322 = FACE_OUTER_BOUND ( 'NONE', #43, .T. ) ;
#323 = ORIENTED_EDGE ( 'NONE', *, *, #131, .T. ) ;
#324 = EDGE_CURVE ( 'NONE', #70, #330, #34, .T. ) ;
#325 = PLANE ( 'NONE',  #365 ) ;
#326 = AXIS2_PLACEMENT_3D ( 'NONE', #134, #108, #141 ) ;
#327 = CIRCLE ( 'NONE', #166, 4.000000000000000000 ) ;
#328 = EDGE_CURVE ( 'NONE', #244, #300, #269, .T. ) ;
#329 = DATE_AND_TIME ( #215, #177 ) ;
#330 = VERTEX_POINT ( 'NONE', #142 ) ;
#331 = MANIFOLD_SOLID_BREP ( 'Odebrat vysunutím3', #111 ) ;
#332 = DATE_AND_TIME ( #249, #336 ) ;
#333 = ORIENTED_EDGE ( 'NONE', *, *, #205, .F. ) ;
#334 = APPLICATION_PROTOCOL_DEFINITION ( 'international standard', 'config_control_design', 1994, #66 ) ;
#335 = ORIENTED_EDGE ( 'NONE', *, *, #153, .F. ) ;
#336 = LOCAL_TIME ( 17, 23, 42.00000000000000000, #152 ) ;
#337 = DIRECTION ( 'NONE',  ( 1.000000000000000000, 0.000000000000000000, -0.000000000000000000 ) ) ;
#338 = ORIENTED_EDGE ( 'NONE', *, *, #146, .T. ) ;
#339 = ADVANCED_FACE ( 'NONE', ( #86 ), #350, .T. ) ;
#340 = VERTEX_POINT ( 'NONE', #159 ) ;
#341 = DIRECTION ( 'NONE',  ( 1.000000000000000000, 0.000000000000000000, 0.000000000000000000 ) ) ;
#342 = APPROVAL_PERSON_ORGANIZATION ( #73, #248, #169 ) ;
#343 = CC_DESIGN_PERSON_AND_ORGANIZATION_ASSIGNMENT ( #63, #35, ( #54 ) ) ;
#344 = CARTESIAN_POINT ( 'NONE',  ( 4.000000000000000000, 4.898587196589412829E-16, 280.0000000000000000 ) ) ;
#345 = PERSON_AND_ORGANIZATION_ROLE ( 'classification_officer' ) ;
#346 = CARTESIAN_POINT ( 'NONE',  ( -7.000000000000000000, 0.000000000000000000, 5.000000000000000000 ) ) ;
#347 = CARTESIAN_POINT ( 'NONE',  ( 0.000000000000000000, 0.000000000000000000, 0.000000000000000000 ) ) ;
#348 = VECTOR ( 'NONE', #51, 1000.000000000000000 ) ;
#349 = LINE ( 'NONE', #344, #195 ) ;
#350 = CYLINDRICAL_SURFACE ( 'NONE', #150, 4.000000000000000000 ) ;
#351 = DIRECTION ( 'NONE',  ( -1.000000000000000000, 0.000000000000000000, 0.000000000000000000 ) ) ;
#352 = ADVANCED_FACE ( 'NONE', ( #64 ), #129, .T. ) ;
#353 = DIRECTION ( 'NONE',  ( -1.000000000000000000, 1.224646799147351482E-16, 0.000000000000000000 ) ) ;
#354 = DIRECTION ( 'NONE',  ( -1.000000000000000000, 0.000000000000000000, 0.000000000000000000 ) ) ;
#355 = COORDINATED_UNIVERSAL_TIME_OFFSET ( 1, 0, .AHEAD. ) ;
#356 = ADVANCED_FACE ( 'NONE', ( #95, #299 ), #306, .F. ) ;
#357 = AXIS2_PLACEMENT_3D ( 'NONE', #285, #18, #137 ) ;
#358 = ORIENTED_EDGE ( 'NONE', *, *, #99, .F. ) ;
#359 = PERSON_AND_ORGANIZATION_ROLE ( 'design_supplier' ) ;
#360 = ORIENTED_EDGE ( 'NONE', *, *, #324, .T. ) ;
#361 = CARTESIAN_POINT ( 'NONE',  ( 0.000000000000000000, 0.000000000000000000, 0.000000000000000000 ) ) ;
#362 = ORIENTED_EDGE ( 'NONE', *, *, #196, .T. ) ;
#363 =( NAMED_UNIT ( * ) SI_UNIT ( $, .STERADIAN. ) SOLID_ANGLE_UNIT ( ) );
#364 = ORIENTED_EDGE ( 'NONE', *, *, #122, .T. ) ;
#365 = AXIS2_PLACEMENT_3D ( 'NONE', #294, #267, #62 ) ;
#366 = ORIENTED_EDGE ( 'NONE', *, *, #226, .F. ) ;
#367 = DIRECTION ( 'NONE',  ( 0.000000000000000000, 0.000000000000000000, -1.000000000000000000 ) ) ;
#368 = CARTESIAN_POINT ( 'NONE',  ( -2.250000000000000000, 0.000000000000000000, 280.0000000000000000 ) ) ;
#369 = CARTESIAN_POINT ( 'NONE',  ( -2.250000000000000000, 0.000000000000000000, 0.000000000000000000 ) ) ;
#370 = DIRECTION ( 'NONE',  ( -0.000000000000000000, -0.000000000000000000, -1.000000000000000000 ) ) ;
#371 = CARTESIAN_POINT ( 'NONE',  ( 0.000000000000000000, 0.000000000000000000, 280.0000000000000000 ) ) ;
#372 = CIRCLE ( 'NONE', #12, 2.250000000000000000 ) ;
#373 = VECTOR ( 'NONE', #21, 1000.000000000000000 ) ;
#374 = CYLINDRICAL_SURFACE ( 'NONE', #381, 7.000000000000000000 ) ;
#375 = DIRECTION ( 'NONE',  ( -0.000000000000000000, -0.000000000000000000, -1.000000000000000000 ) ) ;
#376 = CC_DESIGN_PERSON_AND_ORGANIZATION_ASSIGNMENT ( #20, #345, ( #60 ) ) ;
#377 = DIRECTION ( 'NONE',  ( 0.000000000000000000, 0.000000000000000000, 1.000000000000000000 ) ) ;
#378 = AXIS2_PLACEMENT_3D ( 'NONE', #292, #209, #264 ) ;
#379 = APPROVAL_PERSON_ORGANIZATION ( #120, #174, #243 ) ;
#380 = CYLINDRICAL_SURFACE ( 'NONE', #298, 4.000000000000000000 ) ;
#381 = AXIS2_PLACEMENT_3D ( 'NONE', #144, #33, #354 ) ;
ENDSEC;
END-ISO-10303-21;
