ISO-10303-21;
HEADER;
FILE_DESCRIPTION (( 'STEP AP203' ),
    '1' );
FILE_NAME ('e8ad.STEP',
    '2022-07-08T15:01:20',
    ( '' ),
    ( '' ),
    'SwSTEP 2.0',
    'SolidWorks 2019',
    '' );
FILE_SCHEMA (( 'CONFIG_CONTROL_DESIGN' ));
ENDSEC;

DATA;
#1 = APPROVAL_DATE_TIME ( #268, #120 ) ;
#2 = EDGE_CURVE ( 'NONE', #177, #124, #204, .T. ) ;
#3 = ORIENTED_EDGE ( 'NONE', *, *, #347, .F. ) ;
#4 = LOCAL_TIME ( 17, 1, 20.00000000000000000, #98 ) ;
#5 = PERSON_AND_ORGANIZATION_ROLE ( 'design_owner' ) ;
#6 = DIRECTION ( 'NONE',  ( -0.000000000000000000, -0.000000000000000000, -1.000000000000000000 ) ) ;
#7 = CALENDAR_DATE ( 2022, 8, 7 ) ;
#8 = DIRECTION ( 'NONE',  ( 1.000000000000000000, 0.000000000000000000, 0.000000000000000000 ) ) ;
#9 = EDGE_CURVE ( 'NONE', #330, #226, #113, .T. ) ;
#10 = PERSON_AND_ORGANIZATION ( #80, #125 ) ;
#11 = DIRECTION ( 'NONE',  ( -1.000000000000000000, 0.000000000000000000, 0.000000000000000000 ) ) ;
#12 = AXIS2_PLACEMENT_3D ( 'NONE', #350, #269, #213 ) ;
#13 = LINE ( 'NONE', #362, #165 ) ;
#14 = ORIENTED_EDGE ( 'NONE', *, *, #9, .T. ) ;
#15 = EDGE_LOOP ( 'NONE', ( #277, #104, #173, #164 ) ) ;
#16 = DIRECTION ( 'NONE',  ( 1.000000000000000000, 0.000000000000000000, 0.000000000000000000 ) ) ;
#17 = EDGE_CURVE ( 'NONE', #27, #234, #86, .T. ) ;
#18 = AXIS2_PLACEMENT_3D ( 'NONE', #171, #110, #26 ) ;
#19 = EDGE_LOOP ( 'NONE', ( #345, #298, #344, #289 ) ) ;
#20 = ORIENTED_EDGE ( 'NONE', *, *, #299, .T. ) ;
#21 = ADVANCED_FACE ( 'NONE', ( #78, #255 ), #261, .T. ) ;
#22 = CYLINDRICAL_SURFACE ( 'NONE', #242, 10.00000000000000000 ) ;
#23 = ORIENTED_EDGE ( 'NONE', *, *, #299, .F. ) ;
#24 = SECURITY_CLASSIFICATION ( '', '', #180 ) ;
#25 = APPROVAL_PERSON_ORGANIZATION ( #322, #120, #148 ) ;
#26 = DIRECTION ( 'NONE',  ( 1.000000000000000000, 0.000000000000000000, 0.000000000000000000 ) ) ;
#27 = VERTEX_POINT ( 'NONE', #49 ) ;
#28 = AXIS2_PLACEMENT_3D ( 'NONE', #122, #6, #96 ) ;
#29 = CARTESIAN_POINT ( 'NONE',  ( 0.000000000000000000, 0.000000000000000000, 7.000000000000000000 ) ) ;
#30 =( NAMED_UNIT ( * ) SI_UNIT ( $, .STERADIAN. ) SOLID_ANGLE_UNIT ( ) );
#31 = CARTESIAN_POINT ( 'NONE',  ( 2.750000000000000000, 3.367778697655220519E-16, 232.0000000000000000 ) ) ;
#32 = ORIENTED_EDGE ( 'NONE', *, *, #87, .T. ) ;
#33 = CALENDAR_DATE ( 2022, 8, 7 ) ;
#34 = CARTESIAN_POINT ( 'NONE',  ( 0.000000000000000000, 0.000000000000000000, 7.000000000000000000 ) ) ;
#35 = CIRCLE ( 'NONE', #114, 6.000000000000000888 ) ;
#36 = ADVANCED_FACE ( 'NONE', ( #170 ), #363, .F. ) ;
#37 = APPLICATION_CONTEXT ( 'configuration controlled 3d designs of mechanical parts and assemblies' ) ;
#38 = CARTESIAN_POINT ( 'NONE',  ( 0.000000000000000000, 0.000000000000000000, 0.000000000000000000 ) ) ;
#39 = FACE_BOUND ( 'NONE', #75, .T. ) ;
#40 = ORIENTED_EDGE ( 'NONE', *, *, #138, .F. ) ;
#41 = CARTESIAN_POINT ( 'NONE',  ( 2.750000000000000000, 3.367778697655220519E-16, 0.000000000000000000 ) ) ;
#42 = CC_DESIGN_PERSON_AND_ORGANIZATION_ASSIGNMENT ( #95, #5, ( #134 ) ) ;
#43 = ORIENTED_EDGE ( 'NONE', *, *, #138, .T. ) ;
#44 = AXIS2_PLACEMENT_3D ( 'NONE', #64, #155, #8 ) ;
#45 = CARTESIAN_POINT ( 'NONE',  ( 6.000000000000000888, 7.347880794884120722E-16, 7.500000000000007105 ) ) ;
#46 = ORIENTED_EDGE ( 'NONE', *, *, #258, .F. ) ;
#47 = CARTESIAN_POINT ( 'NONE',  ( -6.000000000000000888, 0.000000000000000000, 7.500000000000007105 ) ) ;
#48 = ORIENTED_EDGE ( 'NONE', *, *, #208, .T. ) ;
#49 = CARTESIAN_POINT ( 'NONE',  ( 2.750000000000000000, 3.367778697655220519E-16, 232.0000000000000000 ) ) ;
#50 = CARTESIAN_POINT ( 'NONE',  ( 0.000000000000000000, 0.000000000000000000, 0.000000000000000000 ) ) ;
#51 = DIRECTION ( 'NONE',  ( 0.000000000000000000, 0.000000000000000000, -1.000000000000000000 ) ) ;
#52 = LOCAL_TIME ( 17, 1, 20.00000000000000000, #121 ) ;
#53 = DIRECTION ( 'NONE',  ( 0.000000000000000000, 0.000000000000000000, -1.000000000000000000 ) ) ;
#54 = ADVANCED_FACE ( 'NONE', ( #284 ), #318, .F. ) ;
#55 = CLOSED_SHELL ( 'NONE', ( #54, #250, #181, #372, #103, #109, #323, #153, #21, #36, #66 ) ) ;
#56 = FACE_OUTER_BOUND ( 'NONE', #308, .T. ) ;
#57 = PERSON_AND_ORGANIZATION ( #80, #125 ) ;
#58 = AXIS2_PLACEMENT_3D ( 'NONE', #99, #329, #69 ) ;
#59 = PRODUCT_RELATED_PRODUCT_CATEGORY ( 'detail', '', ( #134 ) ) ;
#60 = DATE_TIME_ROLE ( 'classification_date' ) ;
#61 = CARTESIAN_POINT ( 'NONE',  ( -6.000000000000000888, 0.000000000000000000, 232.0000000000000000 ) ) ;
#62 = ORIENTED_EDGE ( 'NONE', *, *, #169, .T. ) ;
#63 = CALENDAR_DATE ( 2022, 8, 7 ) ;
#64 = CARTESIAN_POINT ( 'NONE',  ( 0.000000000000000000, 0.000000000000000000, 0.000000000000000000 ) ) ;
#65 = APPROVAL_ROLE ( '' ) ;
#66 = ADVANCED_FACE ( 'NONE', ( #56 ), #145, .F. ) ;
#67 = APPROVAL_STATUS ( 'not_yet_approved' ) ;
#68 = FACE_OUTER_BOUND ( 'NONE', #15, .T. ) ;
#69 = DIRECTION ( 'NONE',  ( 0.000000000000000000, 0.000000000000000000, -1.000000000000000000 ) ) ;
#70 = DIRECTION ( 'NONE',  ( -0.000000000000000000, -0.000000000000000000, -1.000000000000000000 ) ) ;
#71 = VERTEX_POINT ( 'NONE', #61 ) ;
#72 = EDGE_CURVE ( 'NONE', #335, #124, #331, .T. ) ;
#73 = AXIS2_PLACEMENT_3D ( 'NONE', #160, #270, #340 ) ;
#74 = DIRECTION ( 'NONE',  ( 0.000000000000000000, 0.000000000000000000, 1.000000000000000000 ) ) ;
#75 = EDGE_LOOP ( 'NONE', ( #252, #108 ) ) ;
#76 = DIRECTION ( 'NONE',  ( 1.000000000000000000, 0.000000000000000000, 0.000000000000000000 ) ) ;
#77 = ORIENTED_EDGE ( 'NONE', *, *, #347, .T. ) ;
#78 = FACE_BOUND ( 'NONE', #198, .T. ) ;
#79 = DIRECTION ( 'NONE',  ( 1.000000000000000000, 0.000000000000000000, -0.000000000000000000 ) ) ;
#80 = PERSON ( 'NEURÈENÝ', 'NEURÈENÝ', 'NEURÈENÝ', ('NEURÈENÝ'), ('NEURÈENÝ'), ('NEURÈENÝ') ) ;
#81 = ORIENTED_EDGE ( 'NONE', *, *, #355, .T. ) ;
#82 = EDGE_CURVE ( 'NONE', #305, #259, #257, .T. ) ;
#83 =( NAMED_UNIT ( * ) PLANE_ANGLE_UNIT ( ) SI_UNIT ( $, .RADIAN. ) );
#84 = CIRCLE ( 'NONE', #73, 6.500000000000000888 ) ;
#85 = CARTESIAN_POINT ( 'NONE',  ( 0.000000000000000000, 0.000000000000000000, 7.000000000000000000 ) ) ;
#86 = LINE ( 'NONE', #31, #205 ) ;
#87 = EDGE_CURVE ( 'NONE', #71, #196, #182, .T. ) ;
#88 = APPLICATION_PROTOCOL_DEFINITION ( 'international standard', 'config_control_design', 1994, #37 ) ;
#89 = LOCAL_TIME ( 17, 1, 20.00000000000000000, #149 ) ;
#90 = APPROVAL_DATE_TIME ( #319, #310 ) ;
#91 = CYLINDRICAL_SURFACE ( 'NONE', #207, 6.000000000000000888 ) ;
#92 = COORDINATED_UNIVERSAL_TIME_OFFSET ( 1, 0, .AHEAD. ) ;
#93 = AXIS2_PLACEMENT_3D ( 'NONE', #219, #184, #179 ) ;
#94 = CYLINDRICAL_SURFACE ( 'NONE', #12, 6.000000000000000888 ) ;
#95 = PERSON_AND_ORGANIZATION ( #80, #125 ) ;
#96 = DIRECTION ( 'NONE',  ( -1.000000000000000000, 0.000000000000000000, 0.000000000000000000 ) ) ;
#97 = CIRCLE ( 'NONE', #306, 0.5000000000000004441 ) ;
#98 = COORDINATED_UNIVERSAL_TIME_OFFSET ( 1, 0, .AHEAD. ) ;
#99 = CARTESIAN_POINT ( 'NONE',  ( 6.500000000000000888, 0.000000000000000000, 7.500000000000007105 ) ) ;
#100 = CARTESIAN_POINT ( 'NONE',  ( -6.500000000000000888, 7.960204194457796463E-16, 7.000000000000002665 ) ) ;
#101 = FACE_OUTER_BOUND ( 'NONE', #228, .T. ) ;
#102 = ORIENTED_EDGE ( 'NONE', *, *, #188, .F. ) ;
#103 = ADVANCED_FACE ( 'NONE', ( #267 ), #150, .T. ) ;
#104 = ORIENTED_EDGE ( 'NONE', *, *, #258, .T. ) ;
#105 = AXIS2_PLACEMENT_3D ( 'NONE', #374, #111, #200 ) ;
#106 = CARTESIAN_POINT ( 'NONE',  ( -10.00000000000000000, 0.000000000000000000, 0.000000000000000000 ) ) ;
#107 = CIRCLE ( 'NONE', #292, 2.750000000000000000 ) ;
#108 = ORIENTED_EDGE ( 'NONE', *, *, #245, .T. ) ;
#109 = ADVANCED_FACE ( 'NONE', ( #39, #381 ), #264, .T. ) ;
#110 = DIRECTION ( 'NONE',  ( 0.000000000000000000, 0.000000000000000000, 1.000000000000000000 ) ) ;
#111 = DIRECTION ( 'NONE',  ( 0.000000000000000000, 0.000000000000000000, 1.000000000000000000 ) ) ;
#112 = CARTESIAN_POINT ( 'NONE',  ( -2.750000000000000000, 0.000000000000000000, 232.0000000000000000 ) ) ;
#113 = LINE ( 'NONE', #342, #297 ) ;
#114 = AXIS2_PLACEMENT_3D ( 'NONE', #302, #307, #246 ) ;
#115 = EDGE_CURVE ( 'NONE', #338, #71, #151, .T. ) ;
#116 = PERSON_AND_ORGANIZATION ( #80, #125 ) ;
#117 = DIRECTION ( 'NONE',  ( 1.000000000000000000, 0.000000000000000000, 0.000000000000000000 ) ) ;
#118 = CIRCLE ( 'NONE', #247, 2.750000000000000000 ) ;
#119 = CARTESIAN_POINT ( 'NONE',  ( 0.000000000000000000, 0.000000000000000000, 232.0000000000000000 ) ) ;
#120 = APPROVAL ( #356, 'NEURÈENÝ' ) ;
#121 = COORDINATED_UNIVERSAL_TIME_OFFSET ( 1, 0, .AHEAD. ) ;
#122 = CARTESIAN_POINT ( 'NONE',  ( 0.000000000000000000, 0.000000000000000000, 7.000000000000000000 ) ) ;
#123 = DIRECTION ( 'NONE',  ( 0.000000000000000000, 0.000000000000000000, 1.000000000000000000 ) ) ;
#124 = VERTEX_POINT ( 'NONE', #353 ) ;
#125 = ORGANIZATION ( 'NEURÈENÝ', 'NEURÈENÝ', '' ) ;
#126 = ORIENTED_EDGE ( 'NONE', *, *, #115, .T. ) ;
#127 = LINE ( 'NONE', #130, #379 ) ;
#128 = ORIENTED_EDGE ( 'NONE', *, *, #303, .F. ) ;
#129 = AXIS2_PLACEMENT_3D ( 'NONE', #304, #194, #248 ) ;
#130 = CARTESIAN_POINT ( 'NONE',  ( -10.00000000000000000, 0.000000000000000000, 7.000000000000000000 ) ) ;
#131 = ORIENTED_EDGE ( 'NONE', *, *, #262, .F. ) ;
#132 = CARTESIAN_POINT ( 'NONE',  ( 0.000000000000000000, 0.000000000000000000, 0.000000000000000000 ) ) ;
#133 = EDGE_LOOP ( 'NONE', ( #3, #300, #43, #131 ) ) ;
#134 = PRODUCT ( 'e8ad', 'e8ad', '', ( #373 ) ) ;
#135 = ORIENTED_EDGE ( 'NONE', *, *, #17, .T. ) ;
#136 = CARTESIAN_POINT ( 'NONE',  ( 0.000000000000000000, 0.000000000000000000, 0.000000000000000000 ) ) ;
#137 = EDGE_LOOP ( 'NONE', ( #48, #135, #81, #166 ) ) ;
#138 = EDGE_CURVE ( 'NONE', #124, #335, #185, .T. ) ;
#139 = PRODUCT_DEFINITION_SHAPE ( 'NONE', 'NONE',  #156 ) ;
#140 = DIRECTION ( 'NONE',  ( -0.000000000000000000, -0.000000000000000000, -1.000000000000000000 ) ) ;
#141 = DIRECTION ( 'NONE',  ( 0.000000000000000000, 0.000000000000000000, 1.000000000000000000 ) ) ;
#142 = DIRECTION ( 'NONE',  ( -0.000000000000000000, -0.000000000000000000, -1.000000000000000000 ) ) ;
#143 = ORIENTED_EDGE ( 'NONE', *, *, #271, .F. ) ;
#144 = APPROVAL ( #67, 'NEURÈENÝ' ) ;
#145 = CYLINDRICAL_SURFACE ( 'NONE', #358, 2.750000000000000000 ) ;
#146 = CIRCLE ( 'NONE', #18, 6.000000000000000888 ) ;
#147 = ADVANCED_BREP_SHAPE_REPRESENTATION ( 'e8ad', ( #159, #190 ), #172 ) ;
#148 = APPROVAL_ROLE ( '' ) ;
#149 = COORDINATED_UNIVERSAL_TIME_OFFSET ( 1, 0, .AHEAD. ) ;
#150 = CYLINDRICAL_SURFACE ( 'NONE', #28, 10.00000000000000000 ) ;
#151 = CIRCLE ( 'NONE', #334, 6.000000000000000888 ) ;
#152 = EDGE_LOOP ( 'NONE', ( #143, #221, #239, #371 ) ) ;
#153 = ADVANCED_FACE ( 'NONE', ( #290 ), #94, .T. ) ;
#154 = DATE_TIME_ROLE ( 'creation_date' ) ;
#155 = DIRECTION ( 'NONE',  ( 0.000000000000000000, 0.000000000000000000, 1.000000000000000000 ) ) ;
#156 = PRODUCT_DEFINITION ( 'NEZNÁMÝ', '', #301, #376 ) ;
#157 = ORIENTED_EDGE ( 'NONE', *, *, #72, .F. ) ;
#158 = AXIS2_PLACEMENT_3D ( 'NONE', #163, #244, #274 ) ;
#159 = MANIFOLD_SOLID_BREP ( 'Odebrat vysunutím3', #55 ) ;
#160 = CARTESIAN_POINT ( 'NONE',  ( 0.000000000000000000, 0.000000000000000000, 7.000000000000000000 ) ) ;
#161 = ORIENTED_EDGE ( 'NONE', *, *, #336, .F. ) ;
#162 = VECTOR ( 'NONE', #348, 1000.000000000000000 ) ;
#163 = CARTESIAN_POINT ( 'NONE',  ( 0.000000000000000000, 0.000000000000000000, 7.000000000000000000 ) ) ;
#164 = ORIENTED_EDGE ( 'NONE', *, *, #87, .F. ) ;
#165 = VECTOR ( 'NONE', #229, 1000.000000000000000 ) ;
#166 = ORIENTED_EDGE ( 'NONE', *, *, #9, .F. ) ;
#167 = ORIENTED_EDGE ( 'NONE', *, *, #169, .F. ) ;
#168 = VECTOR ( 'NONE', #293, 1000.000000000000000 ) ;
#169 = EDGE_CURVE ( 'NONE', #196, #273, #202, .T. ) ;
#170 = FACE_OUTER_BOUND ( 'NONE', #152, .T. ) ;
#171 = CARTESIAN_POINT ( 'NONE',  ( 0.000000000000000000, 0.000000000000000000, 232.0000000000000000 ) ) ;
#172 =( GEOMETRIC_REPRESENTATION_CONTEXT ( 3 ) GLOBAL_UNCERTAINTY_ASSIGNED_CONTEXT ( ( #201 ) ) GLOBAL_UNIT_ASSIGNED_CONTEXT ( ( #311, #83, #30 ) ) REPRESENTATION_CONTEXT ( 'NONE', 'WORKASPACE' ) );
#173 = ORIENTED_EDGE ( 'NONE', *, *, #192, .T. ) ;
#174 = DIRECTION ( 'NONE',  ( -1.000000000000000000, 0.000000000000000000, 0.000000000000000000 ) ) ;
#175 = DIRECTION ( 'NONE',  ( 0.000000000000000000, 0.000000000000000000, 1.000000000000000000 ) ) ;
#176 = SHAPE_DEFINITION_REPRESENTATION ( #139, #147 ) ;
#177 = VERTEX_POINT ( 'NONE', #327 ) ;
#178 = APPROVAL_PERSON_ORGANIZATION ( #214, #310, #212 ) ;
#179 = DIRECTION ( 'NONE',  ( 1.000000000000000000, 0.000000000000000000, 0.000000000000000000 ) ) ;
#180 = SECURITY_CLASSIFICATION_LEVEL ( 'unclassified' ) ;
#181 = ADVANCED_FACE ( 'NONE', ( #68 ), #91, .T. ) ;
#182 = LINE ( 'NONE', #361, #168 ) ;
#183 = PERSON_AND_ORGANIZATION_ROLE ( 'design_supplier' ) ;
#184 = DIRECTION ( 'NONE',  ( -0.000000000000000000, -0.000000000000000000, -1.000000000000000000 ) ) ;
#185 = CIRCLE ( 'NONE', #346, 10.00000000000000000 ) ;
#186 = DATE_AND_TIME ( #63, #313 ) ;
#187 = CARTESIAN_POINT ( 'NONE',  ( 0.000000000000000000, 0.000000000000000000, 232.0000000000000000 ) ) ;
#188 = EDGE_CURVE ( 'NONE', #273, #305, #253, .T. ) ;
#189 = ORIENTED_EDGE ( 'NONE', *, *, #285, .T. ) ;
#190 = AXIS2_PLACEMENT_3D ( 'NONE', #50, #317, #254 ) ;
#191 = EDGE_LOOP ( 'NONE', ( #189, #77 ) ) ;
#192 = EDGE_CURVE ( 'NONE', #273, #196, #35, .T. ) ;
#193 = EDGE_LOOP ( 'NONE', ( #128, #354 ) ) ;
#194 = DIRECTION ( 'NONE',  ( 0.000000000000000000, 0.000000000000000000, 1.000000000000000000 ) ) ;
#195 = ORIENTED_EDGE ( 'NONE', *, *, #82, .F. ) ;
#196 = VERTEX_POINT ( 'NONE', #47 ) ;
#197 = DIRECTION ( 'NONE',  ( 1.000000000000000000, 0.000000000000000000, 0.000000000000000000 ) ) ;
#198 = EDGE_LOOP ( 'NONE', ( #365, #23 ) ) ;
#199 = CARTESIAN_POINT ( 'NONE',  ( 6.000000000000000888, 7.347880794884120722E-16, 232.0000000000000000 ) ) ;
#200 = DIRECTION ( 'NONE',  ( 1.000000000000000000, 0.000000000000000000, 0.000000000000000000 ) ) ;
#201 = UNCERTAINTY_MEASURE_WITH_UNIT (LENGTH_MEASURE( 1.000000000000000082E-05 ), #311, 'distance_accuracy_value', 'NONE');
#202 = CIRCLE ( 'NONE', #275, 6.000000000000000888 ) ;
#203 = CARTESIAN_POINT ( 'NONE',  ( -10.00000000000000000, 0.000000000000000000, 7.000000000000000000 ) ) ;
#204 = LINE ( 'NONE', #377, #162 ) ;
#205 = VECTOR ( 'NONE', #314, 1000.000000000000000 ) ;
#206 = DIRECTION ( 'NONE',  ( 0.000000000000000000, 0.000000000000000000, 1.000000000000000000 ) ) ;
#207 = AXIS2_PLACEMENT_3D ( 'NONE', #187, #296, #11 ) ;
#208 = EDGE_CURVE ( 'NONE', #330, #27, #352, .T. ) ;
#209 = CALENDAR_DATE ( 2022, 8, 7 ) ;
#210 = DIRECTION ( 'NONE',  ( 0.000000000000000000, 0.000000000000000000, 1.000000000000000000 ) ) ;
#211 = AXIS2_PLACEMENT_3D ( 'NONE', #312, #315, #174 ) ;
#212 = APPROVAL_ROLE ( '' ) ;
#213 = DIRECTION ( 'NONE',  ( -1.000000000000000000, 0.000000000000000000, 0.000000000000000000 ) ) ;
#214 = PERSON_AND_ORGANIZATION ( #80, #125 ) ;
#215 = CARTESIAN_POINT ( 'NONE',  ( 0.000000000000000000, 0.000000000000000000, 7.500000000000007105 ) ) ;
#216 = CC_DESIGN_PERSON_AND_ORGANIZATION_ASSIGNMENT ( #10, #325, ( #24 ) ) ;
#217 = CIRCLE ( 'NONE', #158, 10.00000000000000000 ) ;
#218 = PERSON_AND_ORGANIZATION_ROLE ( 'creator' ) ;
#219 = CARTESIAN_POINT ( 'NONE',  ( 0.000000000000000000, 0.000000000000000000, 7.000000000000000000 ) ) ;
#220 = CARTESIAN_POINT ( 'NONE',  ( -6.500000000000000888, 7.960204194457796463E-16, 7.500000000000007105 ) ) ;
#221 = ORIENTED_EDGE ( 'NONE', *, *, #192, .F. ) ;
#222 = DIRECTION ( 'NONE',  ( 0.000000000000000000, 0.000000000000000000, 1.000000000000000000 ) ) ;
#223 = CC_DESIGN_APPROVAL ( #310, ( #156 ) ) ;
#224 = CC_DESIGN_DATE_AND_TIME_ASSIGNMENT ( #351, #154, ( #156 ) ) ;
#225 = DIRECTION ( 'NONE',  ( 0.000000000000000000, 0.000000000000000000, 1.000000000000000000 ) ) ;
#226 = VERTEX_POINT ( 'NONE', #243 ) ;
#227 = FACE_OUTER_BOUND ( 'NONE', #249, .T. ) ;
#228 = EDGE_LOOP ( 'NONE', ( #157, #40 ) ) ;
#229 = DIRECTION ( 'NONE',  ( -0.000000000000000000, -0.000000000000000000, -1.000000000000000000 ) ) ;
#230 = EDGE_LOOP ( 'NONE', ( #46, #161, #32, #62 ) ) ;
#231 = AXIS2_PLACEMENT_3D ( 'NONE', #85, #175, #280 ) ;
#232 = CC_DESIGN_APPROVAL ( #144, ( #24 ) ) ;
#233 = CARTESIAN_POINT ( 'NONE',  ( 0.000000000000000000, 0.000000000000000000, 232.0000000000000000 ) ) ;
#234 = VERTEX_POINT ( 'NONE', #41 ) ;
#235 = DIRECTION ( 'NONE',  ( 1.000000000000000000, 0.000000000000000000, -0.000000000000000000 ) ) ;
#236 = APPROVAL_DATE_TIME ( #186, #144 ) ;
#237 = LOCAL_TIME ( 17, 1, 20.00000000000000000, #92 ) ;
#238 = CIRCLE ( 'NONE', #286, 2.750000000000000000 ) ;
#239 = ORIENTED_EDGE ( 'NONE', *, *, #188, .T. ) ;
#240 = DIRECTION ( 'NONE',  ( 0.000000000000000000, 0.000000000000000000, 1.000000000000000000 ) ) ;
#241 = PERSON_AND_ORGANIZATION ( #80, #125 ) ;
#242 = AXIS2_PLACEMENT_3D ( 'NONE', #29, #140, #256 ) ;
#243 = CARTESIAN_POINT ( 'NONE',  ( -2.750000000000000000, 0.000000000000000000, 0.000000000000000000 ) ) ;
#244 = DIRECTION ( 'NONE',  ( 0.000000000000000000, 0.000000000000000000, 1.000000000000000000 ) ) ;
#245 = EDGE_CURVE ( 'NONE', #259, #305, #84, .T. ) ;
#246 = DIRECTION ( 'NONE',  ( 1.000000000000000000, 0.000000000000000000, 0.000000000000000000 ) ) ;
#247 = AXIS2_PLACEMENT_3D ( 'NONE', #332, #74, #16 ) ;
#248 = DIRECTION ( 'NONE',  ( 1.000000000000000000, 0.000000000000000000, 0.000000000000000000 ) ) ;
#249 = EDGE_LOOP ( 'NONE', ( #167, #265, #195, #102 ) ) ;
#250 = ADVANCED_FACE ( 'NONE', ( #227 ), #260, .F. ) ;
#251 = DIRECTION ( 'NONE',  ( -0.000000000000000000, -0.000000000000000000, -1.000000000000000000 ) ) ;
#252 = ORIENTED_EDGE ( 'NONE', *, *, #82, .T. ) ;
#253 = CIRCLE ( 'NONE', #58, 0.5000000000000004441 ) ;
#254 = DIRECTION ( 'NONE',  ( 1.000000000000000000, 0.000000000000000000, 0.000000000000000000 ) ) ;
#255 = FACE_OUTER_BOUND ( 'NONE', #287, .T. ) ;
#256 = DIRECTION ( 'NONE',  ( -1.000000000000000000, 0.000000000000000000, 0.000000000000000000 ) ) ;
#257 = CIRCLE ( 'NONE', #93, 6.500000000000000888 ) ;
#258 = EDGE_CURVE ( 'NONE', #338, #273, #13, .T. ) ;
#259 = VERTEX_POINT ( 'NONE', #100 ) ;
#260 = TOROIDAL_SURFACE ( 'NONE', #326, 6.500000000000000888, 0.5000000000000000000 ) ;
#261 = PLANE ( 'NONE',  #343 ) ;
#262 = EDGE_CURVE ( 'NONE', #370, #335, #127, .T. ) ;
#263 = PERSON_AND_ORGANIZATION ( #80, #125 ) ;
#264 = PLANE ( 'NONE',  #309 ) ;
#265 = ORIENTED_EDGE ( 'NONE', *, *, #271, .T. ) ;
#266 = APPROVAL_PERSON_ORGANIZATION ( #241, #144, #65 ) ;
#267 = FACE_OUTER_BOUND ( 'NONE', #19, .T. ) ;
#268 = DATE_AND_TIME ( #209, #4 ) ;
#269 = DIRECTION ( 'NONE',  ( -0.000000000000000000, -0.000000000000000000, -1.000000000000000000 ) ) ;
#270 = DIRECTION ( 'NONE',  ( -0.000000000000000000, -0.000000000000000000, -1.000000000000000000 ) ) ;
#271 = EDGE_CURVE ( 'NONE', #196, #259, #97, .T. ) ;
#272 = DIRECTION ( 'NONE',  ( -1.000000000000000000, 1.224646799147351482E-16, 0.000000000000000000 ) ) ;
#273 = VERTEX_POINT ( 'NONE', #45 ) ;
#274 = DIRECTION ( 'NONE',  ( 1.000000000000000000, 0.000000000000000000, 0.000000000000000000 ) ) ;
#275 = AXIS2_PLACEMENT_3D ( 'NONE', #215, #206, #324 ) ;
#276 = CARTESIAN_POINT ( 'NONE',  ( 6.500000000000000888, 0.000000000000000000, 7.000000000000002665 ) ) ;
#277 = ORIENTED_EDGE ( 'NONE', *, *, #115, .F. ) ;
#278 = FACE_OUTER_BOUND ( 'NONE', #133, .T. ) ;
#279 = ORIENTED_EDGE ( 'NONE', *, *, #336, .T. ) ;
#280 = DIRECTION ( 'NONE',  ( 1.000000000000000000, 0.000000000000000000, 0.000000000000000000 ) ) ;
#281 = CC_DESIGN_APPROVAL ( #120, ( #301 ) ) ;
#282 = DIRECTION ( 'NONE',  ( -1.000000000000000000, 0.000000000000000000, 0.000000000000000000 ) ) ;
#283 = CC_DESIGN_PERSON_AND_ORGANIZATION_ASSIGNMENT ( #263, #295, ( #156 ) ) ;
#284 = FACE_OUTER_BOUND ( 'NONE', #137, .T. ) ;
#285 = EDGE_CURVE ( 'NONE', #370, #177, #217, .T. ) ;
#286 = AXIS2_PLACEMENT_3D ( 'NONE', #136, #142, #197 ) ;
#287 = EDGE_LOOP ( 'NONE', ( #279, #126 ) ) ;
#288 = DATE_AND_TIME ( #7, #237 ) ;
#289 = ORIENTED_EDGE ( 'NONE', *, *, #72, .T. ) ;
#290 = FACE_OUTER_BOUND ( 'NONE', #230, .T. ) ;
#291 = ORIENTED_EDGE ( 'NONE', *, *, #303, .T. ) ;
#292 = AXIS2_PLACEMENT_3D ( 'NONE', #367, #70, #76 ) ;
#293 = DIRECTION ( 'NONE',  ( -0.000000000000000000, -0.000000000000000000, -1.000000000000000000 ) ) ;
#294 = CC_DESIGN_DATE_AND_TIME_ASSIGNMENT ( #288, #60, ( #24 ) ) ;
#295 = PERSON_AND_ORGANIZATION_ROLE ( 'creator' ) ;
#296 = DIRECTION ( 'NONE',  ( -0.000000000000000000, -0.000000000000000000, -1.000000000000000000 ) ) ;
#297 = VECTOR ( 'NONE', #53, 1000.000000000000000 ) ;
#298 = ORIENTED_EDGE ( 'NONE', *, *, #285, .F. ) ;
#299 = EDGE_CURVE ( 'NONE', #27, #330, #118, .T. ) ;
#300 = ORIENTED_EDGE ( 'NONE', *, *, #2, .T. ) ;
#301 = PRODUCT_DEFINITION_FORMATION_WITH_SPECIFIED_SOURCE ( 'LIBOVOLNÝ', '', #134, .NOT_KNOWN. ) ;
#302 = CARTESIAN_POINT ( 'NONE',  ( 0.000000000000000000, 0.000000000000000000, 7.500000000000007105 ) ) ;
#303 = EDGE_CURVE ( 'NONE', #226, #234, #107, .T. ) ;
#304 = CARTESIAN_POINT ( 'NONE',  ( 0.000000000000000000, 0.000000000000000000, 232.0000000000000000 ) ) ;
#305 = VERTEX_POINT ( 'NONE', #276 ) ;
#306 = AXIS2_PLACEMENT_3D ( 'NONE', #220, #339, #272 ) ;
#307 = DIRECTION ( 'NONE',  ( 0.000000000000000000, 0.000000000000000000, 1.000000000000000000 ) ) ;
#308 = EDGE_LOOP ( 'NONE', ( #368, #20, #14, #291 ) ) ;
#309 = AXIS2_PLACEMENT_3D ( 'NONE', #34, #123, #235 ) ;
#310 = APPROVAL ( #359, 'NEURÈENÝ' ) ;
#311 =( LENGTH_UNIT ( ) NAMED_UNIT ( * ) SI_UNIT ( .MILLI., .METRE. ) );
#312 = CARTESIAN_POINT ( 'NONE',  ( 0.000000000000000000, 0.000000000000000000, 232.0000000000000000 ) ) ;
#313 = LOCAL_TIME ( 17, 1, 20.00000000000000000, #321 ) ;
#314 = DIRECTION ( 'NONE',  ( 0.000000000000000000, 0.000000000000000000, -1.000000000000000000 ) ) ;
#315 = DIRECTION ( 'NONE',  ( 0.000000000000000000, 0.000000000000000000, -1.000000000000000000 ) ) ;
#316 = CC_DESIGN_PERSON_AND_ORGANIZATION_ASSIGNMENT ( #116, #218, ( #301 ) ) ;
#317 = DIRECTION ( 'NONE',  ( 0.000000000000000000, 0.000000000000000000, 1.000000000000000000 ) ) ;
#318 = CYLINDRICAL_SURFACE ( 'NONE', #211, 2.750000000000000000 ) ;
#319 = DATE_AND_TIME ( #349, #89 ) ;
#320 = AXIS2_PLACEMENT_3D ( 'NONE', #132, #222, #79 ) ;
#321 = COORDINATED_UNIVERSAL_TIME_OFFSET ( 1, 0, .AHEAD. ) ;
#322 = PERSON_AND_ORGANIZATION ( #80, #125 ) ;
#323 = ADVANCED_FACE ( 'NONE', ( #364, #101 ), #337, .F. ) ;
#324 = DIRECTION ( 'NONE',  ( 1.000000000000000000, 0.000000000000000000, 0.000000000000000000 ) ) ;
#325 = PERSON_AND_ORGANIZATION_ROLE ( 'classification_officer' ) ;
#326 = AXIS2_PLACEMENT_3D ( 'NONE', #333, #225, #369 ) ;
#327 = CARTESIAN_POINT ( 'NONE',  ( 10.00000000000000000, 1.224646799147353256E-15, 7.000000000000000000 ) ) ;
#328 = CC_DESIGN_SECURITY_CLASSIFICATION ( #24, ( #301 ) ) ;
#329 = DIRECTION ( 'NONE',  ( 0.000000000000000000, -1.000000000000000000, 0.000000000000000000 ) ) ;
#330 = VERTEX_POINT ( 'NONE', #112 ) ;
#331 = CIRCLE ( 'NONE', #44, 10.00000000000000000 ) ;
#332 = CARTESIAN_POINT ( 'NONE',  ( 0.000000000000000000, 0.000000000000000000, 232.0000000000000000 ) ) ;
#333 = CARTESIAN_POINT ( 'NONE',  ( 0.000000000000000000, 0.000000000000000000, 7.500000000000007105 ) ) ;
#334 = AXIS2_PLACEMENT_3D ( 'NONE', #119, #210, #117 ) ;
#335 = VERTEX_POINT ( 'NONE', #106 ) ;
#336 = EDGE_CURVE ( 'NONE', #71, #338, #146, .T. ) ;
#337 = PLANE ( 'NONE',  #320 ) ;
#338 = VERTEX_POINT ( 'NONE', #199 ) ;
#339 = DIRECTION ( 'NONE',  ( 1.224646799147353207E-16, 1.000000000000000000, -0.000000000000000000 ) ) ;
#340 = DIRECTION ( 'NONE',  ( 1.000000000000000000, 0.000000000000000000, 0.000000000000000000 ) ) ;
#341 = APPLICATION_PROTOCOL_DEFINITION ( 'international standard', 'config_control_design', 1994, #378 ) ;
#342 = CARTESIAN_POINT ( 'NONE',  ( -2.750000000000000000, 0.000000000000000000, 232.0000000000000000 ) ) ;
#343 = AXIS2_PLACEMENT_3D ( 'NONE', #233, #141, #375 ) ;
#344 = ORIENTED_EDGE ( 'NONE', *, *, #262, .T. ) ;
#345 = ORIENTED_EDGE ( 'NONE', *, *, #2, .F. ) ;
#346 = AXIS2_PLACEMENT_3D ( 'NONE', #38, #240, #357 ) ;
#347 = EDGE_CURVE ( 'NONE', #177, #370, #360, .T. ) ;
#348 = DIRECTION ( 'NONE',  ( -0.000000000000000000, -0.000000000000000000, -1.000000000000000000 ) ) ;
#349 = CALENDAR_DATE ( 2022, 8, 7 ) ;
#350 = CARTESIAN_POINT ( 'NONE',  ( 0.000000000000000000, 0.000000000000000000, 232.0000000000000000 ) ) ;
#351 = DATE_AND_TIME ( #33, #52 ) ;
#352 = CIRCLE ( 'NONE', #129, 2.750000000000000000 ) ;
#353 = CARTESIAN_POINT ( 'NONE',  ( 10.00000000000000000, 1.224646799147353256E-15, 0.000000000000000000 ) ) ;
#354 = ORIENTED_EDGE ( 'NONE', *, *, #355, .F. ) ;
#355 = EDGE_CURVE ( 'NONE', #234, #226, #238, .T. ) ;
#356 = APPROVAL_STATUS ( 'not_yet_approved' ) ;
#357 = DIRECTION ( 'NONE',  ( 1.000000000000000000, 0.000000000000000000, 0.000000000000000000 ) ) ;
#358 = AXIS2_PLACEMENT_3D ( 'NONE', #380, #51, #282 ) ;
#359 = APPROVAL_STATUS ( 'not_yet_approved' ) ;
#360 = CIRCLE ( 'NONE', #231, 10.00000000000000000 ) ;
#361 = CARTESIAN_POINT ( 'NONE',  ( -6.000000000000000888, 0.000000000000000000, 232.0000000000000000 ) ) ;
#362 = CARTESIAN_POINT ( 'NONE',  ( 6.000000000000000888, 7.347880794884120722E-16, 232.0000000000000000 ) ) ;
#363 = TOROIDAL_SURFACE ( 'NONE', #105, 6.500000000000000888, 0.5000000000000000000 ) ;
#364 = FACE_BOUND ( 'NONE', #193, .T. ) ;
#365 = ORIENTED_EDGE ( 'NONE', *, *, #208, .F. ) ;
#366 = CC_DESIGN_PERSON_AND_ORGANIZATION_ASSIGNMENT ( #57, #183, ( #301 ) ) ;
#367 = CARTESIAN_POINT ( 'NONE',  ( 0.000000000000000000, 0.000000000000000000, 0.000000000000000000 ) ) ;
#368 = ORIENTED_EDGE ( 'NONE', *, *, #17, .F. ) ;
#369 = DIRECTION ( 'NONE',  ( 1.000000000000000000, 0.000000000000000000, 0.000000000000000000 ) ) ;
#370 = VERTEX_POINT ( 'NONE', #203 ) ;
#371 = ORIENTED_EDGE ( 'NONE', *, *, #245, .F. ) ;
#372 = ADVANCED_FACE ( 'NONE', ( #278 ), #22, .T. ) ;
#373 = MECHANICAL_CONTEXT ( 'NONE', #378, 'mechanical' ) ;
#374 = CARTESIAN_POINT ( 'NONE',  ( 0.000000000000000000, 0.000000000000000000, 7.500000000000007105 ) ) ;
#375 = DIRECTION ( 'NONE',  ( 1.000000000000000000, 0.000000000000000000, -0.000000000000000000 ) ) ;
#376 = DESIGN_CONTEXT ( 'detailed design', #37, 'design' ) ;
#377 = CARTESIAN_POINT ( 'NONE',  ( 10.00000000000000000, 1.224646799147353256E-15, 7.000000000000000000 ) ) ;
#378 = APPLICATION_CONTEXT ( 'configuration controlled 3d designs of mechanical parts and assemblies' ) ;
#379 = VECTOR ( 'NONE', #251, 1000.000000000000000 ) ;
#380 = CARTESIAN_POINT ( 'NONE',  ( 0.000000000000000000, 0.000000000000000000, 232.0000000000000000 ) ) ;
#381 = FACE_OUTER_BOUND ( 'NONE', #191, .T. ) ;
ENDSEC;
END-ISO-10303-21;
