ISO-10303-21;
HEADER;
FILE_DESCRIPTION (( 'STEP AP203' ),
    '1' );
FILE_NAME ('4652.STEP',
    '2022-07-08T14:41:41',
    ( '' ),
    ( '' ),
    'SwSTEP 2.0',
    'SolidWorks 2019',
    '' );
FILE_SCHEMA (( 'CONFIG_CONTROL_DESIGN' ));
ENDSEC;

DATA;
#1 = CIRCLE ( 'NONE', #219, 10.00000000000000000 ) ;
#2 = CC_DESIGN_APPROVAL ( #350, ( #184 ) ) ;
#3 = CARTESIAN_POINT ( 'NONE',  ( -6.500000000000000888, 7.960204194457796463E-16, 7.500000000000007105 ) ) ;
#4 = AXIS2_PLACEMENT_3D ( 'NONE', #256, #191, #230 ) ;
#5 = CARTESIAN_POINT ( 'NONE',  ( -3.250000000000000444, 0.000000000000000000, 357.0000000000000000 ) ) ;
#6 = EDGE_LOOP ( 'NONE', ( #161, #103, #11, #125 ) ) ;
#7 = CIRCLE ( 'NONE', #187, 6.000000000000000888 ) ;
#8 = DIRECTION ( 'NONE',  ( 1.000000000000000000, 0.000000000000000000, 0.000000000000000000 ) ) ;
#9 = ADVANCED_FACE ( 'NONE', ( #202 ), #112, .T. ) ;
#10 = DIRECTION ( 'NONE',  ( 1.000000000000000000, 0.000000000000000000, 0.000000000000000000 ) ) ;
#11 = ORIENTED_EDGE ( 'NONE', *, *, #49, .T. ) ;
#12 = CARTESIAN_POINT ( 'NONE',  ( 0.000000000000000000, 0.000000000000000000, 7.000000000000000000 ) ) ;
#13 = ORIENTED_EDGE ( 'NONE', *, *, #83, .T. ) ;
#14 = CARTESIAN_POINT ( 'NONE',  ( -10.00000000000000000, 0.000000000000000000, 7.000000000000000000 ) ) ;
#15 = DIRECTION ( 'NONE',  ( 1.000000000000000000, 0.000000000000000000, 0.000000000000000000 ) ) ;
#16 = AXIS2_PLACEMENT_3D ( 'NONE', #277, #329, #298 ) ;
#17 = ADVANCED_FACE ( 'NONE', ( #371 ), #115, .T. ) ;
#18 = CARTESIAN_POINT ( 'NONE',  ( 0.000000000000000000, 0.000000000000000000, 357.0000000000000000 ) ) ;
#19 = DIRECTION ( 'NONE',  ( -0.000000000000000000, -0.000000000000000000, -1.000000000000000000 ) ) ;
#20 = DIRECTION ( 'NONE',  ( -0.000000000000000000, -0.000000000000000000, -1.000000000000000000 ) ) ;
#21 = ADVANCED_FACE ( 'NONE', ( #312 ), #212, .T. ) ;
#22 = VERTEX_POINT ( 'NONE', #211 ) ;
#23 = CLOSED_SHELL ( 'NONE', ( #344, #328, #17, #21, #9, #131, #218, #171, #205, #183, #117 ) ) ;
#24 = DIRECTION ( 'NONE',  ( -0.000000000000000000, -0.000000000000000000, -1.000000000000000000 ) ) ;
#25 = EDGE_CURVE ( 'NONE', #263, #339, #231, .T. ) ;
#26 = ORIENTED_EDGE ( 'NONE', *, *, #28, .F. ) ;
#27 = PERSON_AND_ORGANIZATION ( #143, #367 ) ;
#28 = EDGE_CURVE ( 'NONE', #223, #227, #1, .T. ) ;
#29 = ORIENTED_EDGE ( 'NONE', *, *, #81, .F. ) ;
#30 = COORDINATED_UNIVERSAL_TIME_OFFSET ( 1, 0, .AHEAD. ) ;
#31 = EDGE_LOOP ( 'NONE', ( #64, #75 ) ) ;
#32 = DESIGN_CONTEXT ( 'detailed design', #284, 'design' ) ;
#33 = DIRECTION ( 'NONE',  ( 0.000000000000000000, 0.000000000000000000, 1.000000000000000000 ) ) ;
#34 = DIRECTION ( 'NONE',  ( 1.000000000000000000, 0.000000000000000000, 0.000000000000000000 ) ) ;
#35 = CARTESIAN_POINT ( 'NONE',  ( 10.00000000000000000, 1.224646799147353256E-15, 7.000000000000000000 ) ) ;
#36 = EDGE_LOOP ( 'NONE', ( #287, #70 ) ) ;
#37 = EDGE_CURVE ( 'NONE', #227, #366, #121, .T. ) ;
#38 = FACE_OUTER_BOUND ( 'NONE', #138, .T. ) ;
#39 = DIRECTION ( 'NONE',  ( 0.000000000000000000, 0.000000000000000000, 1.000000000000000000 ) ) ;
#40 = VERTEX_POINT ( 'NONE', #148 ) ;
#41 = LINE ( 'NONE', #164, #244 ) ;
#42 = ORIENTED_EDGE ( 'NONE', *, *, #37, .T. ) ;
#43 = CARTESIAN_POINT ( 'NONE',  ( 0.000000000000000000, 0.000000000000000000, 0.000000000000000000 ) ) ;
#44 = CARTESIAN_POINT ( 'NONE',  ( 3.250000000000000444, 3.980102097228898231E-16, 0.000000000000000000 ) ) ;
#45 = CARTESIAN_POINT ( 'NONE',  ( 0.000000000000000000, 0.000000000000000000, 7.000000000000000000 ) ) ;
#46 = APPROVAL_ROLE ( '' ) ;
#47 = CC_DESIGN_SECURITY_CLASSIFICATION ( #184, ( #378 ) ) ;
#48 = VECTOR ( 'NONE', #24, 1000.000000000000000 ) ;
#49 = EDGE_CURVE ( 'NONE', #136, #263, #331, .T. ) ;
#50 = CC_DESIGN_DATE_AND_TIME_ASSIGNMENT ( #301, #229, ( #184 ) ) ;
#51 =( NAMED_UNIT ( * ) SI_UNIT ( $, .STERADIAN. ) SOLID_ANGLE_UNIT ( ) );
#52 = ORIENTED_EDGE ( 'NONE', *, *, #127, .T. ) ;
#53 = AXIS2_PLACEMENT_3D ( 'NONE', #228, #98, #216 ) ;
#54 = APPROVAL_ROLE ( '' ) ;
#55 = EDGE_CURVE ( 'NONE', #366, #40, #237, .T. ) ;
#56 = APPROVAL_DATE_TIME ( #88, #139 ) ;
#57 = CALENDAR_DATE ( 2022, 8, 7 ) ;
#58 = VECTOR ( 'NONE', #247, 1000.000000000000000 ) ;
#59 = APPROVAL ( #239, 'NEURÈENÝ' ) ;
#60 = CIRCLE ( 'NONE', #168, 3.250000000000000444 ) ;
#61 = DIRECTION ( 'NONE',  ( -0.000000000000000000, -0.000000000000000000, -1.000000000000000000 ) ) ;
#62 = AXIS2_PLACEMENT_3D ( 'NONE', #3, #293, #296 ) ;
#63 = CYLINDRICAL_SURFACE ( 'NONE', #283, 3.250000000000000444 ) ;
#64 = ORIENTED_EDGE ( 'NONE', *, *, #83, .F. ) ;
#65 = EDGE_CURVE ( 'NONE', #357, #22, #116, .T. ) ;
#66 = DIRECTION ( 'NONE',  ( 0.000000000000000000, 0.000000000000000000, 1.000000000000000000 ) ) ;
#67 = DIRECTION ( 'NONE',  ( 1.000000000000000000, 0.000000000000000000, -0.000000000000000000 ) ) ;
#68 = ORIENTED_EDGE ( 'NONE', *, *, #25, .F. ) ;
#69 = DIRECTION ( 'NONE',  ( 1.000000000000000000, 0.000000000000000000, 0.000000000000000000 ) ) ;
#70 = ORIENTED_EDGE ( 'NONE', *, *, #194, .T. ) ;
#71 = CARTESIAN_POINT ( 'NONE',  ( 0.000000000000000000, 0.000000000000000000, 7.000000000000000000 ) ) ;
#72 = MANIFOLD_SOLID_BREP ( 'Odebrat vysunutím3', #23 ) ;
#73 = APPROVAL_DATE_TIME ( #113, #350 ) ;
#74 = DIRECTION ( 'NONE',  ( -1.000000000000000000, 0.000000000000000000, 0.000000000000000000 ) ) ;
#75 = ORIENTED_EDGE ( 'NONE', *, *, #379, .F. ) ;
#76 = DIRECTION ( 'NONE',  ( -0.000000000000000000, -0.000000000000000000, -1.000000000000000000 ) ) ;
#77 = ORIENTED_EDGE ( 'NONE', *, *, #127, .F. ) ;
#78 = UNCERTAINTY_MEASURE_WITH_UNIT (LENGTH_MEASURE( 1.000000000000000082E-05 ), #336, 'distance_accuracy_value', 'NONE');
#79 = ORIENTED_EDGE ( 'NONE', *, *, #95, .F. ) ;
#80 = CC_DESIGN_APPROVAL ( #59, ( #378 ) ) ;
#81 = EDGE_CURVE ( 'NONE', #180, #193, #41, .T. ) ;
#82 = APPROVAL_STATUS ( 'not_yet_approved' ) ;
#83 = EDGE_CURVE ( 'NONE', #217, #180, #60, .T. ) ;
#84 = ORIENTED_EDGE ( 'NONE', *, *, #203, .T. ) ;
#85 = CIRCLE ( 'NONE', #269, 3.250000000000000444 ) ;
#86 = PERSON_AND_ORGANIZATION_ROLE ( 'creator' ) ;
#87 = EDGE_LOOP ( 'NONE', ( #327, #196 ) ) ;
#88 = DATE_AND_TIME ( #179, #303 ) ;
#89 = APPROVAL_DATE_TIME ( #345, #59 ) ;
#90 = CIRCLE ( 'NONE', #372, 6.500000000000000888 ) ;
#91 = DIRECTION ( 'NONE',  ( -0.000000000000000000, -0.000000000000000000, -1.000000000000000000 ) ) ;
#92 = DIRECTION ( 'NONE',  ( 1.000000000000000000, 0.000000000000000000, 0.000000000000000000 ) ) ;
#93 = DIRECTION ( 'NONE',  ( -0.000000000000000000, -0.000000000000000000, -1.000000000000000000 ) ) ;
#94 = PRODUCT_DEFINITION ( 'NEZNÁMÝ', '', #378, #32 ) ;
#95 = EDGE_CURVE ( 'NONE', #339, #357, #224, .T. ) ;
#96 = DIRECTION ( 'NONE',  ( 0.000000000000000000, 0.000000000000000000, -1.000000000000000000 ) ) ;
#97 = CARTESIAN_POINT ( 'NONE',  ( -10.00000000000000000, 0.000000000000000000, 7.000000000000000000 ) ) ;
#98 = DIRECTION ( 'NONE',  ( 0.000000000000000000, 0.000000000000000000, 1.000000000000000000 ) ) ;
#99 = ORIENTED_EDGE ( 'NONE', *, *, #65, .T. ) ;
#100 = CARTESIAN_POINT ( 'NONE',  ( 0.000000000000000000, 0.000000000000000000, 357.0000000000000000 ) ) ;
#101 = ORIENTED_EDGE ( 'NONE', *, *, #332, .F. ) ;
#102 = FACE_OUTER_BOUND ( 'NONE', #251, .T. ) ;
#103 = ORIENTED_EDGE ( 'NONE', *, *, #241, .F. ) ;
#104 = CARTESIAN_POINT ( 'NONE',  ( -6.000000000000000888, 0.000000000000000000, 357.0000000000000000 ) ) ;
#105 = CIRCLE ( 'NONE', #170, 6.000000000000000888 ) ;
#106 = EDGE_LOOP ( 'NONE', ( #99, #178 ) ) ;
#107 = CARTESIAN_POINT ( 'NONE',  ( 6.500000000000000888, 0.000000000000000000, 7.000000000000002665 ) ) ;
#108 = VECTOR ( 'NONE', #93, 1000.000000000000000 ) ;
#109 = CARTESIAN_POINT ( 'NONE',  ( 0.000000000000000000, 0.000000000000000000, 0.000000000000000000 ) ) ;
#110 = PERSON_AND_ORGANIZATION ( #143, #367 ) ;
#111 = DIRECTION ( 'NONE',  ( 0.000000000000000000, 0.000000000000000000, 1.000000000000000000 ) ) ;
#112 = CYLINDRICAL_SURFACE ( 'NONE', #255, 10.00000000000000000 ) ;
#113 = DATE_AND_TIME ( #233, #214 ) ;
#115 = CYLINDRICAL_SURFACE ( 'NONE', #173, 6.000000000000000888 ) ;
#114 = CIRCLE ( 'NONE', #174, 6.000000000000000888 ) ;
#116 = CIRCLE ( 'NONE', #333, 6.500000000000000888 ) ;
#117 = ADVANCED_FACE ( 'NONE', ( #38 ), #352, .F. ) ;
#118 = AXIS2_PLACEMENT_3D ( 'NONE', #137, #156, #250 ) ;
#119 = DIRECTION ( 'NONE',  ( 1.000000000000000000, 0.000000000000000000, 0.000000000000000000 ) ) ;
#120 = PERSON_AND_ORGANIZATION ( #143, #367 ) ;
#121 = LINE ( 'NONE', #289, #48 ) ;
#122 = ORIENTED_EDGE ( 'NONE', *, *, #81, .T. ) ;
#123 = CIRCLE ( 'NONE', #172, 3.250000000000000444 ) ;
#124 = SECURITY_CLASSIFICATION_LEVEL ( 'unclassified' ) ;
#125 = ORIENTED_EDGE ( 'NONE', *, *, #25, .T. ) ;
#126 = DIRECTION ( 'NONE',  ( 0.000000000000000000, 0.000000000000000000, 1.000000000000000000 ) ) ;
#127 = EDGE_CURVE ( 'NONE', #223, #40, #274, .T. ) ;
#128 = AXIS2_PLACEMENT_3D ( 'NONE', #45, #199, #323 ) ;
#129 = CARTESIAN_POINT ( 'NONE',  ( 0.000000000000000000, 0.000000000000000000, 7.000000000000000000 ) ) ;
#130 = CIRCLE ( 'NONE', #316, 10.00000000000000000 ) ;
#131 = ADVANCED_FACE ( 'NONE', ( #215, #201 ), #220, .T. ) ;
#132 = CARTESIAN_POINT ( 'NONE',  ( 0.000000000000000000, 0.000000000000000000, 0.000000000000000000 ) ) ;
#133 = CARTESIAN_POINT ( 'NONE',  ( 6.000000000000000888, 7.347880794884120722E-16, 357.0000000000000000 ) ) ;
#134 = APPROVAL_PERSON_ORGANIZATION ( #207, #139, #54 ) ;
#135 = CARTESIAN_POINT ( 'NONE',  ( 0.000000000000000000, 0.000000000000000000, 357.0000000000000000 ) ) ;
#136 = VERTEX_POINT ( 'NONE', #295 ) ;
#137 = CARTESIAN_POINT ( 'NONE',  ( 0.000000000000000000, 0.000000000000000000, 7.500000000000007105 ) ) ;
#138 = EDGE_LOOP ( 'NONE', ( #29, #257, #337, #165 ) ) ;
#139 = APPROVAL ( #82, 'NEURÈENÝ' ) ;
#140 = DIRECTION ( 'NONE',  ( 0.000000000000000000, 0.000000000000000000, 1.000000000000000000 ) ) ;
#141 = EDGE_LOOP ( 'NONE', ( #101, #342, #278, #363 ) ) ;
#142 = DIRECTION ( 'NONE',  ( 0.000000000000000000, 0.000000000000000000, 1.000000000000000000 ) ) ;
#143 = PERSON ( 'NEURÈENÝ', 'NEURÈENÝ', 'NEURÈENÝ', ('NEURÈENÝ'), ('NEURÈENÝ'), ('NEURÈENÝ') ) ;
#144 = DIRECTION ( 'NONE',  ( 1.000000000000000000, 0.000000000000000000, 0.000000000000000000 ) ) ;
#145 = FACE_BOUND ( 'NONE', #31, .T. ) ;
#146 = CC_DESIGN_PERSON_AND_ORGANIZATION_ASSIGNMENT ( #153, #243, ( #94 ) ) ;
#147 = CALENDAR_DATE ( 2022, 8, 7 ) ;
#148 = CARTESIAN_POINT ( 'NONE',  ( -10.00000000000000000, 0.000000000000000000, 0.000000000000000000 ) ) ;
#149 = EDGE_LOOP ( 'NONE', ( #322, #182 ) ) ;
#150 = CC_DESIGN_DATE_AND_TIME_ASSIGNMENT ( #375, #264, ( #94 ) ) ;
#151 = VERTEX_POINT ( 'NONE', #362 ) ;
#152 = CC_DESIGN_APPROVAL ( #139, ( #94 ) ) ;
#153 = PERSON_AND_ORGANIZATION ( #143, #367 ) ;
#154 = DIRECTION ( 'NONE',  ( -1.000000000000000000, 0.000000000000000000, 0.000000000000000000 ) ) ;
#155 = CC_DESIGN_PERSON_AND_ORGANIZATION_ASSIGNMENT ( #377, #236, ( #378 ) ) ;
#156 = DIRECTION ( 'NONE',  ( 0.000000000000000000, 0.000000000000000000, 1.000000000000000000 ) ) ;
#157 = DIRECTION ( 'NONE',  ( 1.000000000000000000, 0.000000000000000000, 0.000000000000000000 ) ) ;
#158 = ORIENTED_EDGE ( 'NONE', *, *, #332, .T. ) ;
#159 = AXIS2_PLACEMENT_3D ( 'NONE', #18, #252, #74 ) ;
#160 = CARTESIAN_POINT ( 'NONE',  ( 0.000000000000000000, 0.000000000000000000, 7.500000000000007105 ) ) ;
#161 = ORIENTED_EDGE ( 'NONE', *, *, #262, .F. ) ;
#162 = DIRECTION ( 'NONE',  ( 1.000000000000000000, 0.000000000000000000, 0.000000000000000000 ) ) ;
#163 = COORDINATED_UNIVERSAL_TIME_OFFSET ( 1, 0, .AHEAD. ) ;
#164 = CARTESIAN_POINT ( 'NONE',  ( 3.250000000000000444, 3.980102097228898231E-16, 357.0000000000000000 ) ) ;
#165 = ORIENTED_EDGE ( 'NONE', *, *, #360, .T. ) ;
#166 = DIRECTION ( 'NONE',  ( 0.000000000000000000, 0.000000000000000000, 1.000000000000000000 ) ) ;
#167 = DIRECTION ( 'NONE',  ( 1.000000000000000000, 0.000000000000000000, 0.000000000000000000 ) ) ;
#168 = AXIS2_PLACEMENT_3D ( 'NONE', #195, #140, #369 ) ;
#169 = CARTESIAN_POINT ( 'NONE',  ( 0.000000000000000000, 0.000000000000000000, 7.500000000000007105 ) ) ;
#170 = AXIS2_PLACEMENT_3D ( 'NONE', #160, #66, #144 ) ;
#171 = ADVANCED_FACE ( 'NONE', ( #226 ), #282, .T. ) ;
#172 = AXIS2_PLACEMENT_3D ( 'NONE', #43, #213, #162 ) ;
#173 = AXIS2_PLACEMENT_3D ( 'NONE', #234, #20, #185 ) ;
#175 = CARTESIAN_POINT ( 'NONE',  ( 0.000000000000000000, 0.000000000000000000, 7.000000000000000000 ) ) ;
#174 = AXIS2_PLACEMENT_3D ( 'NONE', #100, #280, #15 ) ;
#176 = APPLICATION_PROTOCOL_DEFINITION ( 'international standard', 'config_control_design', 1994, #355 ) ;
#177 = LOCAL_TIME ( 16, 41, 41.00000000000000000, #288 ) ;
#178 = ORIENTED_EDGE ( 'NONE', *, *, #368, .T. ) ;
#179 = CALENDAR_DATE ( 2022, 8, 7 ) ;
#180 = VERTEX_POINT ( 'NONE', #302 ) ;
#181 = APPROVAL_ROLE ( '' ) ;
#182 = ORIENTED_EDGE ( 'NONE', *, *, #238, .F. ) ;
#183 = ADVANCED_FACE ( 'NONE', ( #232 ), #325, .F. ) ;
#184 = SECURITY_CLASSIFICATION ( '', '', #124 ) ;
#185 = DIRECTION ( 'NONE',  ( -1.000000000000000000, 0.000000000000000000, 0.000000000000000000 ) ) ;
#186 = DIRECTION ( 'NONE',  ( 0.000000000000000000, 0.000000000000000000, 1.000000000000000000 ) ) ;
#187 = AXIS2_PLACEMENT_3D ( 'NONE', #349, #142, #10 ) ;
#188 = PRODUCT_DEFINITION_SHAPE ( 'NONE', 'NONE',  #94 ) ;
#189 = PLANE ( 'NONE',  #53 ) ;
#190 = EDGE_LOOP ( 'NONE', ( #206, #200, #84, #221 ) ) ;
#191 = DIRECTION ( 'NONE',  ( 0.000000000000000000, 0.000000000000000000, -1.000000000000000000 ) ) ;
#192 = DIRECTION ( 'NONE',  ( -1.000000000000000000, 0.000000000000000000, 0.000000000000000000 ) ) ;
#193 = VERTEX_POINT ( 'NONE', #44 ) ;
#194 = EDGE_CURVE ( 'NONE', #273, #136, #114, .T. ) ;
#195 = CARTESIAN_POINT ( 'NONE',  ( 0.000000000000000000, 0.000000000000000000, 357.0000000000000000 ) ) ;
#196 = ORIENTED_EDGE ( 'NONE', *, *, #55, .F. ) ;
#197 = DIRECTION ( 'NONE',  ( -0.000000000000000000, -0.000000000000000000, -1.000000000000000000 ) ) ;
#198 = APPROVAL_PERSON_ORGANIZATION ( #110, #350, #46 ) ;
#199 = DIRECTION ( 'NONE',  ( 0.000000000000000000, 0.000000000000000000, 1.000000000000000000 ) ) ;
#200 = ORIENTED_EDGE ( 'NONE', *, *, #262, .T. ) ;
#201 = FACE_OUTER_BOUND ( 'NONE', #359, .T. ) ;
#202 = FACE_OUTER_BOUND ( 'NONE', #309, .T. ) ;
#203 = EDGE_CURVE ( 'NONE', #339, #263, #105, .T. ) ;
#204 = APPROVAL_STATUS ( 'not_yet_approved' ) ;
#205 = ADVANCED_FACE ( 'NONE', ( #145, #356 ), #259, .T. ) ;
#206 = ORIENTED_EDGE ( 'NONE', *, *, #194, .F. ) ;
#207 = PERSON_AND_ORGANIZATION ( #143, #367 ) ;
#208 = CC_DESIGN_PERSON_AND_ORGANIZATION_ASSIGNMENT ( #338, #290, ( #292 ) ) ;
#209 = EDGE_CURVE ( 'NONE', #40, #366, #246, .T. ) ;
#210 = PERSON_AND_ORGANIZATION_ROLE ( 'classification_officer' ) ;
#211 = CARTESIAN_POINT ( 'NONE',  ( -6.500000000000000888, 7.960204194457796463E-16, 7.000000000000002665 ) ) ;
#212 = CYLINDRICAL_SURFACE ( 'NONE', #321, 10.00000000000000000 ) ;
#213 = DIRECTION ( 'NONE',  ( -0.000000000000000000, -0.000000000000000000, -1.000000000000000000 ) ) ;
#214 = LOCAL_TIME ( 16, 41, 41.00000000000000000, #163 ) ;
#215 = FACE_BOUND ( 'NONE', #106, .T. ) ;
#216 = DIRECTION ( 'NONE',  ( 1.000000000000000000, 0.000000000000000000, -0.000000000000000000 ) ) ;
#217 = VERTEX_POINT ( 'NONE', #5 ) ;
#218 = ADVANCED_FACE ( 'NONE', ( #358, #275 ), #189, .F. ) ;
#219 = AXIS2_PLACEMENT_3D ( 'NONE', #129, #348, #92 ) ;
#220 = PLANE ( 'NONE',  #128 ) ;
#221 = ORIENTED_EDGE ( 'NONE', *, *, #49, .F. ) ;
#222 = CARTESIAN_POINT ( 'NONE',  ( 6.000000000000000888, 7.347880794884120722E-16, 357.0000000000000000 ) ) ;
#223 = VERTEX_POINT ( 'NONE', #14 ) ;
#224 = CIRCLE ( 'NONE', #16, 0.5000000000000004441 ) ;
#225 = ADVANCED_BREP_SHAPE_REPRESENTATION ( '4652', ( #72, #291 ), #311 ) ;
#226 = FACE_OUTER_BOUND ( 'NONE', #6, .T. ) ;
#227 = VERTEX_POINT ( 'NONE', #35 ) ;
#228 = CARTESIAN_POINT ( 'NONE',  ( 0.000000000000000000, 0.000000000000000000, 0.000000000000000000 ) ) ;
#229 = DATE_TIME_ROLE ( 'classification_date' ) ;
#230 = DIRECTION ( 'NONE',  ( -1.000000000000000000, 0.000000000000000000, 0.000000000000000000 ) ) ;
#231 = CIRCLE ( 'NONE', #305, 6.000000000000000888 ) ;
#232 = FACE_OUTER_BOUND ( 'NONE', #141, .T. ) ;
#233 = CALENDAR_DATE ( 2022, 8, 7 ) ;
#234 = CARTESIAN_POINT ( 'NONE',  ( 0.000000000000000000, 0.000000000000000000, 357.0000000000000000 ) ) ;
#235 = CIRCLE ( 'NONE', #62, 0.5000000000000004441 ) ;
#236 = PERSON_AND_ORGANIZATION_ROLE ( 'design_supplier' ) ;
#237 = CIRCLE ( 'NONE', #313, 10.00000000000000000 ) ;
#238 = EDGE_CURVE ( 'NONE', #193, #151, #85, .T. ) ;
#239 = APPROVAL_STATUS ( 'not_yet_approved' ) ;
#240 = LOCAL_TIME ( 16, 41, 41.00000000000000000, #340 ) ;
#241 = EDGE_CURVE ( 'NONE', #136, #273, #7, .T. ) ;
#242 = PERSON_AND_ORGANIZATION ( #143, #367 ) ;
#243 = PERSON_AND_ORGANIZATION_ROLE ( 'creator' ) ;
#244 = VECTOR ( 'NONE', #365, 1000.000000000000000 ) ;
#245 = DIRECTION ( 'NONE',  ( 0.000000000000000000, 0.000000000000000000, 1.000000000000000000 ) ) ;
#246 = CIRCLE ( 'NONE', #276, 10.00000000000000000 ) ;
#247 = DIRECTION ( 'NONE',  ( 0.000000000000000000, 0.000000000000000000, -1.000000000000000000 ) ) ;
#248 = CC_DESIGN_PERSON_AND_ORGANIZATION_ASSIGNMENT ( #27, #86, ( #378 ) ) ;
#249 = DIRECTION ( 'NONE',  ( -0.000000000000000000, -0.000000000000000000, -1.000000000000000000 ) ) ;
#250 = DIRECTION ( 'NONE',  ( 1.000000000000000000, 0.000000000000000000, 0.000000000000000000 ) ) ;
#251 = EDGE_LOOP ( 'NONE', ( #13, #122, #324, #297 ) ) ;
#252 = DIRECTION ( 'NONE',  ( -0.000000000000000000, -0.000000000000000000, -1.000000000000000000 ) ) ;
#253 = CARTESIAN_POINT ( 'NONE',  ( 6.000000000000000888, 7.347880794884120722E-16, 7.500000000000007105 ) ) ;
#254 = ORIENTED_EDGE ( 'NONE', *, *, #65, .F. ) ;
#255 = AXIS2_PLACEMENT_3D ( 'NONE', #175, #19, #261 ) ;
#256 = CARTESIAN_POINT ( 'NONE',  ( 0.000000000000000000, 0.000000000000000000, 357.0000000000000000 ) ) ;
#257 = ORIENTED_EDGE ( 'NONE', *, *, #379, .T. ) ;
#258 = CARTESIAN_POINT ( 'NONE',  ( -6.000000000000000888, 0.000000000000000000, 7.500000000000007105 ) ) ;
#259 = PLANE ( 'NONE',  #334 ) ;
#260 = DIRECTION ( 'NONE',  ( -0.000000000000000000, -0.000000000000000000, -1.000000000000000000 ) ) ;
#261 = DIRECTION ( 'NONE',  ( -1.000000000000000000, 0.000000000000000000, 0.000000000000000000 ) ) ;
#262 = EDGE_CURVE ( 'NONE', #273, #339, #270, .T. ) ;
#263 = VERTEX_POINT ( 'NONE', #258 ) ;
#264 = DATE_TIME_ROLE ( 'creation_date' ) ;
#265 = CALENDAR_DATE ( 2022, 8, 7 ) ;
#266 = VECTOR ( 'NONE', #260, 1000.000000000000000 ) ;
#267 = CARTESIAN_POINT ( 'NONE',  ( 0.000000000000000000, 0.000000000000000000, 7.500000000000007105 ) ) ;
#268 = DIRECTION ( 'NONE',  ( 1.000000000000000000, 0.000000000000000000, 0.000000000000000000 ) ) ;
#269 = AXIS2_PLACEMENT_3D ( 'NONE', #315, #61, #34 ) ;
#270 = LINE ( 'NONE', #222, #108 ) ;
#271 = EDGE_CURVE ( 'NONE', #227, #223, #130, .T. ) ;
#272 = CARTESIAN_POINT ( 'NONE',  ( 0.000000000000000000, 0.000000000000000000, 357.0000000000000000 ) ) ;
#273 = VERTEX_POINT ( 'NONE', #133 ) ;
#274 = LINE ( 'NONE', #97, #285 ) ;
#275 = FACE_OUTER_BOUND ( 'NONE', #87, .T. ) ;
#276 = AXIS2_PLACEMENT_3D ( 'NONE', #132, #39, #294 ) ;
#277 = CARTESIAN_POINT ( 'NONE',  ( 6.500000000000000888, 0.000000000000000000, 7.500000000000007105 ) ) ;
#278 = ORIENTED_EDGE ( 'NONE', *, *, #95, .T. ) ;
#279 = DIRECTION ( 'NONE',  ( 1.000000000000000000, 0.000000000000000000, 0.000000000000000000 ) ) ;
#280 = DIRECTION ( 'NONE',  ( 0.000000000000000000, 0.000000000000000000, 1.000000000000000000 ) ) ;
#281 = AXIS2_PLACEMENT_3D ( 'NONE', #169, #319, #8 ) ;
#282 = CYLINDRICAL_SURFACE ( 'NONE', #159, 6.000000000000000888 ) ;
#283 = AXIS2_PLACEMENT_3D ( 'NONE', #272, #96, #192 ) ;
#284 = APPLICATION_CONTEXT ( 'configuration controlled 3d designs of mechanical parts and assemblies' ) ;
#285 = VECTOR ( 'NONE', #249, 1000.000000000000000 ) ;
#286 = AXIS2_PLACEMENT_3D ( 'NONE', #353, #186, #320 ) ;
#287 = ORIENTED_EDGE ( 'NONE', *, *, #241, .T. ) ;
#288 = COORDINATED_UNIVERSAL_TIME_OFFSET ( 1, 0, .AHEAD. ) ;
#289 = CARTESIAN_POINT ( 'NONE',  ( 10.00000000000000000, 1.224646799147353256E-15, 7.000000000000000000 ) ) ;
#290 = PERSON_AND_ORGANIZATION_ROLE ( 'design_owner' ) ;
#291 = AXIS2_PLACEMENT_3D ( 'NONE', #381, #126, #119 ) ;
#292 = PRODUCT ( '4652', '4652', '', ( #343 ) ) ;
#293 = DIRECTION ( 'NONE',  ( 1.224646799147353207E-16, 1.000000000000000000, -0.000000000000000000 ) ) ;
#294 = DIRECTION ( 'NONE',  ( 1.000000000000000000, 0.000000000000000000, 0.000000000000000000 ) ) ;
#295 = CARTESIAN_POINT ( 'NONE',  ( -6.000000000000000888, 0.000000000000000000, 357.0000000000000000 ) ) ;
#296 = DIRECTION ( 'NONE',  ( -1.000000000000000000, 1.224646799147351482E-16, 0.000000000000000000 ) ) ;
#297 = ORIENTED_EDGE ( 'NONE', *, *, #314, .F. ) ;
#298 = DIRECTION ( 'NONE',  ( 0.000000000000000000, 0.000000000000000000, -1.000000000000000000 ) ) ;
#299 = EDGE_LOOP ( 'NONE', ( #68, #158, #254, #79 ) ) ;
#300 = CARTESIAN_POINT ( 'NONE',  ( 0.000000000000000000, 0.000000000000000000, 7.000000000000000000 ) ) ;
#301 = DATE_AND_TIME ( #265, #341 ) ;
#302 = CARTESIAN_POINT ( 'NONE',  ( 3.250000000000000444, 3.980102097228898231E-16, 357.0000000000000000 ) ) ;
#303 = LOCAL_TIME ( 16, 41, 41.00000000000000000, #30 ) ;
#304 = SHAPE_DEFINITION_REPRESENTATION ( #188, #225 ) ;
#305 = AXIS2_PLACEMENT_3D ( 'NONE', #267, #33, #268 ) ;
#306 = APPLICATION_PROTOCOL_DEFINITION ( 'international standard', 'config_control_design', 1994, #284 ) ;
#307 =( NAMED_UNIT ( * ) PLANE_ANGLE_UNIT ( ) SI_UNIT ( $, .RADIAN. ) );
#308 = TOROIDAL_SURFACE ( 'NONE', #118, 6.500000000000000888, 0.5000000000000000000 ) ;
#309 = EDGE_LOOP ( 'NONE', ( #374, #26, #52, #354 ) ) ;
#310 = COORDINATED_UNIVERSAL_TIME_OFFSET ( 1, 0, .AHEAD. ) ;
#311 =( GEOMETRIC_REPRESENTATION_CONTEXT ( 3 ) GLOBAL_UNCERTAINTY_ASSIGNED_CONTEXT ( ( #78 ) ) GLOBAL_UNIT_ASSIGNED_CONTEXT ( ( #336, #307, #51 ) ) REPRESENTATION_CONTEXT ( 'NONE', 'WORKASPACE' ) );
#312 = FACE_OUTER_BOUND ( 'NONE', #370, .T. ) ;
#313 = AXIS2_PLACEMENT_3D ( 'NONE', #109, #111, #167 ) ;
#314 = EDGE_CURVE ( 'NONE', #217, #151, #351, .T. ) ;
#315 = CARTESIAN_POINT ( 'NONE',  ( 0.000000000000000000, 0.000000000000000000, 0.000000000000000000 ) ) ;
#316 = AXIS2_PLACEMENT_3D ( 'NONE', #300, #166, #279 ) ;
#317 = FACE_OUTER_BOUND ( 'NONE', #299, .T. ) ;
#318 = ORIENTED_EDGE ( 'NONE', *, *, #271, .T. ) ;
#319 = DIRECTION ( 'NONE',  ( 0.000000000000000000, 0.000000000000000000, 1.000000000000000000 ) ) ;
#320 = DIRECTION ( 'NONE',  ( 1.000000000000000000, 0.000000000000000000, 0.000000000000000000 ) ) ;
#321 = AXIS2_PLACEMENT_3D ( 'NONE', #347, #91, #154 ) ;
#322 = ORIENTED_EDGE ( 'NONE', *, *, #360, .F. ) ;
#323 = DIRECTION ( 'NONE',  ( 1.000000000000000000, 0.000000000000000000, -0.000000000000000000 ) ) ;
#324 = ORIENTED_EDGE ( 'NONE', *, *, #238, .T. ) ;
#325 = TOROIDAL_SURFACE ( 'NONE', #281, 6.500000000000000888, 0.5000000000000000000 ) ;
#326 = CARTESIAN_POINT ( 'NONE',  ( 10.00000000000000000, 1.224646799147353256E-15, 0.000000000000000000 ) ) ;
#327 = ORIENTED_EDGE ( 'NONE', *, *, #209, .F. ) ;
#328 = ADVANCED_FACE ( 'NONE', ( #317 ), #308, .F. ) ;
#329 = DIRECTION ( 'NONE',  ( 0.000000000000000000, -1.000000000000000000, 0.000000000000000000 ) ) ;
#330 = ORIENTED_EDGE ( 'NONE', *, *, #28, .T. ) ;
#331 = LINE ( 'NONE', #104, #266 ) ;
#332 = EDGE_CURVE ( 'NONE', #263, #22, #235, .T. ) ;
#333 = AXIS2_PLACEMENT_3D ( 'NONE', #12, #76, #69 ) ;
#334 = AXIS2_PLACEMENT_3D ( 'NONE', #135, #245, #67 ) ;
#335 = CIRCLE ( 'NONE', #286, 3.250000000000000444 ) ;
#336 =( LENGTH_UNIT ( ) NAMED_UNIT ( * ) SI_UNIT ( .MILLI., .METRE. ) );
#337 = ORIENTED_EDGE ( 'NONE', *, *, #314, .T. ) ;
#338 = PERSON_AND_ORGANIZATION ( #143, #367 ) ;
#339 = VERTEX_POINT ( 'NONE', #253 ) ;
#340 = COORDINATED_UNIVERSAL_TIME_OFFSET ( 1, 0, .AHEAD. ) ;
#341 = LOCAL_TIME ( 16, 41, 41.00000000000000000, #310 ) ;
#342 = ORIENTED_EDGE ( 'NONE', *, *, #203, .F. ) ;
#343 = MECHANICAL_CONTEXT ( 'NONE', #355, 'mechanical' ) ;
#344 = ADVANCED_FACE ( 'NONE', ( #102 ), #63, .F. ) ;
#345 = DATE_AND_TIME ( #57, #240 ) ;
#346 = APPROVAL_PERSON_ORGANIZATION ( #120, #59, #181 ) ;
#347 = CARTESIAN_POINT ( 'NONE',  ( 0.000000000000000000, 0.000000000000000000, 7.000000000000000000 ) ) ;
#348 = DIRECTION ( 'NONE',  ( 0.000000000000000000, 0.000000000000000000, 1.000000000000000000 ) ) ;
#349 = CARTESIAN_POINT ( 'NONE',  ( 0.000000000000000000, 0.000000000000000000, 357.0000000000000000 ) ) ;
#350 = APPROVAL ( #204, 'NEURÈENÝ' ) ;
#351 = LINE ( 'NONE', #364, #58 ) ;
#352 = CYLINDRICAL_SURFACE ( 'NONE', #4, 3.250000000000000444 ) ;
#353 = CARTESIAN_POINT ( 'NONE',  ( 0.000000000000000000, 0.000000000000000000, 357.0000000000000000 ) ) ;
#354 = ORIENTED_EDGE ( 'NONE', *, *, #209, .T. ) ;
#355 = APPLICATION_CONTEXT ( 'configuration controlled 3d designs of mechanical parts and assemblies' ) ;
#356 = FACE_OUTER_BOUND ( 'NONE', #36, .T. ) ;
#357 = VERTEX_POINT ( 'NONE', #107 ) ;
#358 = FACE_BOUND ( 'NONE', #149, .T. ) ;
#359 = EDGE_LOOP ( 'NONE', ( #330, #318 ) ) ;
#360 = EDGE_CURVE ( 'NONE', #151, #193, #123, .T. ) ;
#361 = CC_DESIGN_PERSON_AND_ORGANIZATION_ASSIGNMENT ( #242, #210, ( #184 ) ) ;
#362 = CARTESIAN_POINT ( 'NONE',  ( -3.250000000000000444, 0.000000000000000000, 0.000000000000000000 ) ) ;
#363 = ORIENTED_EDGE ( 'NONE', *, *, #368, .F. ) ;
#364 = CARTESIAN_POINT ( 'NONE',  ( -3.250000000000000444, 0.000000000000000000, 357.0000000000000000 ) ) ;
#365 = DIRECTION ( 'NONE',  ( 0.000000000000000000, 0.000000000000000000, -1.000000000000000000 ) ) ;
#366 = VERTEX_POINT ( 'NONE', #326 ) ;
#367 = ORGANIZATION ( 'NEURÈENÝ', 'NEURÈENÝ', '' ) ;
#368 = EDGE_CURVE ( 'NONE', #22, #357, #90, .T. ) ;
#369 = DIRECTION ( 'NONE',  ( 1.000000000000000000, 0.000000000000000000, 0.000000000000000000 ) ) ;
#370 = EDGE_LOOP ( 'NONE', ( #376, #42, #380, #77 ) ) ;
#371 = FACE_OUTER_BOUND ( 'NONE', #190, .T. ) ;
#372 = AXIS2_PLACEMENT_3D ( 'NONE', #71, #197, #157 ) ;
#373 = PRODUCT_RELATED_PRODUCT_CATEGORY ( 'detail', '', ( #292 ) ) ;
#374 = ORIENTED_EDGE ( 'NONE', *, *, #37, .F. ) ;
#375 = DATE_AND_TIME ( #147, #177 ) ;
#376 = ORIENTED_EDGE ( 'NONE', *, *, #271, .F. ) ;
#377 = PERSON_AND_ORGANIZATION ( #143, #367 ) ;
#378 = PRODUCT_DEFINITION_FORMATION_WITH_SPECIFIED_SOURCE ( 'LIBOVOLNÝ', '', #292, .NOT_KNOWN. ) ;
#379 = EDGE_CURVE ( 'NONE', #180, #217, #335, .T. ) ;
#380 = ORIENTED_EDGE ( 'NONE', *, *, #55, .T. ) ;
#381 = CARTESIAN_POINT ( 'NONE',  ( 0.000000000000000000, 0.000000000000000000, 0.000000000000000000 ) ) ;
ENDSEC;
END-ISO-10303-21;
