ISO-10303-21;
HEADER;
FILE_DESCRIPTION (( 'STEP AP203' ),
    '1' );
FILE_NAME ('ace8.STEP',
    '2022-07-08T15:46:00',
    ( '' ),
    ( '' ),
    'SwSTEP 2.0',
    'SolidWorks 2019',
    '' );
FILE_SCHEMA (( 'CONFIG_CONTROL_DESIGN' ));
ENDSEC;

DATA;
#1 = APPROVAL_DATE_TIME ( #212, #370 ) ;
#2 = ADVANCED_FACE ( 'NONE', ( #354, #68 ), #205, .T. ) ;
#3 = ORIENTED_EDGE ( 'NONE', *, *, #154, .T. ) ;
#4 = AXIS2_PLACEMENT_3D ( 'NONE', #195, #105, #250 ) ;
#5 = PERSON_AND_ORGANIZATION_ROLE ( 'creator' ) ;
#6 = CARTESIAN_POINT ( 'NONE',  ( 0.000000000000000000, 0.000000000000000000, 3.000000000000000000 ) ) ;
#7 = COORDINATED_UNIVERSAL_TIME_OFFSET ( 1, 0, .AHEAD. ) ;
#8 = EDGE_CURVE ( 'NONE', #242, #30, #115, .T. ) ;
#9 = ORIENTED_EDGE ( 'NONE', *, *, #213, .F. ) ;
#10 = APPROVAL_PERSON_ORGANIZATION ( #293, #361, #351 ) ;
#11 = ORIENTED_EDGE ( 'NONE', *, *, #249, .T. ) ;
#12 = EDGE_LOOP ( 'NONE', ( #327, #296 ) ) ;
#13 = CARTESIAN_POINT ( 'NONE',  ( 0.000000000000000000, 0.000000000000000000, 103.0000000000000142 ) ) ;
#14 = CIRCLE ( 'NONE', #32, 1.500000000000000222 ) ;
#15 = CARTESIAN_POINT ( 'NONE',  ( 0.000000000000000000, 0.000000000000000000, 0.000000000000000000 ) ) ;
#16 = CIRCLE ( 'NONE', #276, 2.799999999999999822 ) ;
#17 = DIRECTION ( 'NONE',  ( 0.000000000000000000, 0.000000000000000000, -1.000000000000000000 ) ) ;
#18 = DIRECTION ( 'NONE',  ( 1.000000000000000000, 0.000000000000000000, -0.000000000000000000 ) ) ;
#19 = AXIS2_PLACEMENT_3D ( 'NONE', #349, #29, #127 ) ;
#20 = FACE_OUTER_BOUND ( 'NONE', #27, .T. ) ;
#21 = FACE_OUTER_BOUND ( 'NONE', #142, .T. ) ;
#22 = EDGE_LOOP ( 'NONE', ( #343, #240 ) ) ;
#23 = CIRCLE ( 'NONE', #294, 5.000000000000000000 ) ;
#24 = CARTESIAN_POINT ( 'NONE',  ( 2.500000000000000000, 3.061616997868383141E-16, 103.0000000000000142 ) ) ;
#25 = CYLINDRICAL_SURFACE ( 'NONE', #178, 5.000000000000000000 ) ;
#26 = TOROIDAL_SURFACE ( 'NONE', #223, 2.799999999999999822, 0.2999999999999999889 ) ;
#27 = EDGE_LOOP ( 'NONE', ( #96, #375, #3, #148 ) ) ;
#28 = DIRECTION ( 'NONE',  ( -1.000000000000000000, 0.000000000000000000, 0.000000000000000000 ) ) ;
#29 = DIRECTION ( 'NONE',  ( 0.000000000000000000, 0.000000000000000000, 1.000000000000000000 ) ) ;
#30 = VERTEX_POINT ( 'NONE', #36 ) ;
#31 = PERSON_AND_ORGANIZATION ( #235, #374 ) ;
#32 = AXIS2_PLACEMENT_3D ( 'NONE', #165, #303, #243 ) ;
#33 = EDGE_LOOP ( 'NONE', ( #353, #56, #181, #116 ) ) ;
#34 = ORIENTED_EDGE ( 'NONE', *, *, #134, .F. ) ;
#35 = DATE_AND_TIME ( #239, #42 ) ;
#36 = CARTESIAN_POINT ( 'NONE',  ( 5.000000000000000000, 6.123233995736766282E-16, 3.000000000000000000 ) ) ;
#37 = COORDINATED_UNIVERSAL_TIME_OFFSET ( 1, 0, .AHEAD. ) ;
#38 = VERTEX_POINT ( 'NONE', #350 ) ;
#39 = ORIENTED_EDGE ( 'NONE', *, *, #161, .F. ) ;
#40 = DIRECTION ( 'NONE',  ( -1.000000000000000000, 0.000000000000000000, 0.000000000000000000 ) ) ;
#41 = DIRECTION ( 'NONE',  ( -1.000000000000000000, 0.000000000000000000, 0.000000000000000000 ) ) ;
#42 = LOCAL_TIME ( 17, 46, 0.000000000000000000, #7 ) ;
#43 = CARTESIAN_POINT ( 'NONE',  ( 0.000000000000000000, 0.000000000000000000, 0.000000000000000000 ) ) ;
#44 = CARTESIAN_POINT ( 'NONE',  ( 0.000000000000000000, 0.000000000000000000, 0.000000000000000000 ) ) ;
#45 = DIRECTION ( 'NONE',  ( 0.000000000000000000, 0.000000000000000000, -1.000000000000000000 ) ) ;
#46 = CC_DESIGN_PERSON_AND_ORGANIZATION_ASSIGNMENT ( #31, #289, ( #185 ) ) ;
#47 = APPROVAL ( #177, 'NEURÈENÝ' ) ;
#48 = PRODUCT_DEFINITION_FORMATION_WITH_SPECIFIED_SOURCE ( 'LIBOVOLNÝ', '', #135, .NOT_KNOWN. ) ;
#49 = VECTOR ( 'NONE', #106, 1000.000000000000000 ) ;
#50 = DIRECTION ( 'NONE',  ( 0.000000000000000000, 0.000000000000000000, 1.000000000000000000 ) ) ;
#51 = CARTESIAN_POINT ( 'NONE',  ( -1.500000000000000222, 0.000000000000000000, 103.0000000000000142 ) ) ;
#52 = CYLINDRICAL_SURFACE ( 'NONE', #367, 1.500000000000000222 ) ;
#53 = CC_DESIGN_APPROVAL ( #47, ( #48 ) ) ;
#54 = CARTESIAN_POINT ( 'NONE',  ( 0.000000000000000000, 0.000000000000000000, 103.0000000000000142 ) ) ;
#55 = ADVANCED_FACE ( 'NONE', ( #149 ), #124, .T. ) ;
#56 = ORIENTED_EDGE ( 'NONE', *, *, #129, .F. ) ;
#57 = PERSON_AND_ORGANIZATION ( #235, #374 ) ;
#58 = ORIENTED_EDGE ( 'NONE', *, *, #232, .F. ) ;
#59 = EDGE_CURVE ( 'NONE', #91, #93, #23, .T. ) ;
#60 = DATE_AND_TIME ( #119, #126 ) ;
#61 = ORIENTED_EDGE ( 'NONE', *, *, #166, .T. ) ;
#62 = CALENDAR_DATE ( 2022, 8, 7 ) ;
#63 = ORIENTED_EDGE ( 'NONE', *, *, #117, .F. ) ;
#64 = APPROVAL_DATE_TIME ( #60, #47 ) ;
#65 = EDGE_CURVE ( 'NONE', #259, #261, #191, .T. ) ;
#66 = ORIENTED_EDGE ( 'NONE', *, *, #249, .F. ) ;
#67 = CALENDAR_DATE ( 2022, 8, 7 ) ;
#68 = FACE_OUTER_BOUND ( 'NONE', #288, .T. ) ;
#69 = CC_DESIGN_APPROVAL ( #370, ( #156 ) ) ;
#70 = FACE_OUTER_BOUND ( 'NONE', #22, .T. ) ;
#71 = CIRCLE ( 'NONE', #280, 1.500000000000000222 ) ;
#72 = DIRECTION ( 'NONE',  ( 1.000000000000000000, 0.000000000000000000, 0.000000000000000000 ) ) ;
#73 = EDGE_CURVE ( 'NONE', #305, #357, #77, .T. ) ;
#74 = DIRECTION ( 'NONE',  ( 0.000000000000000000, 0.000000000000000000, 1.000000000000000000 ) ) ;
#75 = AXIS2_PLACEMENT_3D ( 'NONE', #139, #230, #201 ) ;
#76 = ADVANCED_FACE ( 'NONE', ( #220, #248 ), #334, .F. ) ;
#77 = LINE ( 'NONE', #331, #182 ) ;
#78 = DIRECTION ( 'NONE',  ( 0.000000000000000000, 0.000000000000000000, -1.000000000000000000 ) ) ;
#79 = CYLINDRICAL_SURFACE ( 'NONE', #319, 2.500000000000000000 ) ;
#80 = ORIENTED_EDGE ( 'NONE', *, *, #65, .T. ) ;
#81 = CIRCLE ( 'NONE', #251, 2.500000000000000000 ) ;
#82 = DIRECTION ( 'NONE',  ( -1.000000000000000000, 1.224646799147353207E-16, 0.000000000000000000 ) ) ;
#83 = DIRECTION ( 'NONE',  ( 0.000000000000000000, 0.000000000000000000, -1.000000000000000000 ) ) ;
#84 = VERTEX_POINT ( 'NONE', #274 ) ;
#85 = APPLICATION_CONTEXT ( 'configuration controlled 3d designs of mechanical parts and assemblies' ) ;
#86 = DIRECTION ( 'NONE',  ( -0.000000000000000000, -0.000000000000000000, -1.000000000000000000 ) ) ;
#87 = ORIENTED_EDGE ( 'NONE', *, *, #200, .F. ) ;
#88 = DIRECTION ( 'NONE',  ( -0.000000000000000000, -0.000000000000000000, -1.000000000000000000 ) ) ;
#89 = LOCAL_TIME ( 17, 46, 0.000000000000000000, #203 ) ;
#90 = EDGE_CURVE ( 'NONE', #261, #357, #71, .T. ) ;
#91 = VERTEX_POINT ( 'NONE', #107 ) ;
#92 = PERSON_AND_ORGANIZATION_ROLE ( 'design_owner' ) ;
#93 = VERTEX_POINT ( 'NONE', #301 ) ;
#94 = ADVANCED_FACE ( 'NONE', ( #159 ), #333, .F. ) ;
#95 = COORDINATED_UNIVERSAL_TIME_OFFSET ( 1, 0, .AHEAD. ) ;
#96 = ORIENTED_EDGE ( 'NONE', *, *, #213, .T. ) ;
#97 = DATE_TIME_ROLE ( 'classification_date' ) ;
#98 = APPROVAL_PERSON_ORGANIZATION ( #207, #370, #320 ) ;
#99 = CARTESIAN_POINT ( 'NONE',  ( 0.000000000000000000, 0.000000000000000000, 3.000000000000000000 ) ) ;
#100 = VERTEX_POINT ( 'NONE', #133 ) ;
#101 = ADVANCED_BREP_SHAPE_REPRESENTATION ( 'ace8', ( #194, #19 ), #206 ) ;
#102 = EDGE_CURVE ( 'NONE', #38, #359, #16, .T. ) ;
#103 = DIRECTION ( 'NONE',  ( 1.000000000000000000, 0.000000000000000000, 0.000000000000000000 ) ) ;
#104 = CIRCLE ( 'NONE', #108, 1.500000000000000222 ) ;
#105 = DIRECTION ( 'NONE',  ( -0.000000000000000000, -0.000000000000000000, -1.000000000000000000 ) ) ;
#106 = DIRECTION ( 'NONE',  ( -0.000000000000000000, -0.000000000000000000, -1.000000000000000000 ) ) ;
#107 = CARTESIAN_POINT ( 'NONE',  ( 5.000000000000000000, 6.123233995736766282E-16, 0.000000000000000000 ) ) ;
#108 = AXIS2_PLACEMENT_3D ( 'NONE', #141, #346, #287 ) ;
#109 = CARTESIAN_POINT ( 'NONE',  ( 2.799999999999999822, 0.000000000000000000, 3.299999999999997158 ) ) ;
#110 = DIRECTION ( 'NONE',  ( 1.000000000000000000, 0.000000000000000000, 0.000000000000000000 ) ) ;
#111 = DIRECTION ( 'NONE',  ( 0.000000000000000000, 0.000000000000000000, 1.000000000000000000 ) ) ;
#112 = ORIENTED_EDGE ( 'NONE', *, *, #102, .T. ) ;
#113 = PRODUCT_RELATED_PRODUCT_CATEGORY ( 'detail', '', ( #135 ) ) ;
#114 = DIRECTION ( 'NONE',  ( -1.000000000000000000, 0.000000000000000000, 0.000000000000000000 ) ) ;
#115 = CIRCLE ( 'NONE', #189, 5.000000000000000000 ) ;
#116 = ORIENTED_EDGE ( 'NONE', *, *, #102, .F. ) ;
#117 = EDGE_CURVE ( 'NONE', #359, #38, #169, .T. ) ;
#118 = FACE_OUTER_BOUND ( 'NONE', #155, .T. ) ;
#119 = CALENDAR_DATE ( 2022, 8, 7 ) ;
#120 = CC_DESIGN_PERSON_AND_ORGANIZATION_ASSIGNMENT ( #315, #147, ( #156 ) ) ;
#121 = APPROVAL_STATUS ( 'not_yet_approved' ) ;
#122 = ORIENTED_EDGE ( 'NONE', *, *, #252, .T. ) ;
#123 = SECURITY_CLASSIFICATION_LEVEL ( 'unclassified' ) ;
#124 = CYLINDRICAL_SURFACE ( 'NONE', #229, 5.000000000000000000 ) ;
#125 = MECHANICAL_CONTEXT ( 'NONE', #137, 'mechanical' ) ;
#126 = LOCAL_TIME ( 17, 46, 0.000000000000000000, #317 ) ;
#127 = DIRECTION ( 'NONE',  ( 1.000000000000000000, 0.000000000000000000, 0.000000000000000000 ) ) ;
#128 = EDGE_LOOP ( 'NONE', ( #340, #153, #80, #268 ) ) ;
#129 = EDGE_CURVE ( 'NONE', #84, #184, #219, .T. ) ;
#130 = CARTESIAN_POINT ( 'NONE',  ( -1.500000000000000222, 0.000000000000000000, 103.0000000000000142 ) ) ;
#131 = DIRECTION ( 'NONE',  ( -0.000000000000000000, -0.000000000000000000, -1.000000000000000000 ) ) ;
#132 = DIRECTION ( 'NONE',  ( 0.000000000000000000, 0.000000000000000000, 1.000000000000000000 ) ) ;
#133 = CARTESIAN_POINT ( 'NONE',  ( -2.500000000000000000, 0.000000000000000000, 103.0000000000000142 ) ) ;
#134 = EDGE_CURVE ( 'NONE', #30, #242, #211, .T. ) ;
#135 = PRODUCT ( 'ace8', 'ace8', '', ( #125 ) ) ;
#136 = LINE ( 'NONE', #218, #49 ) ;
#137 = APPLICATION_CONTEXT ( 'configuration controlled 3d designs of mechanical parts and assemblies' ) ;
#138 = CARTESIAN_POINT ( 'NONE',  ( 0.000000000000000000, 0.000000000000000000, 103.0000000000000142 ) ) ;
#139 = CARTESIAN_POINT ( 'NONE',  ( 0.000000000000000000, 0.000000000000000000, 103.0000000000000142 ) ) ;
#140 = CIRCLE ( 'NONE', #238, 0.2999999999999999334 ) ;
#141 = CARTESIAN_POINT ( 'NONE',  ( 0.000000000000000000, 0.000000000000000000, 103.0000000000000142 ) ) ;
#142 = EDGE_LOOP ( 'NONE', ( #310, #380, #347, #61 ) ) ;
#143 = ORIENTED_EDGE ( 'NONE', *, *, #336, .T. ) ;
#144 = APPROVAL_STATUS ( 'not_yet_approved' ) ;
#145 = EDGE_LOOP ( 'NONE', ( #9, #372 ) ) ;
#146 = CIRCLE ( 'NONE', #300, 5.000000000000000000 ) ;
#147 = PERSON_AND_ORGANIZATION_ROLE ( 'creator' ) ;
#148 = ORIENTED_EDGE ( 'NONE', *, *, #65, .F. ) ;
#149 = FACE_OUTER_BOUND ( 'NONE', #279, .T. ) ;
#150 = APPLICATION_PROTOCOL_DEFINITION ( 'international standard', 'config_control_design', 1994, #85 ) ;
#151 = PERSON_AND_ORGANIZATION ( #235, #374 ) ;
#152 = CC_DESIGN_SECURITY_CLASSIFICATION ( #185, ( #48 ) ) ;
#153 = ORIENTED_EDGE ( 'NONE', *, *, #308, .T. ) ;
#154 = EDGE_CURVE ( 'NONE', #357, #261, #157, .T. ) ;
#155 = EDGE_LOOP ( 'NONE', ( #58, #143, #313, #39 ) ) ;
#156 = PRODUCT_DEFINITION ( 'NEZNÁMÝ', '', #48, #314 ) ;
#157 = CIRCLE ( 'NONE', #377, 1.500000000000000222 ) ;
#158 = ADVANCED_FACE ( 'NONE', ( #328, #70 ), #222, .T. ) ;
#159 = FACE_OUTER_BOUND ( 'NONE', #128, .T. ) ;
#160 = DIRECTION ( 'NONE',  ( 1.000000000000000000, 0.000000000000000000, 0.000000000000000000 ) ) ;
#161 = EDGE_CURVE ( 'NONE', #100, #184, #136, .T. ) ;
#162 = DIRECTION ( 'NONE',  ( 1.000000000000000000, 0.000000000000000000, 0.000000000000000000 ) ) ;
#163 = AXIS2_PLACEMENT_3D ( 'NONE', #44, #366, #217 ) ;
#164 = CARTESIAN_POINT ( 'NONE',  ( 0.000000000000000000, 0.000000000000000000, 3.000000000000000000 ) ) ;
#165 = CARTESIAN_POINT ( 'NONE',  ( 0.000000000000000000, 0.000000000000000000, 103.0000000000000142 ) ) ;
#166 = EDGE_CURVE ( 'NONE', #184, #84, #363, .T. ) ;
#167 = CC_DESIGN_APPROVAL ( #361, ( #185 ) ) ;
#168 = EDGE_LOOP ( 'NONE', ( #316, #210, #63, #87 ) ) ;
#169 = CIRCLE ( 'NONE', #4, 2.799999999999999822 ) ;
#170 =( LENGTH_UNIT ( ) NAMED_UNIT ( * ) SI_UNIT ( .MILLI., .METRE. ) );
#171 = AXIS2_PLACEMENT_3D ( 'NONE', #275, #247, #103 ) ;
#172 = ORIENTED_EDGE ( 'NONE', *, *, #117, .T. ) ;
#173 = CARTESIAN_POINT ( 'NONE',  ( 5.000000000000000000, 6.123233995736766282E-16, 3.000000000000000000 ) ) ;
#174 = LOCAL_TIME ( 17, 46, 0.000000000000000000, #37 ) ;
#175 = CARTESIAN_POINT ( 'NONE',  ( 1.500000000000000222, 1.836970198721030181E-16, 103.0000000000000142 ) ) ;
#176 = CARTESIAN_POINT ( 'NONE',  ( 0.000000000000000000, 0.000000000000000000, 3.299999999999997158 ) ) ;
#177 = APPROVAL_STATUS ( 'not_yet_approved' ) ;
#178 = AXIS2_PLACEMENT_3D ( 'NONE', #196, #306, #114 ) ;
#179 = DIRECTION ( 'NONE',  ( 0.000000000000000000, 0.000000000000000000, 1.000000000000000000 ) ) ;
#180 =( NAMED_UNIT ( * ) PLANE_ANGLE_UNIT ( ) SI_UNIT ( $, .RADIAN. ) );
#181 = ORIENTED_EDGE ( 'NONE', *, *, #200, .T. ) ;
#182 = VECTOR ( 'NONE', #45, 1000.000000000000000 ) ;
#183 = DATE_AND_TIME ( #62, #311 ) ;
#184 = VERTEX_POINT ( 'NONE', #299 ) ;
#185 = SECURITY_CLASSIFICATION ( '', '', #123 ) ;
#186 = DIRECTION ( 'NONE',  ( 1.000000000000000000, 0.000000000000000000, 0.000000000000000000 ) ) ;
#187 = CC_DESIGN_PERSON_AND_ORGANIZATION_ASSIGNMENT ( #151, #92, ( #135 ) ) ;
#188 = CARTESIAN_POINT ( 'NONE',  ( -5.000000000000000000, 0.000000000000000000, 3.000000000000000000 ) ) ;
#189 = AXIS2_PLACEMENT_3D ( 'NONE', #6, #214, #186 ) ;
#190 = DIRECTION ( 'NONE',  ( -0.000000000000000000, -0.000000000000000000, -1.000000000000000000 ) ) ;
#191 = LINE ( 'NONE', #130, #322 ) ;
#192 = VECTOR ( 'NONE', #379, 1000.000000000000000 ) ;
#193 = DIRECTION ( 'NONE',  ( -0.000000000000000000, -0.000000000000000000, -1.000000000000000000 ) ) ;
#194 = MANIFOLD_SOLID_BREP ( 'Odebrat vysunutím3', #344 ) ;
#195 = CARTESIAN_POINT ( 'NONE',  ( 0.000000000000000000, 0.000000000000000000, 3.000000000000000000 ) ) ;
#196 = CARTESIAN_POINT ( 'NONE',  ( 0.000000000000000000, 0.000000000000000000, 3.000000000000000000 ) ) ;
#197 = CIRCLE ( 'NONE', #216, 2.500000000000000000 ) ;
#198 = DIRECTION ( 'NONE',  ( 1.000000000000000000, 0.000000000000000000, 0.000000000000000000 ) ) ;
#199 = DIRECTION ( 'NONE',  ( 0.000000000000000000, 0.000000000000000000, 1.000000000000000000 ) ) ;
#200 = EDGE_CURVE ( 'NONE', #84, #359, #140, .T. ) ;
#201 = DIRECTION ( 'NONE',  ( -1.000000000000000000, 0.000000000000000000, 0.000000000000000000 ) ) ;
#202 = DIRECTION ( 'NONE',  ( -1.000000000000000000, 0.000000000000000000, 0.000000000000000000 ) ) ;
#203 = COORDINATED_UNIVERSAL_TIME_OFFSET ( 1, 0, .AHEAD. ) ;
#204 = EDGE_LOOP ( 'NONE', ( #34, #337, #263, #265 ) ) ;
#205 = PLANE ( 'NONE',  #360 ) ;
#206 =( GEOMETRIC_REPRESENTATION_CONTEXT ( 3 ) GLOBAL_UNCERTAINTY_ASSIGNED_CONTEXT ( ( #381 ) ) GLOBAL_UNIT_ASSIGNED_CONTEXT ( ( #170, #180, #295 ) ) REPRESENTATION_CONTEXT ( 'NONE', 'WORKASPACE' ) );
#207 = PERSON_AND_ORGANIZATION ( #235, #374 ) ;
#208 = DIRECTION ( 'NONE',  ( -0.000000000000000000, -0.000000000000000000, -1.000000000000000000 ) ) ;
#209 = APPLICATION_PROTOCOL_DEFINITION ( 'international standard', 'config_control_design', 1994, #137 ) ;
#210 = ORIENTED_EDGE ( 'NONE', *, *, #297, .T. ) ;
#211 = CIRCLE ( 'NONE', #171, 5.000000000000000000 ) ;
#212 = DATE_AND_TIME ( #326, #89 ) ;
#213 = EDGE_CURVE ( 'NONE', #259, #305, #14, .T. ) ;
#214 = DIRECTION ( 'NONE',  ( 0.000000000000000000, 0.000000000000000000, 1.000000000000000000 ) ) ;
#215 = CIRCLE ( 'NONE', #291, 0.2999999999999999334 ) ;
#216 = AXIS2_PLACEMENT_3D ( 'NONE', #373, #228, #110 ) ;
#217 = DIRECTION ( 'NONE',  ( 1.000000000000000000, 0.000000000000000000, -0.000000000000000000 ) ) ;
#218 = CARTESIAN_POINT ( 'NONE',  ( -2.500000000000000000, 0.000000000000000000, 103.0000000000000142 ) ) ;
#219 = CIRCLE ( 'NONE', #378, 2.500000000000000000 ) ;
#220 = FACE_BOUND ( 'NONE', #12, .T. ) ;
#221 = EDGE_CURVE ( 'NONE', #242, #93, #362, .T. ) ;
#222 = PLANE ( 'NONE',  #245 ) ;
#223 = AXIS2_PLACEMENT_3D ( 'NONE', #176, #369, #226 ) ;
#224 = DIRECTION ( 'NONE',  ( 0.000000000000000000, -1.000000000000000000, 0.000000000000000000 ) ) ;
#225 = LINE ( 'NONE', #304, #192 ) ;
#226 = DIRECTION ( 'NONE',  ( 1.000000000000000000, 0.000000000000000000, 0.000000000000000000 ) ) ;
#227 = EDGE_LOOP ( 'NONE', ( #172, #112 ) ) ;
#228 = DIRECTION ( 'NONE',  ( 0.000000000000000000, 0.000000000000000000, 1.000000000000000000 ) ) ;
#229 = AXIS2_PLACEMENT_3D ( 'NONE', #99, #208, #40 ) ;
#230 = DIRECTION ( 'NONE',  ( -0.000000000000000000, -0.000000000000000000, -1.000000000000000000 ) ) ;
#231 = CARTESIAN_POINT ( 'NONE',  ( 0.000000000000000000, 0.000000000000000000, 103.0000000000000142 ) ) ;
#232 = EDGE_CURVE ( 'NONE', #257, #100, #81, .T. ) ;
#233 = CARTESIAN_POINT ( 'NONE',  ( 0.000000000000000000, 0.000000000000000000, 103.0000000000000142 ) ) ;
#234 = CC_DESIGN_PERSON_AND_ORGANIZATION_ASSIGNMENT ( #241, #5, ( #48 ) ) ;
#235 = PERSON ( 'NEURÈENÝ', 'NEURÈENÝ', 'NEURÈENÝ', ('NEURÈENÝ'), ('NEURÈENÝ'), ('NEURÈENÝ') ) ;
#236 = APPROVAL_ROLE ( '' ) ;
#237 = ORIENTED_EDGE ( 'NONE', *, *, #232, .T. ) ;
#238 = AXIS2_PLACEMENT_3D ( 'NONE', #109, #224, #78 ) ;
#239 = CALENDAR_DATE ( 2022, 8, 7 ) ;
#240 = ORIENTED_EDGE ( 'NONE', *, *, #134, .T. ) ;
#241 = PERSON_AND_ORGANIZATION ( #235, #374 ) ;
#242 = VERTEX_POINT ( 'NONE', #255 ) ;
#243 = DIRECTION ( 'NONE',  ( 1.000000000000000000, 0.000000000000000000, 0.000000000000000000 ) ) ;
#244 = ADVANCED_FACE ( 'NONE', ( #21 ), #256, .T. ) ;
#245 = AXIS2_PLACEMENT_3D ( 'NONE', #302, #277, #18 ) ;
#246 = DIRECTION ( 'NONE',  ( 1.000000000000000000, 0.000000000000000000, 0.000000000000000000 ) ) ;
#247 = DIRECTION ( 'NONE',  ( 0.000000000000000000, 0.000000000000000000, 1.000000000000000000 ) ) ;
#248 = FACE_OUTER_BOUND ( 'NONE', #290, .T. ) ;
#249 = EDGE_CURVE ( 'NONE', #93, #91, #146, .T. ) ;
#250 = DIRECTION ( 'NONE',  ( 1.000000000000000000, 0.000000000000000000, 0.000000000000000000 ) ) ;
#251 = AXIS2_PLACEMENT_3D ( 'NONE', #54, #111, #371 ) ;
#252 = EDGE_CURVE ( 'NONE', #100, #257, #197, .T. ) ;
#253 = CARTESIAN_POINT ( 'NONE',  ( 0.000000000000000000, 0.000000000000000000, 0.000000000000000000 ) ) ;
#254 = FACE_OUTER_BOUND ( 'NONE', #33, .T. ) ;
#255 = CARTESIAN_POINT ( 'NONE',  ( -5.000000000000000000, 0.000000000000000000, 3.000000000000000000 ) ) ;
#256 = CYLINDRICAL_SURFACE ( 'NONE', #75, 2.500000000000000000 ) ;
#257 = VERTEX_POINT ( 'NONE', #24 ) ;
#258 = CARTESIAN_POINT ( 'NONE',  ( -2.799999999999999822, 3.429011037612588783E-16, 3.299999999999997158 ) ) ;
#259 = VERTEX_POINT ( 'NONE', #51 ) ;
#260 = ADVANCED_FACE ( 'NONE', ( #345 ), #26, .F. ) ;
#261 = VERTEX_POINT ( 'NONE', #309 ) ;
#262 = DATE_AND_TIME ( #67, #174 ) ;
#263 = ORIENTED_EDGE ( 'NONE', *, *, #59, .T. ) ;
#264 = DATE_TIME_ROLE ( 'creation_date' ) ;
#265 = ORIENTED_EDGE ( 'NONE', *, *, #221, .F. ) ;
#266 = PRODUCT_DEFINITION_SHAPE ( 'NONE', 'NONE',  #156 ) ;
#267 = APPROVAL_DATE_TIME ( #183, #361 ) ;
#268 = ORIENTED_EDGE ( 'NONE', *, *, #90, .T. ) ;
#269 = ORIENTED_EDGE ( 'NONE', *, *, #221, .T. ) ;
#270 = ADVANCED_FACE ( 'NONE', ( #20 ), #52, .F. ) ;
#271 = CARTESIAN_POINT ( 'NONE',  ( 0.000000000000000000, 0.000000000000000000, 0.000000000000000000 ) ) ;
#272 = CC_DESIGN_DATE_AND_TIME_ASSIGNMENT ( #262, #97, ( #185 ) ) ;
#273 = AXIS2_PLACEMENT_3D ( 'NONE', #342, #199, #335 ) ;
#274 = CARTESIAN_POINT ( 'NONE',  ( 2.500000000000000000, 3.061616997868383141E-16, 3.299999999999997158 ) ) ;
#275 = CARTESIAN_POINT ( 'NONE',  ( 0.000000000000000000, 0.000000000000000000, 3.000000000000000000 ) ) ;
#276 = AXIS2_PLACEMENT_3D ( 'NONE', #164, #193, #278 ) ;
#277 = DIRECTION ( 'NONE',  ( 0.000000000000000000, 0.000000000000000000, 1.000000000000000000 ) ) ;
#278 = DIRECTION ( 'NONE',  ( 1.000000000000000000, 0.000000000000000000, 0.000000000000000000 ) ) ;
#279 = EDGE_LOOP ( 'NONE', ( #318, #283, #269, #11 ) ) ;
#280 = AXIS2_PLACEMENT_3D ( 'NONE', #15, #190, #160 ) ;
#281 = ADVANCED_FACE ( 'NONE', ( #254 ), #355, .F. ) ;
#282 = CARTESIAN_POINT ( 'NONE',  ( 1.500000000000000222, 1.836970198721030181E-16, 0.000000000000000000 ) ) ;
#283 = ORIENTED_EDGE ( 'NONE', *, *, #8, .F. ) ;
#284 = FACE_OUTER_BOUND ( 'NONE', #204, .T. ) ;
#285 = CC_DESIGN_DATE_AND_TIME_ASSIGNMENT ( #35, #264, ( #156 ) ) ;
#286 = APPROVAL_PERSON_ORGANIZATION ( #57, #47, #236 ) ;
#287 = DIRECTION ( 'NONE',  ( 1.000000000000000000, 0.000000000000000000, 0.000000000000000000 ) ) ;
#288 = EDGE_LOOP ( 'NONE', ( #122, #237 ) ) ;
#289 = PERSON_AND_ORGANIZATION_ROLE ( 'classification_officer' ) ;
#290 = EDGE_LOOP ( 'NONE', ( #66, #321 ) ) ;
#291 = AXIS2_PLACEMENT_3D ( 'NONE', #258, #307, #82 ) ;
#292 = DIRECTION ( 'NONE',  ( 1.000000000000000000, 0.000000000000000000, -0.000000000000000000 ) ) ;
#293 = PERSON_AND_ORGANIZATION ( #235, #374 ) ;
#294 = AXIS2_PLACEMENT_3D ( 'NONE', #43, #298, #72 ) ;
#295 =( NAMED_UNIT ( * ) SI_UNIT ( $, .STERADIAN. ) SOLID_ANGLE_UNIT ( ) );
#296 = ORIENTED_EDGE ( 'NONE', *, *, #154, .F. ) ;
#297 = EDGE_CURVE ( 'NONE', #184, #38, #215, .T. ) ;
#298 = DIRECTION ( 'NONE',  ( 0.000000000000000000, 0.000000000000000000, 1.000000000000000000 ) ) ;
#299 = CARTESIAN_POINT ( 'NONE',  ( -2.500000000000000000, 0.000000000000000000, 3.299999999999997158 ) ) ;
#300 = AXIS2_PLACEMENT_3D ( 'NONE', #253, #50, #198 ) ;
#301 = CARTESIAN_POINT ( 'NONE',  ( -5.000000000000000000, 0.000000000000000000, 0.000000000000000000 ) ) ;
#302 = CARTESIAN_POINT ( 'NONE',  ( 0.000000000000000000, 0.000000000000000000, 3.000000000000000000 ) ) ;
#303 = DIRECTION ( 'NONE',  ( 0.000000000000000000, 0.000000000000000000, 1.000000000000000000 ) ) ;
#304 = CARTESIAN_POINT ( 'NONE',  ( 2.500000000000000000, 3.061616997868383141E-16, 103.0000000000000142 ) ) ;
#305 = VERTEX_POINT ( 'NONE', #175 ) ;
#306 = DIRECTION ( 'NONE',  ( -0.000000000000000000, -0.000000000000000000, -1.000000000000000000 ) ) ;
#307 = DIRECTION ( 'NONE',  ( 1.224646799147353207E-16, 1.000000000000000000, -0.000000000000000000 ) ) ;
#308 = EDGE_CURVE ( 'NONE', #305, #259, #104, .T. ) ;
#309 = CARTESIAN_POINT ( 'NONE',  ( -1.500000000000000222, 0.000000000000000000, 0.000000000000000000 ) ) ;
#310 = ORIENTED_EDGE ( 'NONE', *, *, #336, .F. ) ;
#311 = LOCAL_TIME ( 17, 46, 0.000000000000000000, #95 ) ;
#312 = CARTESIAN_POINT ( 'NONE',  ( 2.799999999999999822, 0.000000000000000000, 2.999999999999998668 ) ) ;
#313 = ORIENTED_EDGE ( 'NONE', *, *, #129, .T. ) ;
#314 = DESIGN_CONTEXT ( 'detailed design', #85, 'design' ) ;
#315 = PERSON_AND_ORGANIZATION ( #235, #374 ) ;
#316 = ORIENTED_EDGE ( 'NONE', *, *, #166, .F. ) ;
#317 = COORDINATED_UNIVERSAL_TIME_OFFSET ( 1, 0, .AHEAD. ) ;
#318 = ORIENTED_EDGE ( 'NONE', *, *, #324, .F. ) ;
#319 = AXIS2_PLACEMENT_3D ( 'NONE', #231, #88, #202 ) ;
#320 = APPROVAL_ROLE ( '' ) ;
#321 = ORIENTED_EDGE ( 'NONE', *, *, #59, .F. ) ;
#322 = VECTOR ( 'NONE', #17, 1000.000000000000000 ) ;
#323 = PERSON_AND_ORGANIZATION_ROLE ( 'design_supplier' ) ;
#324 = EDGE_CURVE ( 'NONE', #30, #91, #376, .T. ) ;
#325 = ADVANCED_FACE ( 'NONE', ( #284 ), #25, .T. ) ;
#326 = CALENDAR_DATE ( 2022, 8, 7 ) ;
#327 = ORIENTED_EDGE ( 'NONE', *, *, #90, .F. ) ;
#328 = FACE_BOUND ( 'NONE', #227, .T. ) ;
#329 = CARTESIAN_POINT ( 'NONE',  ( 0.000000000000000000, 0.000000000000000000, 3.299999999999997158 ) ) ;
#330 = AXIS2_PLACEMENT_3D ( 'NONE', #13, #364, #41 ) ;
#331 = CARTESIAN_POINT ( 'NONE',  ( 1.500000000000000222, 1.836970198721030181E-16, 103.0000000000000142 ) ) ;
#332 = VECTOR ( 'NONE', #338, 1000.000000000000000 ) ;
#333 = CYLINDRICAL_SURFACE ( 'NONE', #330, 1.500000000000000222 ) ;
#334 = PLANE ( 'NONE',  #163 ) ;
#335 = DIRECTION ( 'NONE',  ( 1.000000000000000000, 0.000000000000000000, 0.000000000000000000 ) ) ;
#336 = EDGE_CURVE ( 'NONE', #257, #84, #225, .T. ) ;
#337 = ORIENTED_EDGE ( 'NONE', *, *, #324, .T. ) ;
#338 = DIRECTION ( 'NONE',  ( -0.000000000000000000, -0.000000000000000000, -1.000000000000000000 ) ) ;
#339 = VECTOR ( 'NONE', #86, 1000.000000000000000 ) ;
#340 = ORIENTED_EDGE ( 'NONE', *, *, #73, .F. ) ;
#341 = CC_DESIGN_PERSON_AND_ORGANIZATION_ASSIGNMENT ( #356, #323, ( #48 ) ) ;
#342 = CARTESIAN_POINT ( 'NONE',  ( 0.000000000000000000, 0.000000000000000000, 3.299999999999997158 ) ) ;
#343 = ORIENTED_EDGE ( 'NONE', *, *, #8, .T. ) ;
#344 = CLOSED_SHELL ( 'NONE', ( #270, #260, #352, #325, #55, #158, #76, #244, #2, #281, #94 ) ) ;
#345 = FACE_OUTER_BOUND ( 'NONE', #168, .T. ) ;
#346 = DIRECTION ( 'NONE',  ( 0.000000000000000000, 0.000000000000000000, 1.000000000000000000 ) ) ;
#347 = ORIENTED_EDGE ( 'NONE', *, *, #161, .T. ) ;
#348 = AXIS2_PLACEMENT_3D ( 'NONE', #329, #132, #365 ) ;
#349 = CARTESIAN_POINT ( 'NONE',  ( 0.000000000000000000, 0.000000000000000000, 0.000000000000000000 ) ) ;
#350 = CARTESIAN_POINT ( 'NONE',  ( -2.799999999999999822, 3.429011037612589276E-16, 2.999999999999998668 ) ) ;
#351 = APPROVAL_ROLE ( '' ) ;
#352 = ADVANCED_FACE ( 'NONE', ( #118 ), #79, .T. ) ;
#353 = ORIENTED_EDGE ( 'NONE', *, *, #297, .F. ) ;
#354 = FACE_BOUND ( 'NONE', #145, .T. ) ;
#355 = TOROIDAL_SURFACE ( 'NONE', #273, 2.799999999999999822, 0.2999999999999999889 ) ;
#356 = PERSON_AND_ORGANIZATION ( #235, #374 ) ;
#357 = VERTEX_POINT ( 'NONE', #282 ) ;
#358 = SHAPE_DEFINITION_REPRESENTATION ( #266, #101 ) ;
#359 = VERTEX_POINT ( 'NONE', #312 ) ;
#360 = AXIS2_PLACEMENT_3D ( 'NONE', #233, #179, #292 ) ;
#361 = APPROVAL ( #121, 'NEURÈENÝ' ) ;
#362 = LINE ( 'NONE', #188, #332 ) ;
#363 = CIRCLE ( 'NONE', #348, 2.500000000000000000 ) ;
#364 = DIRECTION ( 'NONE',  ( 0.000000000000000000, 0.000000000000000000, -1.000000000000000000 ) ) ;
#365 = DIRECTION ( 'NONE',  ( 1.000000000000000000, 0.000000000000000000, 0.000000000000000000 ) ) ;
#366 = DIRECTION ( 'NONE',  ( 0.000000000000000000, 0.000000000000000000, 1.000000000000000000 ) ) ;
#367 = AXIS2_PLACEMENT_3D ( 'NONE', #138, #83, #28 ) ;
#368 = CARTESIAN_POINT ( 'NONE',  ( 0.000000000000000000, 0.000000000000000000, 3.299999999999997158 ) ) ;
#369 = DIRECTION ( 'NONE',  ( 0.000000000000000000, 0.000000000000000000, 1.000000000000000000 ) ) ;
#370 = APPROVAL ( #144, 'NEURÈENÝ' ) ;
#371 = DIRECTION ( 'NONE',  ( 1.000000000000000000, 0.000000000000000000, 0.000000000000000000 ) ) ;
#372 = ORIENTED_EDGE ( 'NONE', *, *, #308, .F. ) ;
#373 = CARTESIAN_POINT ( 'NONE',  ( 0.000000000000000000, 0.000000000000000000, 103.0000000000000142 ) ) ;
#374 = ORGANIZATION ( 'NEURÈENÝ', 'NEURÈENÝ', '' ) ;
#375 = ORIENTED_EDGE ( 'NONE', *, *, #73, .T. ) ;
#376 = LINE ( 'NONE', #173, #339 ) ;
#377 = AXIS2_PLACEMENT_3D ( 'NONE', #271, #131, #246 ) ;
#378 = AXIS2_PLACEMENT_3D ( 'NONE', #368, #74, #162 ) ;
#379 = DIRECTION ( 'NONE',  ( -0.000000000000000000, -0.000000000000000000, -1.000000000000000000 ) ) ;
#380 = ORIENTED_EDGE ( 'NONE', *, *, #252, .F. ) ;
#381 = UNCERTAINTY_MEASURE_WITH_UNIT (LENGTH_MEASURE( 1.000000000000000082E-05 ), #170, 'distance_accuracy_value', 'NONE');
ENDSEC;
END-ISO-10303-21;
