ISO-10303-21;
HEADER;
FILE_DESCRIPTION (( 'STEP AP203' ),
    '1' );
FILE_NAME ('27a3.STEP',
    '2022-07-08T14:17:40',
    ( '' ),
    ( '' ),
    'SwSTEP 2.0',
    'SolidWorks 2019',
    '' );
FILE_SCHEMA (( 'CONFIG_CONTROL_DESIGN' ));
ENDSEC;

DATA;
#1 = CIRCLE ( 'NONE', #341, 8.699999999999999289 ) ;
#2 = ORIENTED_EDGE ( 'NONE', *, *, #189, .F. ) ;
#3 = DIRECTION ( 'NONE',  ( -1.000000000000000000, 0.000000000000000000, 0.000000000000000000 ) ) ;
#4 = CYLINDRICAL_SURFACE ( 'NONE', #31, 6.000000000000000888 ) ;
#5 = CARTESIAN_POINT ( 'NONE',  ( -11.00000000000000000, 0.000000000000000000, 0.000000000000000000 ) ) ;
#6 = EDGE_LOOP ( 'NONE', ( #97, #361 ) ) ;
#7 = AXIS2_PLACEMENT_3D ( 'NONE', #291, #266, #215 ) ;
#8 = DIRECTION ( 'NONE',  ( -0.000000000000000000, -0.000000000000000000, -1.000000000000000000 ) ) ;
#9 = DIRECTION ( 'NONE',  ( 1.000000000000000000, 0.000000000000000000, 0.000000000000000000 ) ) ;
#10 = ADVANCED_FACE ( 'NONE', ( #131, #247 ), #162, .T. ) ;
#11 = PERSON_AND_ORGANIZATION ( #154, #12 ) ;
#12 = ORGANIZATION ( 'NEURÈENÝ', 'NEURÈENÝ', '' ) ;
#13 = CALENDAR_DATE ( 2022, 8, 7 ) ;
#14 = VERTEX_POINT ( 'NONE', #135 ) ;
#15 = DATE_TIME_ROLE ( 'classification_date' ) ;
#16 = VERTEX_POINT ( 'NONE', #165 ) ;
#17 = APPROVAL_ROLE ( '' ) ;
#18 = FACE_BOUND ( 'NONE', #312, .T. ) ;
#19 = DIRECTION ( 'NONE',  ( 0.000000000000000000, 0.000000000000000000, 1.000000000000000000 ) ) ;
#20 = ADVANCED_BREP_SHAPE_REPRESENTATION ( '27a3', ( #326, #228 ), #295 ) ;
#21 = DIRECTION ( 'NONE',  ( 1.000000000000000000, 0.000000000000000000, 0.000000000000000000 ) ) ;
#22 = CIRCLE ( 'NONE', #314, 11.00000000000000000 ) ;
#23 = DIRECTION ( 'NONE',  ( 1.000000000000000000, 0.000000000000000000, 0.000000000000000000 ) ) ;
#24 = CARTESIAN_POINT ( 'NONE',  ( 0.000000000000000000, 0.000000000000000000, 757.0000000000000000 ) ) ;
#25 = DIRECTION ( 'NONE',  ( -1.000000000000000000, 0.000000000000000000, 0.000000000000000000 ) ) ;
#26 = CARTESIAN_POINT ( 'NONE',  ( 6.000000000000000888, 7.347880794884120722E-16, 0.000000000000000000 ) ) ;
#27 = EDGE_LOOP ( 'NONE', ( #159, #274, #229, #329 ) ) ;
#28 = CARTESIAN_POINT ( 'NONE',  ( 0.000000000000000000, 0.000000000000000000, 757.0000000000000000 ) ) ;
#29 = AXIS2_PLACEMENT_3D ( 'NONE', #78, #83, #170 ) ;
#30 = CYLINDRICAL_SURFACE ( 'NONE', #255, 8.000000000000000000 ) ;
#31 = AXIS2_PLACEMENT_3D ( 'NONE', #156, #92, #355 ) ;
#32 = CC_DESIGN_APPROVAL ( #48, ( #72 ) ) ;
#33 =( NAMED_UNIT ( * ) SI_UNIT ( $, .STERADIAN. ) SOLID_ANGLE_UNIT ( ) );
#34 = APPROVAL ( #230, 'NEURÈENÝ' ) ;
#35 = EDGE_LOOP ( 'NONE', ( #290, #69, #337, #151 ) ) ;
#36 = DATE_AND_TIME ( #246, #363 ) ;
#37 = VERTEX_POINT ( 'NONE', #100 ) ;
#38 = PERSON_AND_ORGANIZATION_ROLE ( 'design_supplier' ) ;
#39 = DIRECTION ( 'NONE',  ( 1.000000000000000000, 0.000000000000000000, -0.000000000000000000 ) ) ;
#40 = PERSON_AND_ORGANIZATION ( #154, #12 ) ;
#41 = LINE ( 'NONE', #367, #76 ) ;
#42 = APPROVAL_DATE_TIME ( #307, #48 ) ;
#43 = ORIENTED_EDGE ( 'NONE', *, *, #347, .T. ) ;
#44 = DIRECTION ( 'NONE',  ( 0.000000000000000000, 0.000000000000000000, 1.000000000000000000 ) ) ;
#45 = ADVANCED_FACE ( 'NONE', ( #18, #136 ), #71, .F. ) ;
#46 = COORDINATED_UNIVERSAL_TIME_OFFSET ( 1, 0, .AHEAD. ) ;
#47 = DIRECTION ( 'NONE',  ( 1.000000000000000000, 0.000000000000000000, 0.000000000000000000 ) ) ;
#48 = APPROVAL ( #301, 'NEURÈENÝ' ) ;
#49 = ORIENTED_EDGE ( 'NONE', *, *, #310, .T. ) ;
#50 = AXIS2_PLACEMENT_3D ( 'NONE', #88, #143, #23 ) ;
#51 = ORIENTED_EDGE ( 'NONE', *, *, #189, .T. ) ;
#52 = AXIS2_PLACEMENT_3D ( 'NONE', #53, #345, #253 ) ;
#53 = CARTESIAN_POINT ( 'NONE',  ( 0.000000000000000000, 0.000000000000000000, 757.0000000000000000 ) ) ;
#54 = VERTEX_POINT ( 'NONE', #271 ) ;
#55 = LINE ( 'NONE', #381, #132 ) ;
#56 = CARTESIAN_POINT ( 'NONE',  ( 0.000000000000000000, 0.000000000000000000, 7.700000000000040146 ) ) ;
#57 = CARTESIAN_POINT ( 'NONE',  ( -6.000000000000000888, 0.000000000000000000, 757.0000000000000000 ) ) ;
#58 = APPROVAL_PERSON_ORGANIZATION ( #185, #48, #248 ) ;
#59 = CC_DESIGN_PERSON_AND_ORGANIZATION_ASSIGNMENT ( #11, #365, ( #343 ) ) ;
#60 = CYLINDRICAL_SURFACE ( 'NONE', #149, 6.000000000000000888 ) ;
#61 = CARTESIAN_POINT ( 'NONE',  ( 0.000000000000000000, 0.000000000000000000, 7.000000000000000000 ) ) ;
#62 = ORIENTED_EDGE ( 'NONE', *, *, #186, .T. ) ;
#63 = APPROVAL_DATE_TIME ( #36, #375 ) ;
#64 = VECTOR ( 'NONE', #321, 1000.000000000000000 ) ;
#65 = VECTOR ( 'NONE', #209, 1000.000000000000000 ) ;
#66 = ORIENTED_EDGE ( 'NONE', *, *, #82, .T. ) ;
#67 = EDGE_CURVE ( 'NONE', #267, #207, #41, .T. ) ;
#68 = PERSON_AND_ORGANIZATION ( #154, #12 ) ;
#69 = ORIENTED_EDGE ( 'NONE', *, *, #285, .T. ) ;
#70 = AXIS2_PLACEMENT_3D ( 'NONE', #245, #277, #39 ) ;
#71 = PLANE ( 'NONE',  #260 ) ;
#72 = PRODUCT_DEFINITION ( 'NEZNÁMÝ', '', #343, #141 ) ;
#73 = DIRECTION ( 'NONE',  ( 0.000000000000000000, 0.000000000000000000, 1.000000000000000000 ) ) ;
#74 = ORIENTED_EDGE ( 'NONE', *, *, #112, .F. ) ;
#75 = VERTEX_POINT ( 'NONE', #280 ) ;
#76 = VECTOR ( 'NONE', #224, 1000.000000000000000 ) ;
#77 = EDGE_CURVE ( 'NONE', #107, #267, #304, .T. ) ;
#78 = CARTESIAN_POINT ( 'NONE',  ( 8.699999999999999289, 0.000000000000000000, 7.700000000000040146 ) ) ;
#79 = AXIS2_PLACEMENT_3D ( 'NONE', #261, #98, #300 ) ;
#80 = LOCAL_TIME ( 16, 17, 40.00000000000000000, #164 ) ;
#81 = DIRECTION ( 'NONE',  ( -0.000000000000000000, -0.000000000000000000, -1.000000000000000000 ) ) ;
#82 = EDGE_CURVE ( 'NONE', #207, #14, #216, .T. ) ;
#83 = DIRECTION ( 'NONE',  ( 0.000000000000000000, -1.000000000000000000, 0.000000000000000000 ) ) ;
#84 = ORIENTED_EDGE ( 'NONE', *, *, #346, .F. ) ;
#85 = CIRCLE ( 'NONE', #299, 11.00000000000000000 ) ;
#86 = DIRECTION ( 'NONE',  ( 1.000000000000000000, 0.000000000000000000, 0.000000000000000000 ) ) ;
#87 = AXIS2_PLACEMENT_3D ( 'NONE', #28, #155, #268 ) ;
#88 = CARTESIAN_POINT ( 'NONE',  ( 0.000000000000000000, 0.000000000000000000, 7.700000000000040146 ) ) ;
#89 = EDGE_LOOP ( 'NONE', ( #270, #303, #43, #128 ) ) ;
#90 = CARTESIAN_POINT ( 'NONE',  ( 0.000000000000000000, 0.000000000000000000, 7.700000000000040146 ) ) ;
#91 = EDGE_CURVE ( 'NONE', #75, #16, #249, .T. ) ;
#92 = DIRECTION ( 'NONE',  ( 0.000000000000000000, 0.000000000000000000, -1.000000000000000000 ) ) ;
#93 = CC_DESIGN_DATE_AND_TIME_ASSIGNMENT ( #130, #134, ( #72 ) ) ;
#94 = FACE_OUTER_BOUND ( 'NONE', #89, .T. ) ;
#95 = EDGE_CURVE ( 'NONE', #259, #54, #319, .T. ) ;
#96 = DIRECTION ( 'NONE',  ( -1.000000000000000000, 0.000000000000000000, 0.000000000000000000 ) ) ;
#97 = ORIENTED_EDGE ( 'NONE', *, *, #77, .T. ) ;
#98 = DIRECTION ( 'NONE',  ( -0.000000000000000000, -0.000000000000000000, -1.000000000000000000 ) ) ;
#99 = FACE_OUTER_BOUND ( 'NONE', #27, .T. ) ;
#100 = CARTESIAN_POINT ( 'NONE',  ( 8.699999999999999289, 0.000000000000000000, 7.000000000000020428 ) ) ;
#101 = CIRCLE ( 'NONE', #371, 8.000000000000000000 ) ;
#102 = CC_DESIGN_APPROVAL ( #375, ( #343 ) ) ;
#103 = SECURITY_CLASSIFICATION_LEVEL ( 'unclassified' ) ;
#104 = ORIENTED_EDGE ( 'NONE', *, *, #193, .T. ) ;
#105 = COORDINATED_UNIVERSAL_TIME_OFFSET ( 1, 0, .AHEAD. ) ;
#106 = CALENDAR_DATE ( 2022, 8, 7 ) ;
#107 = VERTEX_POINT ( 'NONE', #227 ) ;
#108 = AXIS2_PLACEMENT_3D ( 'NONE', #349, #113, #183 ) ;
#109 = LOCAL_TIME ( 16, 17, 40.00000000000000000, #46 ) ;
#110 = PERSON_AND_ORGANIZATION ( #154, #12 ) ;
#111 = ORIENTED_EDGE ( 'NONE', *, *, #77, .F. ) ;
#112 = EDGE_CURVE ( 'NONE', #207, #37, #200, .T. ) ;
#113 = DIRECTION ( 'NONE',  ( 0.000000000000000000, 0.000000000000000000, 1.000000000000000000 ) ) ;
#114 = ORIENTED_EDGE ( 'NONE', *, *, #148, .T. ) ;
#115 = CARTESIAN_POINT ( 'NONE',  ( 8.000000000000000000, 9.797174393178825657E-16, 7.700000000000040146 ) ) ;
#116 = APPROVAL_ROLE ( '' ) ;
#117 = CYLINDRICAL_SURFACE ( 'NONE', #52, 8.000000000000000000 ) ;
#118 = DIRECTION ( 'NONE',  ( -0.000000000000000000, -0.000000000000000000, -1.000000000000000000 ) ) ;
#119 = VECTOR ( 'NONE', #8, 1000.000000000000000 ) ;
#120 = DIRECTION ( 'NONE',  ( 1.000000000000000000, 0.000000000000000000, 0.000000000000000000 ) ) ;
#121 = CC_DESIGN_PERSON_AND_ORGANIZATION_ASSIGNMENT ( #110, #190, ( #139 ) ) ;
#122 = FACE_OUTER_BOUND ( 'NONE', #323, .T. ) ;
#123 = CYLINDRICAL_SURFACE ( 'NONE', #350, 11.00000000000000000 ) ;
#124 = AXIS2_PLACEMENT_3D ( 'NONE', #283, #254, #320 ) ;
#125 = DIRECTION ( 'NONE',  ( 0.000000000000000000, 0.000000000000000000, -1.000000000000000000 ) ) ;
#126 = AXIS2_PLACEMENT_3D ( 'NONE', #257, #379, #47 ) ;
#127 = EDGE_CURVE ( 'NONE', #16, #75, #85, .T. ) ;
#128 = ORIENTED_EDGE ( 'NONE', *, *, #177, .T. ) ;
#129 = CARTESIAN_POINT ( 'NONE',  ( -11.00000000000000000, 0.000000000000000000, 7.000000000000000000 ) ) ;
#130 = DATE_AND_TIME ( #13, #238 ) ;
#131 = FACE_BOUND ( 'NONE', #335, .T. ) ;
#132 = VECTOR ( 'NONE', #125, 1000.000000000000000 ) ;
#133 = EDGE_LOOP ( 'NONE', ( #173, #111, #377, #49 ) ) ;
#134 = DATE_TIME_ROLE ( 'creation_date' ) ;
#135 = CARTESIAN_POINT ( 'NONE',  ( -8.000000000000000000, 0.000000000000000000, 7.700000000000040146 ) ) ;
#136 = FACE_OUTER_BOUND ( 'NONE', #211, .T. ) ;
#137 = CIRCLE ( 'NONE', #204, 6.000000000000000888 ) ;
#138 = CARTESIAN_POINT ( 'NONE',  ( 0.000000000000000000, 0.000000000000000000, 0.000000000000000000 ) ) ;
#139 = PRODUCT ( '27a3', '27a3', '', ( #223 ) ) ;
#140 = DIRECTION ( 'NONE',  ( 1.000000000000000000, 0.000000000000000000, 0.000000000000000000 ) ) ;
#141 = DESIGN_CONTEXT ( 'detailed design', #356, 'design' ) ;
#142 = TOROIDAL_SURFACE ( 'NONE', #362, 8.699999999999999289, 0.6999999999999999556 ) ;
#143 = DIRECTION ( 'NONE',  ( 0.000000000000000000, 0.000000000000000000, 1.000000000000000000 ) ) ;
#144 = DATE_AND_TIME ( #201, #109 ) ;
#145 = CARTESIAN_POINT ( 'NONE',  ( 0.000000000000000000, 0.000000000000000000, 0.000000000000000000 ) ) ;
#146 = EDGE_LOOP ( 'NONE', ( #214, #174 ) ) ;
#147 = DIRECTION ( 'NONE',  ( -0.000000000000000000, -0.000000000000000000, -1.000000000000000000 ) ) ;
#148 = EDGE_CURVE ( 'NONE', #351, #240, #330, .T. ) ;
#149 = AXIS2_PLACEMENT_3D ( 'NONE', #24, #354, #25 ) ;
#150 = DIRECTION ( 'NONE',  ( 1.000000000000000000, 0.000000000000000000, 0.000000000000000000 ) ) ;
#151 = ORIENTED_EDGE ( 'NONE', *, *, #347, .F. ) ;
#152 = ADVANCED_FACE ( 'NONE', ( #315 ), #117, .T. ) ;
#153 = FACE_OUTER_BOUND ( 'NONE', #298, .T. ) ;
#154 = PERSON ( 'NEURÈENÝ', 'NEURÈENÝ', 'NEURÈENÝ', ('NEURÈENÝ'), ('NEURÈENÝ'), ('NEURÈENÝ') ) ;
#155 = DIRECTION ( 'NONE',  ( 0.000000000000000000, 0.000000000000000000, 1.000000000000000000 ) ) ;
#156 = CARTESIAN_POINT ( 'NONE',  ( 0.000000000000000000, 0.000000000000000000, 757.0000000000000000 ) ) ;
#157 = TOROIDAL_SURFACE ( 'NONE', #178, 8.699999999999999289, 0.6999999999999999556 ) ;
#158 = CC_DESIGN_SECURITY_CLASSIFICATION ( #212, ( #343 ) ) ;
#159 = ORIENTED_EDGE ( 'NONE', *, *, #322, .F. ) ;
#160 = COORDINATED_UNIVERSAL_TIME_OFFSET ( 1, 0, .AHEAD. ) ;
#161 = DIRECTION ( 'NONE',  ( 1.000000000000000000, 0.000000000000000000, 0.000000000000000000 ) ) ;
#162 = PLANE ( 'NONE',  #70 ) ;
#163 = CC_DESIGN_PERSON_AND_ORGANIZATION_ASSIGNMENT ( #166, #273, ( #72 ) ) ;
#164 = COORDINATED_UNIVERSAL_TIME_OFFSET ( 1, 0, .AHEAD. ) ;
#165 = CARTESIAN_POINT ( 'NONE',  ( 11.00000000000000000, 1.347111479062088405E-15, 7.000000000000000000 ) ) ;
#166 = PERSON_AND_ORGANIZATION ( #154, #12 ) ;
#167 = ORIENTED_EDGE ( 'NONE', *, *, #265, .F. ) ;
#168 = AXIS2_PLACEMENT_3D ( 'NONE', #145, #19, #198 ) ;
#169 = SHAPE_DEFINITION_REPRESENTATION ( #313, #20 ) ;
#170 = DIRECTION ( 'NONE',  ( 0.000000000000000000, 0.000000000000000000, -1.000000000000000000 ) ) ;
#171 = CARTESIAN_POINT ( 'NONE',  ( 0.000000000000000000, 0.000000000000000000, 0.000000000000000000 ) ) ;
#172 = CC_DESIGN_PERSON_AND_ORGANIZATION_ASSIGNMENT ( #40, #222, ( #212 ) ) ;
#173 = ORIENTED_EDGE ( 'NONE', *, *, #67, .F. ) ;
#174 = ORIENTED_EDGE ( 'NONE', *, *, #327, .F. ) ;
#175 = CYLINDRICAL_SURFACE ( 'NONE', #79, 11.00000000000000000 ) ;
#176 = CARTESIAN_POINT ( 'NONE',  ( 0.000000000000000000, 0.000000000000000000, 757.0000000000000000 ) ) ;
#177 = EDGE_CURVE ( 'NONE', #225, #242, #311, .T. ) ;
#178 = AXIS2_PLACEMENT_3D ( 'NONE', #90, #181, #120 ) ;
#179 = DIRECTION ( 'NONE',  ( 0.000000000000000000, 0.000000000000000000, 1.000000000000000000 ) ) ;
#180 = ORIENTED_EDGE ( 'NONE', *, *, #232, .T. ) ;
#181 = DIRECTION ( 'NONE',  ( 0.000000000000000000, 0.000000000000000000, 1.000000000000000000 ) ) ;
#182 = EDGE_LOOP ( 'NONE', ( #251, #293, #66, #84 ) ) ;
#183 = DIRECTION ( 'NONE',  ( 1.000000000000000000, 0.000000000000000000, -0.000000000000000000 ) ) ;
#184 = CIRCLE ( 'NONE', #252, 0.6999999999999992895 ) ;
#185 = PERSON_AND_ORGANIZATION ( #154, #12 ) ;
#186 = EDGE_CURVE ( 'NONE', #37, #195, #1, .T. ) ;
#187 = ORIENTED_EDGE ( 'NONE', *, *, #91, .F. ) ;
#188 =( NAMED_UNIT ( * ) PLANE_ANGLE_UNIT ( ) SI_UNIT ( $, .RADIAN. ) );
#189 = EDGE_CURVE ( 'NONE', #240, #351, #22, .T. ) ;
#190 = PERSON_AND_ORGANIZATION_ROLE ( 'design_owner' ) ;
#191 = ORIENTED_EDGE ( 'NONE', *, *, #265, .T. ) ;
#192 = AXIS2_PLACEMENT_3D ( 'NONE', #231, #348, #373 ) ;
#193 = EDGE_CURVE ( 'NONE', #195, #37, #333, .T. ) ;
#194 = DIRECTION ( 'NONE',  ( 1.000000000000000000, 0.000000000000000000, 0.000000000000000000 ) ) ;
#195 = VERTEX_POINT ( 'NONE', #374 ) ;
#196 = ORIENTED_EDGE ( 'NONE', *, *, #186, .F. ) ;
#197 = APPROVAL_DATE_TIME ( #144, #34 ) ;
#198 = DIRECTION ( 'NONE',  ( 1.000000000000000000, 0.000000000000000000, 0.000000000000000000 ) ) ;
#199 = CARTESIAN_POINT ( 'NONE',  ( 0.000000000000000000, 0.000000000000000000, 7.000000000000000000 ) ) ;
#200 = CIRCLE ( 'NONE', #29, 0.7000000000000000666 ) ;
#201 = CALENDAR_DATE ( 2022, 8, 7 ) ;
#202 = FACE_OUTER_BOUND ( 'NONE', #6, .T. ) ;
#203 = ORIENTED_EDGE ( 'NONE', *, *, #127, .F. ) ;
#204 = AXIS2_PLACEMENT_3D ( 'NONE', #171, #118, #86 ) ;
#205 = DIRECTION ( 'NONE',  ( 0.000000000000000000, 0.000000000000000000, 1.000000000000000000 ) ) ;
#206 = APPLICATION_CONTEXT ( 'configuration controlled 3d designs of mechanical parts and assemblies' ) ;
#207 = VERTEX_POINT ( 'NONE', #115 ) ;
#208 = EDGE_CURVE ( 'NONE', #242, #225, #137, .T. ) ;
#209 = DIRECTION ( 'NONE',  ( -0.000000000000000000, -0.000000000000000000, -1.000000000000000000 ) ) ;
#210 = LINE ( 'NONE', #328, #119 ) ;
#211 = EDGE_LOOP ( 'NONE', ( #2, #359 ) ) ;
#212 = SECURITY_CLASSIFICATION ( '', '', #103 ) ;
#213 = FACE_OUTER_BOUND ( 'NONE', #35, .T. ) ;
#214 = ORIENTED_EDGE ( 'NONE', *, *, #95, .F. ) ;
#215 = DIRECTION ( 'NONE',  ( 1.000000000000000000, 0.000000000000000000, 0.000000000000000000 ) ) ;
#216 = CIRCLE ( 'NONE', #50, 8.000000000000000000 ) ;
#217 = FACE_OUTER_BOUND ( 'NONE', #133, .T. ) ;
#218 = ADVANCED_FACE ( 'NONE', ( #286, #202 ), #233, .T. ) ;
#219 = VECTOR ( 'NONE', #234, 1000.000000000000000 ) ;
#220 = CC_DESIGN_APPROVAL ( #34, ( #212 ) ) ;
#221 = CARTESIAN_POINT ( 'NONE',  ( 0.000000000000000000, 0.000000000000000000, 757.0000000000000000 ) ) ;
#222 = PERSON_AND_ORGANIZATION_ROLE ( 'classification_officer' ) ;
#223 = MECHANICAL_CONTEXT ( 'NONE', #206, 'mechanical' ) ;
#224 = DIRECTION ( 'NONE',  ( -0.000000000000000000, -0.000000000000000000, -1.000000000000000000 ) ) ;
#225 = VERTEX_POINT ( 'NONE', #358 ) ;
#226 = CARTESIAN_POINT ( 'NONE',  ( 0.000000000000000000, 0.000000000000000000, 0.000000000000000000 ) ) ;
#227 = CARTESIAN_POINT ( 'NONE',  ( -8.000000000000000000, 0.000000000000000000, 757.0000000000000000 ) ) ;
#228 = AXIS2_PLACEMENT_3D ( 'NONE', #276, #360, #161 ) ;
#229 = ORIENTED_EDGE ( 'NONE', *, *, #112, .T. ) ;
#230 = APPROVAL_STATUS ( 'not_yet_approved' ) ;
#231 = CARTESIAN_POINT ( 'NONE',  ( 0.000000000000000000, 0.000000000000000000, 7.000000000000000000 ) ) ;
#232 = EDGE_CURVE ( 'NONE', #75, #240, #263, .T. ) ;
#233 = PLANE ( 'NONE',  #108 ) ;
#234 = DIRECTION ( 'NONE',  ( -0.000000000000000000, -0.000000000000000000, -1.000000000000000000 ) ) ;
#235 = CARTESIAN_POINT ( 'NONE',  ( 11.00000000000000000, 1.347111479062088405E-15, 7.000000000000000000 ) ) ;
#236 = LINE ( 'NONE', #235, #65 ) ;
#237 = CC_DESIGN_PERSON_AND_ORGANIZATION_ASSIGNMENT ( #366, #38, ( #343 ) ) ;
#238 = LOCAL_TIME ( 16, 17, 40.00000000000000000, #160 ) ;
#239 = DIRECTION ( 'NONE',  ( 1.224646799147353207E-16, 1.000000000000000000, -0.000000000000000000 ) ) ;
#240 = VERTEX_POINT ( 'NONE', #5 ) ;
#241 = ADVANCED_FACE ( 'NONE', ( #353 ), #157, .F. ) ;
#242 = VERTEX_POINT ( 'NONE', #26 ) ;
#243 = ADVANCED_FACE ( 'NONE', ( #153 ), #123, .T. ) ;
#244 = CARTESIAN_POINT ( 'NONE',  ( 0.000000000000000000, 0.000000000000000000, 7.700000000000040146 ) ) ;
#245 = CARTESIAN_POINT ( 'NONE',  ( 0.000000000000000000, 0.000000000000000000, 7.000000000000000000 ) ) ;
#246 = CALENDAR_DATE ( 2022, 8, 7 ) ;
#247 = FACE_OUTER_BOUND ( 'NONE', #340, .T. ) ;
#248 = APPROVAL_ROLE ( '' ) ;
#249 = CIRCLE ( 'NONE', #124, 11.00000000000000000 ) ;
#250 =( LENGTH_UNIT ( ) NAMED_UNIT ( * ) SI_UNIT ( .MILLI., .METRE. ) );
#251 = ORIENTED_EDGE ( 'NONE', *, *, #272, .F. ) ;
#252 = AXIS2_PLACEMENT_3D ( 'NONE', #324, #239, #296 ) ;
#253 = DIRECTION ( 'NONE',  ( -1.000000000000000000, 0.000000000000000000, 0.000000000000000000 ) ) ;
#254 = DIRECTION ( 'NONE',  ( 0.000000000000000000, 0.000000000000000000, 1.000000000000000000 ) ) ;
#255 = AXIS2_PLACEMENT_3D ( 'NONE', #176, #147, #96 ) ;
#256 = ORIENTED_EDGE ( 'NONE', *, *, #310, .F. ) ;
#257 = CARTESIAN_POINT ( 'NONE',  ( 0.000000000000000000, 0.000000000000000000, 0.000000000000000000 ) ) ;
#258 = ADVANCED_FACE ( 'NONE', ( #122 ), #175, .T. ) ;
#259 = VERTEX_POINT ( 'NONE', #57 ) ;
#260 = AXIS2_PLACEMENT_3D ( 'NONE', #226, #44, #344 ) ;
#261 = CARTESIAN_POINT ( 'NONE',  ( 0.000000000000000000, 0.000000000000000000, 7.000000000000000000 ) ) ;
#262 = CIRCLE ( 'NONE', #7, 8.000000000000000000 ) ;
#263 = LINE ( 'NONE', #129, #219 ) ;
#264 = ORIENTED_EDGE ( 'NONE', *, *, #322, .T. ) ;
#265 = EDGE_CURVE ( 'NONE', #16, #351, #236, .T. ) ;
#266 = DIRECTION ( 'NONE',  ( 0.000000000000000000, 0.000000000000000000, 1.000000000000000000 ) ) ;
#267 = VERTEX_POINT ( 'NONE', #297 ) ;
#268 = DIRECTION ( 'NONE',  ( 1.000000000000000000, 0.000000000000000000, 0.000000000000000000 ) ) ;
#269 = LINE ( 'NONE', #357, #64 ) ;
#270 = ORIENTED_EDGE ( 'NONE', *, *, #285, .F. ) ;
#271 = CARTESIAN_POINT ( 'NONE',  ( 6.000000000000000888, 7.347880794884120722E-16, 757.0000000000000000 ) ) ;
#272 = EDGE_CURVE ( 'NONE', #267, #107, #262, .T. ) ;
#273 = PERSON_AND_ORGANIZATION_ROLE ( 'creator' ) ;
#274 = ORIENTED_EDGE ( 'NONE', *, *, #82, .F. ) ;
#275 = LOCAL_TIME ( 16, 17, 40.00000000000000000, #332 ) ;
#276 = CARTESIAN_POINT ( 'NONE',  ( 0.000000000000000000, 0.000000000000000000, 0.000000000000000000 ) ) ;
#277 = DIRECTION ( 'NONE',  ( 0.000000000000000000, 0.000000000000000000, 1.000000000000000000 ) ) ;
#278 = ADVANCED_FACE ( 'NONE', ( #213 ), #60, .F. ) ;
#279 = CALENDAR_DATE ( 2022, 8, 7 ) ;
#280 = CARTESIAN_POINT ( 'NONE',  ( -11.00000000000000000, 0.000000000000000000, 7.000000000000000000 ) ) ;
#281 = ORIENTED_EDGE ( 'NONE', *, *, #232, .F. ) ;
#282 = CC_DESIGN_DATE_AND_TIME_ASSIGNMENT ( #336, #15, ( #212 ) ) ;
#283 = CARTESIAN_POINT ( 'NONE',  ( 0.000000000000000000, 0.000000000000000000, 7.000000000000000000 ) ) ;
#284 = DIRECTION ( 'NONE',  ( 0.000000000000000000, 0.000000000000000000, 1.000000000000000000 ) ) ;
#285 = EDGE_CURVE ( 'NONE', #54, #242, #269, .T. ) ;
#286 = FACE_BOUND ( 'NONE', #146, .T. ) ;
#287 = AXIS2_PLACEMENT_3D ( 'NONE', #221, #370, #9 ) ;
#288 = CARTESIAN_POINT ( 'NONE',  ( 0.000000000000000000, 0.000000000000000000, 7.000000000000000000 ) ) ;
#289 = ORIENTED_EDGE ( 'NONE', *, *, #177, .F. ) ;
#290 = ORIENTED_EDGE ( 'NONE', *, *, #95, .T. ) ;
#291 = CARTESIAN_POINT ( 'NONE',  ( 0.000000000000000000, 0.000000000000000000, 757.0000000000000000 ) ) ;
#292 = CARTESIAN_POINT ( 'NONE',  ( 11.00000000000000000, 1.347111479062088405E-15, 0.000000000000000000 ) ) ;
#293 = ORIENTED_EDGE ( 'NONE', *, *, #67, .T. ) ;
#294 = ADVANCED_FACE ( 'NONE', ( #94 ), #4, .F. ) ;
#295 =( GEOMETRIC_REPRESENTATION_CONTEXT ( 3 ) GLOBAL_UNCERTAINTY_ASSIGNED_CONTEXT ( ( #368 ) ) GLOBAL_UNIT_ASSIGNED_CONTEXT ( ( #250, #188, #33 ) ) REPRESENTATION_CONTEXT ( 'NONE', 'WORKASPACE' ) );
#296 = DIRECTION ( 'NONE',  ( -1.000000000000000000, 1.224646799147353207E-16, 0.000000000000000000 ) ) ;
#297 = CARTESIAN_POINT ( 'NONE',  ( 8.000000000000000000, 9.797174393178825657E-16, 757.0000000000000000 ) ) ;
#298 = EDGE_LOOP ( 'NONE', ( #203, #191, #114, #281 ) ) ;
#299 = AXIS2_PLACEMENT_3D ( 'NONE', #199, #284, #376 ) ;
#300 = DIRECTION ( 'NONE',  ( -1.000000000000000000, 0.000000000000000000, 0.000000000000000000 ) ) ;
#301 = APPROVAL_STATUS ( 'not_yet_approved' ) ;
#302 = APPROVAL_STATUS ( 'not_yet_approved' ) ;
#303 = ORIENTED_EDGE ( 'NONE', *, *, #327, .T. ) ;
#304 = CIRCLE ( 'NONE', #287, 8.000000000000000000 ) ;
#305 = ORIENTED_EDGE ( 'NONE', *, *, #91, .T. ) ;
#306 = CIRCLE ( 'NONE', #87, 6.000000000000000888 ) ;
#307 = DATE_AND_TIME ( #106, #275 ) ;
#308 = PRODUCT_RELATED_PRODUCT_CATEGORY ( 'detail', '', ( #139 ) ) ;
#309 = ORIENTED_EDGE ( 'NONE', *, *, #208, .F. ) ;
#310 = EDGE_CURVE ( 'NONE', #14, #207, #101, .T. ) ;
#311 = CIRCLE ( 'NONE', #126, 6.000000000000000888 ) ;
#312 = EDGE_LOOP ( 'NONE', ( #289, #309 ) ) ;
#313 = PRODUCT_DEFINITION_SHAPE ( 'NONE', 'NONE',  #72 ) ;
#314 = AXIS2_PLACEMENT_3D ( 'NONE', #138, #317, #140 ) ;
#315 = FACE_OUTER_BOUND ( 'NONE', #182, .T. ) ;
#316 = EDGE_LOOP ( 'NONE', ( #256, #264, #196, #74 ) ) ;
#317 = DIRECTION ( 'NONE',  ( 0.000000000000000000, 0.000000000000000000, 1.000000000000000000 ) ) ;
#318 = DIRECTION ( 'NONE',  ( 1.000000000000000000, 0.000000000000000000, 0.000000000000000000 ) ) ;
#319 = CIRCLE ( 'NONE', #369, 6.000000000000000888 ) ;
#320 = DIRECTION ( 'NONE',  ( 1.000000000000000000, 0.000000000000000000, 0.000000000000000000 ) ) ;
#321 = DIRECTION ( 'NONE',  ( 0.000000000000000000, 0.000000000000000000, -1.000000000000000000 ) ) ;
#322 = EDGE_CURVE ( 'NONE', #14, #195, #184, .T. ) ;
#323 = EDGE_LOOP ( 'NONE', ( #167, #187, #180, #51 ) ) ;
#324 = CARTESIAN_POINT ( 'NONE',  ( -8.699999999999999289, 1.065442715258197248E-15, 7.700000000000040146 ) ) ;
#325 = DIRECTION ( 'NONE',  ( -0.000000000000000000, -0.000000000000000000, -1.000000000000000000 ) ) ;
#326 = MANIFOLD_SOLID_BREP ( 'Odebrat vysunutím3', #338 ) ;
#327 = EDGE_CURVE ( 'NONE', #54, #259, #306, .T. ) ;
#328 = CARTESIAN_POINT ( 'NONE',  ( -8.000000000000000000, 0.000000000000000000, 757.0000000000000000 ) ) ;
#329 = ORIENTED_EDGE ( 'NONE', *, *, #193, .F. ) ;
#330 = CIRCLE ( 'NONE', #168, 11.00000000000000000 ) ;
#331 = ADVANCED_FACE ( 'NONE', ( #217 ), #30, .T. ) ;
#332 = COORDINATED_UNIVERSAL_TIME_OFFSET ( 1, 0, .AHEAD. ) ;
#333 = CIRCLE ( 'NONE', #192, 8.699999999999999289 ) ;
#334 = APPLICATION_PROTOCOL_DEFINITION ( 'international standard', 'config_control_design', 1994, #206 ) ;
#335 = EDGE_LOOP ( 'NONE', ( #62, #104 ) ) ;
#336 = DATE_AND_TIME ( #279, #80 ) ;
#337 = ORIENTED_EDGE ( 'NONE', *, *, #208, .T. ) ;
#338 = CLOSED_SHELL ( 'NONE', ( #278, #241, #152, #243, #258, #10, #45, #331, #218, #364, #294 ) ) ;
#339 = PERSON_AND_ORGANIZATION ( #154, #12 ) ;
#340 = EDGE_LOOP ( 'NONE', ( #305, #380 ) ) ;
#341 = AXIS2_PLACEMENT_3D ( 'NONE', #288, #81, #318 ) ;
#342 = APPLICATION_PROTOCOL_DEFINITION ( 'international standard', 'config_control_design', 1994, #356 ) ;
#343 = PRODUCT_DEFINITION_FORMATION_WITH_SPECIFIED_SOURCE ( 'LIBOVOLNÝ', '', #139, .NOT_KNOWN. ) ;
#344 = DIRECTION ( 'NONE',  ( 1.000000000000000000, 0.000000000000000000, -0.000000000000000000 ) ) ;
#345 = DIRECTION ( 'NONE',  ( -0.000000000000000000, -0.000000000000000000, -1.000000000000000000 ) ) ;
#346 = EDGE_CURVE ( 'NONE', #107, #14, #210, .T. ) ;
#347 = EDGE_CURVE ( 'NONE', #259, #225, #55, .T. ) ;
#348 = DIRECTION ( 'NONE',  ( -0.000000000000000000, -0.000000000000000000, -1.000000000000000000 ) ) ;
#349 = CARTESIAN_POINT ( 'NONE',  ( 0.000000000000000000, 0.000000000000000000, 757.0000000000000000 ) ) ;
#350 = AXIS2_PLACEMENT_3D ( 'NONE', #61, #325, #3 ) ;
#351 = VERTEX_POINT ( 'NONE', #292 ) ;
#352 = APPROVAL_PERSON_ORGANIZATION ( #68, #34, #116 ) ;
#353 = FACE_OUTER_BOUND ( 'NONE', #316, .T. ) ;
#354 = DIRECTION ( 'NONE',  ( 0.000000000000000000, 0.000000000000000000, -1.000000000000000000 ) ) ;
#355 = DIRECTION ( 'NONE',  ( -1.000000000000000000, 0.000000000000000000, 0.000000000000000000 ) ) ;
#356 = APPLICATION_CONTEXT ( 'configuration controlled 3d designs of mechanical parts and assemblies' ) ;
#357 = CARTESIAN_POINT ( 'NONE',  ( 6.000000000000000888, 7.347880794884120722E-16, 757.0000000000000000 ) ) ;
#358 = CARTESIAN_POINT ( 'NONE',  ( -6.000000000000000888, 0.000000000000000000, 0.000000000000000000 ) ) ;
#359 = ORIENTED_EDGE ( 'NONE', *, *, #148, .F. ) ;
#360 = DIRECTION ( 'NONE',  ( 0.000000000000000000, 0.000000000000000000, 1.000000000000000000 ) ) ;
#361 = ORIENTED_EDGE ( 'NONE', *, *, #272, .T. ) ;
#362 = AXIS2_PLACEMENT_3D ( 'NONE', #244, #73, #194 ) ;
#363 = LOCAL_TIME ( 16, 17, 40.00000000000000000, #105 ) ;
#364 = ADVANCED_FACE ( 'NONE', ( #99 ), #142, .F. ) ;
#365 = PERSON_AND_ORGANIZATION_ROLE ( 'creator' ) ;
#366 = PERSON_AND_ORGANIZATION ( #154, #12 ) ;
#367 = CARTESIAN_POINT ( 'NONE',  ( 8.000000000000000000, 9.797174393178825657E-16, 757.0000000000000000 ) ) ;
#368 = UNCERTAINTY_MEASURE_WITH_UNIT (LENGTH_MEASURE( 1.000000000000000082E-05 ), #250, 'distance_accuracy_value', 'NONE');
#369 = AXIS2_PLACEMENT_3D ( 'NONE', #378, #205, #21 ) ;
#370 = DIRECTION ( 'NONE',  ( 0.000000000000000000, 0.000000000000000000, 1.000000000000000000 ) ) ;
#371 = AXIS2_PLACEMENT_3D ( 'NONE', #56, #179, #150 ) ;
#372 = APPROVAL_PERSON_ORGANIZATION ( #339, #375, #17 ) ;
#373 = DIRECTION ( 'NONE',  ( 1.000000000000000000, 0.000000000000000000, 0.000000000000000000 ) ) ;
#374 = CARTESIAN_POINT ( 'NONE',  ( -8.699999999999999289, 1.065442715258197248E-15, 7.000000000000020428 ) ) ;
#375 = APPROVAL ( #302, 'NEURÈENÝ' ) ;
#376 = DIRECTION ( 'NONE',  ( 1.000000000000000000, 0.000000000000000000, 0.000000000000000000 ) ) ;
#377 = ORIENTED_EDGE ( 'NONE', *, *, #346, .T. ) ;
#378 = CARTESIAN_POINT ( 'NONE',  ( 0.000000000000000000, 0.000000000000000000, 757.0000000000000000 ) ) ;
#379 = DIRECTION ( 'NONE',  ( -0.000000000000000000, -0.000000000000000000, -1.000000000000000000 ) ) ;
#380 = ORIENTED_EDGE ( 'NONE', *, *, #127, .T. ) ;
#381 = CARTESIAN_POINT ( 'NONE',  ( -6.000000000000000888, 0.000000000000000000, 757.0000000000000000 ) ) ;
ENDSEC;
END-ISO-10303-21;
