ISO-10303-21;
HEADER;
FILE_DESCRIPTION (( 'STEP AP203' ),
    '1' );
FILE_NAME ('fc23.STEP',
    '2022-07-08T14:27:37',
    ( '' ),
    ( '' ),
    'SwSTEP 2.0',
    'SolidWorks 2019',
    '' );
FILE_SCHEMA (( 'CONFIG_CONTROL_DESIGN' ));
ENDSEC;

DATA;
#1 = ORIENTED_EDGE ( 'NONE', *, *, #133, .F. ) ;
#2 = CALENDAR_DATE ( 2022, 8, 7 ) ;
#3 = AXIS2_PLACEMENT_3D ( 'NONE', #34, #380, #320 ) ;
#4 = EDGE_CURVE ( 'NONE', #256, #207, #347, .T. ) ;
#5 = LINE ( 'NONE', #27, #71 ) ;
#6 = CC_DESIGN_DATE_AND_TIME_ASSIGNMENT ( #46, #162, ( #348 ) ) ;
#7 = APPROVAL_DATE_TIME ( #242, #326 ) ;
#8 = CARTESIAN_POINT ( 'NONE',  ( 4.500000000000000000, 5.510910596163088569E-16, 0.000000000000000000 ) ) ;
#9 = SHAPE_DEFINITION_REPRESENTATION ( #106, #164 ) ;
#10 = CARTESIAN_POINT ( 'NONE',  ( -6.000000000000000888, 0.000000000000000000, 182.0000000000000000 ) ) ;
#11 = AXIS2_PLACEMENT_3D ( 'NONE', #19, #113, #173 ) ;
#12 = CARTESIAN_POINT ( 'NONE',  ( 0.000000000000000000, 0.000000000000000000, 7.000000000000000000 ) ) ;
#13 = FACE_OUTER_BOUND ( 'NONE', #317, .T. ) ;
#14 = ORIENTED_EDGE ( 'NONE', *, *, #301, .T. ) ;
#15 = CC_DESIGN_SECURITY_CLASSIFICATION ( #348, ( #109 ) ) ;
#16 = DIRECTION ( 'NONE',  ( 1.000000000000000000, 0.000000000000000000, 0.000000000000000000 ) ) ;
#17 = AXIS2_PLACEMENT_3D ( 'NONE', #101, #299, #70 ) ;
#18 = EDGE_CURVE ( 'NONE', #291, #256, #287, .T. ) ;
#19 = CARTESIAN_POINT ( 'NONE',  ( 0.000000000000000000, 0.000000000000000000, 182.0000000000000000 ) ) ;
#20 = PRODUCT ( 'fc23', 'fc23', '', ( #61 ) ) ;
#21 = CARTESIAN_POINT ( 'NONE',  ( 0.000000000000000000, 0.000000000000000000, 182.0000000000000000 ) ) ;
#22 = EDGE_LOOP ( 'NONE', ( #229, #99 ) ) ;
#23 = CARTESIAN_POINT ( 'NONE',  ( 0.000000000000000000, 0.000000000000000000, 182.0000000000000000 ) ) ;
#24 = EDGE_LOOP ( 'NONE', ( #200, #231, #248, #203 ) ) ;
#25 = AXIS2_PLACEMENT_3D ( 'NONE', #12, #190, #302 ) ;
#26 = CARTESIAN_POINT ( 'NONE',  ( 4.500000000000000000, 5.510910596163088569E-16, 182.0000000000000000 ) ) ;
#27 = CARTESIAN_POINT ( 'NONE',  ( -4.500000000000000000, 0.000000000000000000, 182.0000000000000000 ) ) ;
#28 = EDGE_LOOP ( 'NONE', ( #1, #237, #14, #264 ) ) ;
#29 = EDGE_CURVE ( 'NONE', #289, #207, #366, .T. ) ;
#30 = EDGE_CURVE ( 'NONE', #207, #256, #143, .T. ) ;
#31 = AXIS2_PLACEMENT_3D ( 'NONE', #79, #199, #111 ) ;
#32 = APPLICATION_PROTOCOL_DEFINITION ( 'international standard', 'config_control_design', 1994, #214 ) ;
#33 = ORIENTED_EDGE ( 'NONE', *, *, #119, .T. ) ;
#34 = CARTESIAN_POINT ( 'NONE',  ( 0.000000000000000000, 0.000000000000000000, 7.000000000000000000 ) ) ;
#35 =( LENGTH_UNIT ( ) NAMED_UNIT ( * ) SI_UNIT ( .MILLI., .METRE. ) );
#36 = CARTESIAN_POINT ( 'NONE',  ( -6.700000000000001066, 8.205133554287267548E-16, 7.700000000000012612 ) ) ;
#37 = CIRCLE ( 'NONE', #177, 4.500000000000000000 ) ;
#38 = PRODUCT_RELATED_PRODUCT_CATEGORY ( 'detail', '', ( #20 ) ) ;
#39 = PERSON_AND_ORGANIZATION_ROLE ( 'creator' ) ;
#40 = DIRECTION ( 'NONE',  ( 1.000000000000000000, 0.000000000000000000, 0.000000000000000000 ) ) ;
#41 = DIRECTION ( 'NONE',  ( -0.000000000000000000, -0.000000000000000000, -1.000000000000000000 ) ) ;
#42 = CALENDAR_DATE ( 2022, 8, 7 ) ;
#43 = DIRECTION ( 'NONE',  ( 0.000000000000000000, 0.000000000000000000, 1.000000000000000000 ) ) ;
#44 = AXIS2_PLACEMENT_3D ( 'NONE', #56, #255, #197 ) ;
#45 = DIRECTION ( 'NONE',  ( -0.000000000000000000, -0.000000000000000000, -1.000000000000000000 ) ) ;
#46 = DATE_AND_TIME ( #192, #165 ) ;
#47 = CC_DESIGN_PERSON_AND_ORGANIZATION_ASSIGNMENT ( #158, #188, ( #348 ) ) ;
#48 = APPROVAL_PERSON_ORGANIZATION ( #352, #59, #209 ) ;
#49 = CARTESIAN_POINT ( 'NONE',  ( 0.000000000000000000, 0.000000000000000000, 7.000000000000000000 ) ) ;
#50 = ORIENTED_EDGE ( 'NONE', *, *, #262, .T. ) ;
#51 = CARTESIAN_POINT ( 'NONE',  ( 0.000000000000000000, 0.000000000000000000, 0.000000000000000000 ) ) ;
#52 = CLOSED_SHELL ( 'NONE', ( #154, #160, #353, #338, #178, #329, #170, #88, #267, #69, #293 ) ) ;
#53 = AXIS2_PLACEMENT_3D ( 'NONE', #225, #282, #134 ) ;
#54 = DIRECTION ( 'NONE',  ( 1.000000000000000000, 0.000000000000000000, 0.000000000000000000 ) ) ;
#55 = CC_DESIGN_APPROVAL ( #326, ( #348 ) ) ;
#56 = CARTESIAN_POINT ( 'NONE',  ( 0.000000000000000000, 0.000000000000000000, 7.000000000000000000 ) ) ;
#57 = ORIENTED_EDGE ( 'NONE', *, *, #194, .T. ) ;
#58 = DIRECTION ( 'NONE',  ( -1.000000000000000000, 1.224646799147353454E-16, 0.000000000000000000 ) ) ;
#59 = APPROVAL ( #87, 'NEURÈENÝ' ) ;
#60 = EDGE_LOOP ( 'NONE', ( #290, #147, #277, #313 ) ) ;
#61 = MECHANICAL_CONTEXT ( 'NONE', #149, 'mechanical' ) ;
#62 = EDGE_LOOP ( 'NONE', ( #261, #50, #234, #127 ) ) ;
#63 = AXIS2_PLACEMENT_3D ( 'NONE', #36, #241, #58 ) ;
#64 = FACE_OUTER_BOUND ( 'NONE', #335, .T. ) ;
#65 = CARTESIAN_POINT ( 'NONE',  ( 0.000000000000000000, 0.000000000000000000, 7.700000000000012612 ) ) ;
#66 = LOCAL_TIME ( 16, 27, 37.00000000000000000, #185 ) ;
#67 = COORDINATED_UNIVERSAL_TIME_OFFSET ( 1, 0, .AHEAD. ) ;
#68 = DIRECTION ( 'NONE',  ( -1.000000000000000000, 0.000000000000000000, 0.000000000000000000 ) ) ;
#69 = ADVANCED_FACE ( 'NONE', ( #128 ), #77, .F. ) ;
#70 = DIRECTION ( 'NONE',  ( 1.000000000000000000, 0.000000000000000000, 0.000000000000000000 ) ) ;
#71 = VECTOR ( 'NONE', #151, 1000.000000000000000 ) ;
#72 = CYLINDRICAL_SURFACE ( 'NONE', #285, 4.500000000000000000 ) ;
#73 = CIRCLE ( 'NONE', #269, 6.000000000000000888 ) ;
#74 = MANIFOLD_SOLID_BREP ( 'Odebrat vysunutím3', #52 ) ;
#75 = COORDINATED_UNIVERSAL_TIME_OFFSET ( 1, 0, .AHEAD. ) ;
#76 = DIRECTION ( 'NONE',  ( 0.000000000000000000, 0.000000000000000000, 1.000000000000000000 ) ) ;
#77 = TOROIDAL_SURFACE ( 'NONE', #339, 6.700000000000001066, 0.6999999999999999556 ) ;
#78 = ORIENTED_EDGE ( 'NONE', *, *, #309, .F. ) ;
#79 = CARTESIAN_POINT ( 'NONE',  ( 0.000000000000000000, 0.000000000000000000, 182.0000000000000000 ) ) ;
#80 = EDGE_LOOP ( 'NONE', ( #224, #139 ) ) ;
#81 = ORIENTED_EDGE ( 'NONE', *, *, #133, .T. ) ;
#82 = FACE_OUTER_BOUND ( 'NONE', #354, .T. ) ;
#83 = AXIS2_PLACEMENT_3D ( 'NONE', #142, #294, #316 ) ;
#84 =( NAMED_UNIT ( * ) PLANE_ANGLE_UNIT ( ) SI_UNIT ( $, .RADIAN. ) );
#85 = ORIENTED_EDGE ( 'NONE', *, *, #92, .F. ) ;
#86 = EDGE_LOOP ( 'NONE', ( #227, #319, #115, #191 ) ) ;
#87 = APPROVAL_STATUS ( 'not_yet_approved' ) ;
#88 = ADVANCED_FACE ( 'NONE', ( #333 ), #243, .T. ) ;
#89 = AXIS2_PLACEMENT_3D ( 'NONE', #216, #218, #68 ) ;
#90 = AXIS2_PLACEMENT_3D ( 'NONE', #253, #41, #276 ) ;
#91 = FACE_OUTER_BOUND ( 'NONE', #28, .T. ) ;
#92 = EDGE_CURVE ( 'NONE', #167, #175, #210, .T. ) ;
#93 = PERSON_AND_ORGANIZATION ( #105, #324 ) ;
#94 = CALENDAR_DATE ( 2022, 8, 7 ) ;
#95 = VECTOR ( 'NONE', #337, 1000.000000000000000 ) ;
#96 = DIRECTION ( 'NONE',  ( -0.000000000000000000, -0.000000000000000000, -1.000000000000000000 ) ) ;
#97 = DIRECTION ( 'NONE',  ( 0.000000000000000000, 0.000000000000000000, 1.000000000000000000 ) ) ;
#98 = APPROVAL_STATUS ( 'not_yet_approved' ) ;
#99 = ORIENTED_EDGE ( 'NONE', *, *, #301, .F. ) ;
#100 = AXIS2_PLACEMENT_3D ( 'NONE', #51, #226, #372 ) ;
#101 = CARTESIAN_POINT ( 'NONE',  ( 0.000000000000000000, 0.000000000000000000, 7.000000000000000000 ) ) ;
#102 = CARTESIAN_POINT ( 'NONE',  ( 0.000000000000000000, 0.000000000000000000, 182.0000000000000000 ) ) ;
#103 = FACE_OUTER_BOUND ( 'NONE', #60, .T. ) ;
#104 = ORIENTED_EDGE ( 'NONE', *, *, #344, .F. ) ;
#105 = PERSON ( 'NEURÈENÝ', 'NEURÈENÝ', 'NEURÈENÝ', ('NEURÈENÝ'), ('NEURÈENÝ'), ('NEURÈENÝ') ) ;
#106 = PRODUCT_DEFINITION_SHAPE ( 'NONE', 'NONE',  #183 ) ;
#107 = LINE ( 'NONE', #308, #95 ) ;
#108 = VECTOR ( 'NONE', #45, 1000.000000000000000 ) ;
#109 = PRODUCT_DEFINITION_FORMATION_WITH_SPECIFIED_SOURCE ( 'LIBOVOLNÝ', '', #20, .NOT_KNOWN. ) ;
#110 = ORIENTED_EDGE ( 'NONE', *, *, #254, .F. ) ;
#111 = DIRECTION ( 'NONE',  ( 1.000000000000000000, 0.000000000000000000, 0.000000000000000000 ) ) ;
#112 = CC_DESIGN_DATE_AND_TIME_ASSIGNMENT ( #278, #217, ( #183 ) ) ;
#113 = DIRECTION ( 'NONE',  ( 0.000000000000000000, 0.000000000000000000, 1.000000000000000000 ) ) ;
#114 = AXIS2_PLACEMENT_3D ( 'NONE', #169, #260, #228 ) ;
#115 = ORIENTED_EDGE ( 'NONE', *, *, #201, .F. ) ;
#116 = ORIENTED_EDGE ( 'NONE', *, *, #239, .F. ) ;
#117 = CYLINDRICAL_SURFACE ( 'NONE', #3, 10.00000000000000000 ) ;
#118 = CARTESIAN_POINT ( 'NONE',  ( 0.000000000000000000, 0.000000000000000000, 0.000000000000000000 ) ) ;
#119 = EDGE_CURVE ( 'NONE', #137, #206, #221, .T. ) ;
#120 = DATE_AND_TIME ( #2, #263 ) ;
#121 = APPROVAL_STATUS ( 'not_yet_approved' ) ;
#122 = FACE_BOUND ( 'NONE', #283, .T. ) ;
#123 = PERSON_AND_ORGANIZATION_ROLE ( 'design_supplier' ) ;
#124 = CARTESIAN_POINT ( 'NONE',  ( 0.000000000000000000, 0.000000000000000000, 7.000000000000000000 ) ) ;
#125 = COORDINATED_UNIVERSAL_TIME_OFFSET ( 1, 0, .AHEAD. ) ;
#126 = CC_DESIGN_PERSON_AND_ORGANIZATION_ASSIGNMENT ( #298, #123, ( #109 ) ) ;
#127 = ORIENTED_EDGE ( 'NONE', *, *, #376, .F. ) ;
#128 = FACE_OUTER_BOUND ( 'NONE', #24, .T. ) ;
#129 = CC_DESIGN_APPROVAL ( #381, ( #109 ) ) ;
#130 = DIRECTION ( 'NONE',  ( 0.000000000000000000, 0.000000000000000000, 1.000000000000000000 ) ) ;
#131 = DIRECTION ( 'NONE',  ( -0.000000000000000000, -0.000000000000000000, -1.000000000000000000 ) ) ;
#132 = EDGE_CURVE ( 'NONE', #289, #291, #73, .T. ) ;
#133 = EDGE_CURVE ( 'NONE', #206, #137, #281, .T. ) ;
#134 = DIRECTION ( 'NONE',  ( -1.000000000000000000, 0.000000000000000000, 0.000000000000000000 ) ) ;
#135 = CARTESIAN_POINT ( 'NONE',  ( 6.000000000000000888, 7.347880794884120722E-16, 182.0000000000000000 ) ) ;
#136 = CIRCLE ( 'NONE', #63, 0.7000000000000000666 ) ;
#137 = VERTEX_POINT ( 'NONE', #369 ) ;
#138 = CYLINDRICAL_SURFACE ( 'NONE', #53, 4.500000000000000000 ) ;
#139 = ORIENTED_EDGE ( 'NONE', *, *, #280, .T. ) ;
#140 = DIRECTION ( 'NONE',  ( 0.000000000000000000, 0.000000000000000000, -1.000000000000000000 ) ) ;
#141 = ORIENTED_EDGE ( 'NONE', *, *, #18, .T. ) ;
#142 = CARTESIAN_POINT ( 'NONE',  ( 0.000000000000000000, 0.000000000000000000, 182.0000000000000000 ) ) ;
#143 = CIRCLE ( 'NONE', #360, 6.000000000000000888 ) ;
#144 = VECTOR ( 'NONE', #305, 1000.000000000000000 ) ;
#145 = ORIENTED_EDGE ( 'NONE', *, *, #132, .F. ) ;
#146 = DIRECTION ( 'NONE',  ( 1.000000000000000000, 0.000000000000000000, 0.000000000000000000 ) ) ;
#147 = ORIENTED_EDGE ( 'NONE', *, *, #309, .T. ) ;
#148 = PERSON_AND_ORGANIZATION_ROLE ( 'design_owner' ) ;
#149 = APPLICATION_CONTEXT ( 'configuration controlled 3d designs of mechanical parts and assemblies' ) ;
#150 = CIRCLE ( 'NONE', #100, 10.00000000000000000 ) ;
#151 = DIRECTION ( 'NONE',  ( 0.000000000000000000, 0.000000000000000000, -1.000000000000000000 ) ) ;
#152 = CALENDAR_DATE ( 2022, 8, 7 ) ;
#153 = DIRECTION ( 'NONE',  ( 1.000000000000000000, 0.000000000000000000, -0.000000000000000000 ) ) ;
#154 = ADVANCED_FACE ( 'NONE', ( #327 ), #72, .F. ) ;
#155 = APPROVAL_ROLE ( '' ) ;
#156 = AXIS2_PLACEMENT_3D ( 'NONE', #250, #43, #153 ) ;
#157 = CARTESIAN_POINT ( 'NONE',  ( -4.500000000000000000, 0.000000000000000000, 0.000000000000000000 ) ) ;
#158 = PERSON_AND_ORGANIZATION ( #105, #324 ) ;
#159 = CARTESIAN_POINT ( 'NONE',  ( 6.000000000000000888, 7.347880794884120722E-16, 182.0000000000000000 ) ) ;
#160 = ADVANCED_FACE ( 'NONE', ( #186 ), #184, .F. ) ;
#161 = ORIENTED_EDGE ( 'NONE', *, *, #132, .T. ) ;
#162 = DATE_TIME_ROLE ( 'classification_date' ) ;
#163 = DIRECTION ( 'NONE',  ( 1.000000000000000000, 0.000000000000000000, 0.000000000000000000 ) ) ;
#164 = ADVANCED_BREP_SHAPE_REPRESENTATION ( 'fc23', ( #74, #274 ), #233 ) ;
#165 = LOCAL_TIME ( 16, 27, 37.00000000000000000, #125 ) ;
#166 = DIRECTION ( 'NONE',  ( 1.000000000000000000, 0.000000000000000000, -0.000000000000000000 ) ) ;
#167 = VERTEX_POINT ( 'NONE', #8 ) ;
#168 = PLANE ( 'NONE',  #295 ) ;
#169 = CARTESIAN_POINT ( 'NONE',  ( 0.000000000000000000, 0.000000000000000000, 0.000000000000000000 ) ) ;
#170 = ADVANCED_FACE ( 'NONE', ( #122, #219 ), #297, .F. ) ;
#171 = DIRECTION ( 'NONE',  ( 0.000000000000000000, -1.000000000000000000, 0.000000000000000000 ) ) ;
#172 = ORIENTED_EDGE ( 'NONE', *, *, #18, .F. ) ;
#173 = DIRECTION ( 'NONE',  ( 1.000000000000000000, 0.000000000000000000, 0.000000000000000000 ) ) ;
#174 = VERTEX_POINT ( 'NONE', #330 ) ;
#175 = VERTEX_POINT ( 'NONE', #157 ) ;
#176 = PERSON_AND_ORGANIZATION ( #105, #324 ) ;
#177 = AXIS2_PLACEMENT_3D ( 'NONE', #322, #270, #146 ) ;
#178 = ADVANCED_FACE ( 'NONE', ( #13 ), #275, .T. ) ;
#179 =( NAMED_UNIT ( * ) SI_UNIT ( $, .STERADIAN. ) SOLID_ANGLE_UNIT ( ) );
#180 = DIRECTION ( 'NONE',  ( -1.000000000000000000, 0.000000000000000000, 0.000000000000000000 ) ) ;
#181 = PLANE ( 'NONE',  #245 ) ;
#182 = DIRECTION ( 'NONE',  ( 0.000000000000000000, 0.000000000000000000, 1.000000000000000000 ) ) ;
#183 = PRODUCT_DEFINITION ( 'NEZNÁMÝ', '', #109, #368 ) ;
#184 = TOROIDAL_SURFACE ( 'NONE', #356, 6.700000000000001066, 0.6999999999999999556 ) ;
#185 = COORDINATED_UNIVERSAL_TIME_OFFSET ( 1, 0, .AHEAD. ) ;
#186 = FACE_OUTER_BOUND ( 'NONE', #86, .T. ) ;
#187 = EDGE_CURVE ( 'NONE', #137, #321, #222, .T. ) ;
#188 = PERSON_AND_ORGANIZATION_ROLE ( 'classification_officer' ) ;
#189 = CC_DESIGN_APPROVAL ( #59, ( #183 ) ) ;
#190 = DIRECTION ( 'NONE',  ( -0.000000000000000000, -0.000000000000000000, -1.000000000000000000 ) ) ;
#191 = ORIENTED_EDGE ( 'NONE', *, *, #323, .F. ) ;
#192 = CALENDAR_DATE ( 2022, 8, 7 ) ;
#193 = CARTESIAN_POINT ( 'NONE',  ( -10.00000000000000000, 0.000000000000000000, 7.000000000000000000 ) ) ;
#194 = EDGE_CURVE ( 'NONE', #291, #289, #331, .T. ) ;
#195 = CARTESIAN_POINT ( 'NONE',  ( 10.00000000000000000, 1.224646799147353256E-15, 7.000000000000000000 ) ) ;
#196 = AXIS2_PLACEMENT_3D ( 'NONE', #204, #171, #343 ) ;
#197 = DIRECTION ( 'NONE',  ( 1.000000000000000000, 0.000000000000000000, 0.000000000000000000 ) ) ;
#198 = VERTEX_POINT ( 'NONE', #288 ) ;
#199 = DIRECTION ( 'NONE',  ( 0.000000000000000000, 0.000000000000000000, 1.000000000000000000 ) ) ;
#200 = ORIENTED_EDGE ( 'NONE', *, *, #358, .F. ) ;
#201 = EDGE_CURVE ( 'NONE', #236, #198, #362, .T. ) ;
#202 = DIRECTION ( 'NONE',  ( 0.000000000000000000, 0.000000000000000000, 1.000000000000000000 ) ) ;
#203 = ORIENTED_EDGE ( 'NONE', *, *, #280, .F. ) ;
#204 = CARTESIAN_POINT ( 'NONE',  ( 6.700000000000001066, 0.000000000000000000, 7.700000000000012612 ) ) ;
#205 = CIRCLE ( 'NONE', #196, 0.7000000000000000666 ) ;
#206 = VERTEX_POINT ( 'NONE', #195 ) ;
#207 = VERTEX_POINT ( 'NONE', #306 ) ;
#208 = EDGE_LOOP ( 'NONE', ( #116, #78 ) ) ;
#209 = APPROVAL_ROLE ( '' ) ;
#210 = CIRCLE ( 'NONE', #90, 4.500000000000000000 ) ;
#211 = APPROVAL_PERSON_ORGANIZATION ( #332, #381, #155 ) ;
#212 = DIRECTION ( 'NONE',  ( 0.000000000000000000, 0.000000000000000000, 1.000000000000000000 ) ) ;
#213 = FACE_OUTER_BOUND ( 'NONE', #370, .T. ) ;
#214 = APPLICATION_CONTEXT ( 'configuration controlled 3d designs of mechanical parts and assemblies' ) ;
#215 = AXIS2_PLACEMENT_3D ( 'NONE', #124, #273, #16 ) ;
#216 = CARTESIAN_POINT ( 'NONE',  ( 0.000000000000000000, 0.000000000000000000, 182.0000000000000000 ) ) ;
#217 = DATE_TIME_ROLE ( 'creation_date' ) ;
#218 = DIRECTION ( 'NONE',  ( -0.000000000000000000, -0.000000000000000000, -1.000000000000000000 ) ) ;
#219 = FACE_OUTER_BOUND ( 'NONE', #22, .T. ) ;
#220 = ORIENTED_EDGE ( 'NONE', *, *, #119, .F. ) ;
#221 = CIRCLE ( 'NONE', #17, 10.00000000000000000 ) ;
#222 = LINE ( 'NONE', #193, #144 ) ;
#223 = DIRECTION ( 'NONE',  ( 0.000000000000000000, 0.000000000000000000, -1.000000000000000000 ) ) ;
#224 = ORIENTED_EDGE ( 'NONE', *, *, #201, .T. ) ;
#225 = CARTESIAN_POINT ( 'NONE',  ( 0.000000000000000000, 0.000000000000000000, 182.0000000000000000 ) ) ;
#226 = DIRECTION ( 'NONE',  ( 0.000000000000000000, 0.000000000000000000, 1.000000000000000000 ) ) ;
#227 = ORIENTED_EDGE ( 'NONE', *, *, #4, .F. ) ;
#228 = DIRECTION ( 'NONE',  ( 1.000000000000000000, 0.000000000000000000, 0.000000000000000000 ) ) ;
#229 = ORIENTED_EDGE ( 'NONE', *, *, #315, .F. ) ;
#230 = DIRECTION ( 'NONE',  ( 1.000000000000000000, 0.000000000000000000, 0.000000000000000000 ) ) ;
#231 = ORIENTED_EDGE ( 'NONE', *, *, #30, .F. ) ;
#232 = CYLINDRICAL_SURFACE ( 'NONE', #83, 6.000000000000000888 ) ;
#233 =( GEOMETRIC_REPRESENTATION_CONTEXT ( 3 ) GLOBAL_UNCERTAINTY_ASSIGNED_CONTEXT ( ( #300 ) ) GLOBAL_UNIT_ASSIGNED_CONTEXT ( ( #35, #84, #179 ) ) REPRESENTATION_CONTEXT ( 'NONE', 'WORKASPACE' ) );
#234 = ORIENTED_EDGE ( 'NONE', *, *, #92, .T. ) ;
#235 = CARTESIAN_POINT ( 'NONE',  ( -4.500000000000000000, 0.000000000000000000, 182.0000000000000000 ) ) ;
#236 = VERTEX_POINT ( 'NONE', #375 ) ;
#237 = ORIENTED_EDGE ( 'NONE', *, *, #254, .T. ) ;
#238 = LOCAL_TIME ( 16, 27, 37.00000000000000000, #67 ) ;
#239 = EDGE_CURVE ( 'NONE', #350, #174, #340, .T. ) ;
#240 = CIRCLE ( 'NONE', #314, 6.700000000000001066 ) ;
#241 = DIRECTION ( 'NONE',  ( 1.224646799147353207E-16, 1.000000000000000000, -0.000000000000000000 ) ) ;
#242 = DATE_AND_TIME ( #42, #238 ) ;
#243 = CYLINDRICAL_SURFACE ( 'NONE', #89, 6.000000000000000888 ) ;
#244 = AXIS2_PLACEMENT_3D ( 'NONE', #258, #377, #54 ) ;
#245 = AXIS2_PLACEMENT_3D ( 'NONE', #292, #212, #266 ) ;
#246 = CC_DESIGN_PERSON_AND_ORGANIZATION_ASSIGNMENT ( #304, #364, ( #109 ) ) ;
#247 = DIRECTION ( 'NONE',  ( 1.000000000000000000, 0.000000000000000000, 0.000000000000000000 ) ) ;
#248 = ORIENTED_EDGE ( 'NONE', *, *, #323, .T. ) ;
#249 = SECURITY_CLASSIFICATION_LEVEL ( 'unclassified' ) ;
#250 = CARTESIAN_POINT ( 'NONE',  ( 0.000000000000000000, 0.000000000000000000, 0.000000000000000000 ) ) ;
#251 = CC_DESIGN_PERSON_AND_ORGANIZATION_ASSIGNMENT ( #176, #148, ( #20 ) ) ;
#252 = CIRCLE ( 'NONE', #31, 4.500000000000000000 ) ;
#253 = CARTESIAN_POINT ( 'NONE',  ( 0.000000000000000000, 0.000000000000000000, 0.000000000000000000 ) ) ;
#254 = EDGE_CURVE ( 'NONE', #206, #379, #107, .T. ) ;
#255 = DIRECTION ( 'NONE',  ( -0.000000000000000000, -0.000000000000000000, -1.000000000000000000 ) ) ;
#256 = VERTEX_POINT ( 'NONE', #334 ) ;
#257 = LOCAL_TIME ( 16, 27, 37.00000000000000000, #75 ) ;
#258 = CARTESIAN_POINT ( 'NONE',  ( 0.000000000000000000, 0.000000000000000000, 7.700000000000012612 ) ) ;
#259 = ORIENTED_EDGE ( 'NONE', *, *, #29, .T. ) ;
#260 = DIRECTION ( 'NONE',  ( 0.000000000000000000, 0.000000000000000000, 1.000000000000000000 ) ) ;
#261 = ORIENTED_EDGE ( 'NONE', *, *, #239, .T. ) ;
#262 = EDGE_CURVE ( 'NONE', #174, #167, #312, .T. ) ;
#263 = LOCAL_TIME ( 16, 27, 37.00000000000000000, #268 ) ;
#264 = ORIENTED_EDGE ( 'NONE', *, *, #187, .F. ) ;
#265 = ORIENTED_EDGE ( 'NONE', *, *, #315, .T. ) ;
#266 = DIRECTION ( 'NONE',  ( 1.000000000000000000, 0.000000000000000000, -0.000000000000000000 ) ) ;
#267 = ADVANCED_FACE ( 'NONE', ( #310, #82 ), #168, .T. ) ;
#268 = COORDINATED_UNIVERSAL_TIME_OFFSET ( 1, 0, .AHEAD. ) ;
#269 = AXIS2_PLACEMENT_3D ( 'NONE', #363, #97, #163 ) ;
#270 = DIRECTION ( 'NONE',  ( -0.000000000000000000, -0.000000000000000000, -1.000000000000000000 ) ) ;
#271 = PERSON_AND_ORGANIZATION ( #105, #324 ) ;
#272 = DIRECTION ( 'NONE',  ( 0.000000000000000000, 0.000000000000000000, 1.000000000000000000 ) ) ;
#273 = DIRECTION ( 'NONE',  ( 0.000000000000000000, 0.000000000000000000, 1.000000000000000000 ) ) ;
#274 = AXIS2_PLACEMENT_3D ( 'NONE', #118, #182, #355 ) ;
#275 = CYLINDRICAL_SURFACE ( 'NONE', #25, 10.00000000000000000 ) ;
#276 = DIRECTION ( 'NONE',  ( 1.000000000000000000, 0.000000000000000000, 0.000000000000000000 ) ) ;
#277 = ORIENTED_EDGE ( 'NONE', *, *, #376, .T. ) ;
#278 = DATE_AND_TIME ( #94, #66 ) ;
#279 = CARTESIAN_POINT ( 'NONE',  ( 0.000000000000000000, 0.000000000000000000, 7.700000000000012612 ) ) ;
#280 = EDGE_CURVE ( 'NONE', #198, #236, #240, .T. ) ;
#281 = CIRCLE ( 'NONE', #215, 10.00000000000000000 ) ;
#282 = DIRECTION ( 'NONE',  ( 0.000000000000000000, 0.000000000000000000, -1.000000000000000000 ) ) ;
#283 = EDGE_LOOP ( 'NONE', ( #104, #85 ) ) ;
#284 = ORIENTED_EDGE ( 'NONE', *, *, #194, .F. ) ;
#285 = AXIS2_PLACEMENT_3D ( 'NONE', #102, #223, #180 ) ;
#286 = APPROVAL_PERSON_ORGANIZATION ( #271, #326, #359 ) ;
#287 = LINE ( 'NONE', #10, #108 ) ;
#288 = CARTESIAN_POINT ( 'NONE',  ( -6.700000000000001066, 8.205133554287267548E-16, 7.000000000000006217 ) ) ;
#289 = VERTEX_POINT ( 'NONE', #135 ) ;
#290 = ORIENTED_EDGE ( 'NONE', *, *, #262, .F. ) ;
#291 = VERTEX_POINT ( 'NONE', #341 ) ;
#292 = CARTESIAN_POINT ( 'NONE',  ( 0.000000000000000000, 0.000000000000000000, 7.000000000000000000 ) ) ;
#293 = ADVANCED_FACE ( 'NONE', ( #103 ), #138, .F. ) ;
#294 = DIRECTION ( 'NONE',  ( -0.000000000000000000, -0.000000000000000000, -1.000000000000000000 ) ) ;
#295 = AXIS2_PLACEMENT_3D ( 'NONE', #21, #76, #166 ) ;
#296 = DATE_AND_TIME ( #152, #257 ) ;
#297 = PLANE ( 'NONE',  #156 ) ;
#298 = PERSON_AND_ORGANIZATION ( #105, #324 ) ;
#299 = DIRECTION ( 'NONE',  ( 0.000000000000000000, 0.000000000000000000, 1.000000000000000000 ) ) ;
#300 = UNCERTAINTY_MEASURE_WITH_UNIT (LENGTH_MEASURE( 1.000000000000000082E-05 ), #35, 'distance_accuracy_value', 'NONE');
#301 = EDGE_CURVE ( 'NONE', #379, #321, #150, .T. ) ;
#302 = DIRECTION ( 'NONE',  ( -1.000000000000000000, 0.000000000000000000, 0.000000000000000000 ) ) ;
#303 = ORIENTED_EDGE ( 'NONE', *, *, #187, .T. ) ;
#304 = PERSON_AND_ORGANIZATION ( #105, #324 ) ;
#305 = DIRECTION ( 'NONE',  ( -0.000000000000000000, -0.000000000000000000, -1.000000000000000000 ) ) ;
#306 = CARTESIAN_POINT ( 'NONE',  ( 6.000000000000000888, 7.347880794884120722E-16, 7.700000000000012612 ) ) ;
#307 = VECTOR ( 'NONE', #140, 1000.000000000000000 ) ;
#308 = CARTESIAN_POINT ( 'NONE',  ( 10.00000000000000000, 1.224646799147353256E-15, 7.000000000000000000 ) ) ;
#309 = EDGE_CURVE ( 'NONE', #174, #350, #252, .T. ) ;
#310 = FACE_BOUND ( 'NONE', #208, .T. ) ;
#311 = ORIENTED_EDGE ( 'NONE', *, *, #4, .T. ) ;
#312 = LINE ( 'NONE', #26, #307 ) ;
#313 = ORIENTED_EDGE ( 'NONE', *, *, #344, .T. ) ;
#314 = AXIS2_PLACEMENT_3D ( 'NONE', #49, #131, #230 ) ;
#315 = EDGE_CURVE ( 'NONE', #321, #379, #367, .T. ) ;
#316 = DIRECTION ( 'NONE',  ( -1.000000000000000000, 0.000000000000000000, 0.000000000000000000 ) ) ;
#317 = EDGE_LOOP ( 'NONE', ( #110, #220, #303, #265 ) ) ;
#318 = APPLICATION_PROTOCOL_DEFINITION ( 'international standard', 'config_control_design', 1994, #149 ) ;
#319 = ORIENTED_EDGE ( 'NONE', *, *, #358, .T. ) ;
#320 = DIRECTION ( 'NONE',  ( -1.000000000000000000, 0.000000000000000000, 0.000000000000000000 ) ) ;
#321 = VERTEX_POINT ( 'NONE', #345 ) ;
#322 = CARTESIAN_POINT ( 'NONE',  ( 0.000000000000000000, 0.000000000000000000, 0.000000000000000000 ) ) ;
#323 = EDGE_CURVE ( 'NONE', #207, #236, #205, .T. ) ;
#324 = ORGANIZATION ( 'NEURÈENÝ', 'NEURÈENÝ', '' ) ;
#325 = APPROVAL_DATE_TIME ( #296, #381 ) ;
#326 = APPROVAL ( #121, 'NEURÈENÝ' ) ;
#327 = FACE_OUTER_BOUND ( 'NONE', #62, .T. ) ;
#328 = DIRECTION ( 'NONE',  ( 0.000000000000000000, 0.000000000000000000, 1.000000000000000000 ) ) ;
#329 = ADVANCED_FACE ( 'NONE', ( #378, #213 ), #181, .T. ) ;
#330 = CARTESIAN_POINT ( 'NONE',  ( 4.500000000000000000, 5.510910596163088569E-16, 182.0000000000000000 ) ) ;
#331 = CIRCLE ( 'NONE', #11, 6.000000000000000888 ) ;
#332 = PERSON_AND_ORGANIZATION ( #105, #324 ) ;
#333 = FACE_OUTER_BOUND ( 'NONE', #351, .T. ) ;
#334 = CARTESIAN_POINT ( 'NONE',  ( -6.000000000000000888, 0.000000000000000000, 7.700000000000012612 ) ) ;
#335 = EDGE_LOOP ( 'NONE', ( #145, #259, #342, #172 ) ) ;
#336 = CC_DESIGN_PERSON_AND_ORGANIZATION_ASSIGNMENT ( #93, #39, ( #183 ) ) ;
#337 = DIRECTION ( 'NONE',  ( -0.000000000000000000, -0.000000000000000000, -1.000000000000000000 ) ) ;
#338 = ADVANCED_FACE ( 'NONE', ( #91 ), #117, .T. ) ;
#339 = AXIS2_PLACEMENT_3D ( 'NONE', #279, #328, #365 ) ;
#340 = CIRCLE ( 'NONE', #374, 4.500000000000000000 ) ;
#341 = CARTESIAN_POINT ( 'NONE',  ( -6.000000000000000888, 0.000000000000000000, 182.0000000000000000 ) ) ;
#342 = ORIENTED_EDGE ( 'NONE', *, *, #30, .T. ) ;
#343 = DIRECTION ( 'NONE',  ( 0.000000000000000000, 0.000000000000000000, -1.000000000000000000 ) ) ;
#344 = EDGE_CURVE ( 'NONE', #175, #167, #37, .T. ) ;
#345 = CARTESIAN_POINT ( 'NONE',  ( -10.00000000000000000, 0.000000000000000000, 0.000000000000000000 ) ) ;
#346 = ORIENTED_EDGE ( 'NONE', *, *, #29, .F. ) ;
#347 = CIRCLE ( 'NONE', #244, 6.000000000000000888 ) ;
#348 = SECURITY_CLASSIFICATION ( '', '', #249 ) ;
#349 = CARTESIAN_POINT ( 'NONE',  ( 10.00000000000000000, 1.224646799147353256E-15, 0.000000000000000000 ) ) ;
#350 = VERTEX_POINT ( 'NONE', #235 ) ;
#351 = EDGE_LOOP ( 'NONE', ( #346, #284, #141, #311 ) ) ;
#352 = PERSON_AND_ORGANIZATION ( #105, #324 ) ;
#353 = ADVANCED_FACE ( 'NONE', ( #64 ), #232, .T. ) ;
#354 = EDGE_LOOP ( 'NONE', ( #57, #161 ) ) ;
#355 = DIRECTION ( 'NONE',  ( 1.000000000000000000, 0.000000000000000000, 0.000000000000000000 ) ) ;
#356 = AXIS2_PLACEMENT_3D ( 'NONE', #65, #272, #247 ) ;
#357 = APPROVAL_DATE_TIME ( #120, #59 ) ;
#358 = EDGE_CURVE ( 'NONE', #256, #198, #136, .T. ) ;
#359 = APPROVAL_ROLE ( '' ) ;
#360 = AXIS2_PLACEMENT_3D ( 'NONE', #361, #130, #40 ) ;
#361 = CARTESIAN_POINT ( 'NONE',  ( 0.000000000000000000, 0.000000000000000000, 7.700000000000012612 ) ) ;
#362 = CIRCLE ( 'NONE', #44, 6.700000000000001066 ) ;
#363 = CARTESIAN_POINT ( 'NONE',  ( 0.000000000000000000, 0.000000000000000000, 182.0000000000000000 ) ) ;
#364 = PERSON_AND_ORGANIZATION_ROLE ( 'creator' ) ;
#365 = DIRECTION ( 'NONE',  ( 1.000000000000000000, 0.000000000000000000, 0.000000000000000000 ) ) ;
#366 = LINE ( 'NONE', #159, #373 ) ;
#367 = CIRCLE ( 'NONE', #114, 10.00000000000000000 ) ;
#368 = DESIGN_CONTEXT ( 'detailed design', #214, 'design' ) ;
#369 = CARTESIAN_POINT ( 'NONE',  ( -10.00000000000000000, 0.000000000000000000, 7.000000000000000000 ) ) ;
#370 = EDGE_LOOP ( 'NONE', ( #33, #81 ) ) ;
#371 = DIRECTION ( 'NONE',  ( 1.000000000000000000, 0.000000000000000000, 0.000000000000000000 ) ) ;
#372 = DIRECTION ( 'NONE',  ( 1.000000000000000000, 0.000000000000000000, 0.000000000000000000 ) ) ;
#373 = VECTOR ( 'NONE', #96, 1000.000000000000000 ) ;
#374 = AXIS2_PLACEMENT_3D ( 'NONE', #23, #202, #371 ) ;
#375 = CARTESIAN_POINT ( 'NONE',  ( 6.700000000000001066, 0.000000000000000000, 7.000000000000006217 ) ) ;
#376 = EDGE_CURVE ( 'NONE', #350, #175, #5, .T. ) ;
#377 = DIRECTION ( 'NONE',  ( 0.000000000000000000, 0.000000000000000000, 1.000000000000000000 ) ) ;
#378 = FACE_BOUND ( 'NONE', #80, .T. ) ;
#379 = VERTEX_POINT ( 'NONE', #349 ) ;
#380 = DIRECTION ( 'NONE',  ( -0.000000000000000000, -0.000000000000000000, -1.000000000000000000 ) ) ;
#381 = APPROVAL ( #98, 'NEURÈENÝ' ) ;
ENDSEC;
END-ISO-10303-21;
