ISO-10303-21;
HEADER;
FILE_DESCRIPTION (( 'STEP AP203' ),
    '1' );
FILE_NAME ('b35c.STEP',
    '2022-07-08T14:23:13',
    ( '' ),
    ( '' ),
    'SwSTEP 2.0',
    'SolidWorks 2019',
    '' );
FILE_SCHEMA (( 'CONFIG_CONTROL_DESIGN' ));
ENDSEC;

DATA;
#1 = CIRCLE ( 'NONE', #53, 11.00000000000000000 ) ;
#2 = LOCAL_TIME ( 16, 23, 13.00000000000000000, #166 ) ;
#3 = DIRECTION ( 'NONE',  ( -0.000000000000000000, -0.000000000000000000, -1.000000000000000000 ) ) ;
#4 = EDGE_CURVE ( 'NONE', #165, #118, #88, .T. ) ;
#5 = DIRECTION ( 'NONE',  ( 1.000000000000000000, 0.000000000000000000, 0.000000000000000000 ) ) ;
#6 = FACE_OUTER_BOUND ( 'NONE', #175, .T. ) ;
#7 = CARTESIAN_POINT ( 'NONE',  ( -5.000000000000000000, 0.000000000000000000, 0.000000000000000000 ) ) ;
#8 = CARTESIAN_POINT ( 'NONE',  ( 7.700000000000001066, 0.000000000000000000, 7.000000000000006217 ) ) ;
#9 = ADVANCED_FACE ( 'NONE', ( #321 ), #90, .T. ) ;
#10 = CIRCLE ( 'NONE', #128, 5.000000000000000000 ) ;
#11 = CARTESIAN_POINT ( 'NONE',  ( -11.00000000000000000, 0.000000000000000000, 0.000000000000000000 ) ) ;
#12 = DIRECTION ( 'NONE',  ( 1.000000000000000000, 0.000000000000000000, -0.000000000000000000 ) ) ;
#13 = CC_DESIGN_DATE_AND_TIME_ASSIGNMENT ( #19, #130, ( #218 ) ) ;
#14 = ORIENTED_EDGE ( 'NONE', *, *, #87, .T. ) ;
#15 = ORIENTED_EDGE ( 'NONE', *, *, #285, .T. ) ;
#16 = DATE_AND_TIME ( #25, #282 ) ;
#17 = CIRCLE ( 'NONE', #60, 7.000000000000000888 ) ;
#18 = ORIENTED_EDGE ( 'NONE', *, *, #47, .T. ) ;
#19 = DATE_AND_TIME ( #108, #2 ) ;
#20 =( NAMED_UNIT ( * ) SI_UNIT ( $, .STERADIAN. ) SOLID_ANGLE_UNIT ( ) );
#21 = ORIENTED_EDGE ( 'NONE', *, *, #117, .F. ) ;
#22 = ADVANCED_FACE ( 'NONE', ( #140 ), #33, .T. ) ;
#23 = ORIENTED_EDGE ( 'NONE', *, *, #191, .T. ) ;
#24 = APPROVAL_PERSON_ORGANIZATION ( #370, #314, #199 ) ;
#25 = CALENDAR_DATE ( 2022, 8, 7 ) ;
#26 = DIRECTION ( 'NONE',  ( -0.000000000000000000, -0.000000000000000000, -1.000000000000000000 ) ) ;
#27 = CARTESIAN_POINT ( 'NONE',  ( 7.000000000000000888, 8.572527594031474176E-16, 257.0000000000000000 ) ) ;
#28 = DIRECTION ( 'NONE',  ( -1.000000000000000000, 0.000000000000000000, 0.000000000000000000 ) ) ;
#29 = EDGE_LOOP ( 'NONE', ( #379, #375, #18, #349 ) ) ;
#30 = DATE_AND_TIME ( #174, #31 ) ;
#31 = LOCAL_TIME ( 16, 23, 13.00000000000000000, #63 ) ;
#32 = DIRECTION ( 'NONE',  ( 0.000000000000000000, 0.000000000000000000, -1.000000000000000000 ) ) ;
#33 = CYLINDRICAL_SURFACE ( 'NONE', #220, 7.000000000000000888 ) ;
#34 = APPROVAL_DATE_TIME ( #294, #300 ) ;
#35 = DIRECTION ( 'NONE',  ( 0.000000000000000000, 0.000000000000000000, 1.000000000000000000 ) ) ;
#36 = PERSON_AND_ORGANIZATION_ROLE ( 'classification_officer' ) ;
#37 = DIRECTION ( 'NONE',  ( 1.000000000000000000, 0.000000000000000000, 0.000000000000000000 ) ) ;
#38 = AXIS2_PLACEMENT_3D ( 'NONE', #292, #26, #210 ) ;
#39 = TOROIDAL_SURFACE ( 'NONE', #338, 7.700000000000001066, 0.6999999999999999556 ) ;
#40 = PLANE ( 'NONE',  #54 ) ;
#41 = ORIENTED_EDGE ( 'NONE', *, *, #91, .T. ) ;
#42 = LINE ( 'NONE', #283, #302 ) ;
#43 = EDGE_CURVE ( 'NONE', #296, #118, #331, .T. ) ;
#44 = VERTEX_POINT ( 'NONE', #357 ) ;
#45 = APPROVAL_ROLE ( '' ) ;
#46 = APPROVAL_PERSON_ORGANIZATION ( #181, #300, #89 ) ;
#47 = EDGE_CURVE ( 'NONE', #261, #296, #125, .T. ) ;
#48 = EDGE_LOOP ( 'NONE', ( #311, #196 ) ) ;
#49 = ORIENTED_EDGE ( 'NONE', *, *, #162, .T. ) ;
#50 = EDGE_CURVE ( 'NONE', #118, #350, #74, .T. ) ;
#51 = VERTEX_POINT ( 'NONE', #154 ) ;
#52 = ORIENTED_EDGE ( 'NONE', *, *, #254, .F. ) ;
#53 = AXIS2_PLACEMENT_3D ( 'NONE', #96, #119, #94 ) ;
#54 = AXIS2_PLACEMENT_3D ( 'NONE', #281, #65, #71 ) ;
#55 = CARTESIAN_POINT ( 'NONE',  ( 0.000000000000000000, 0.000000000000000000, 257.0000000000000000 ) ) ;
#56 = FACE_OUTER_BOUND ( 'NONE', #347, .T. ) ;
#57 = EDGE_LOOP ( 'NONE', ( #342, #229, #339, #341 ) ) ;
#58 = ADVANCED_FACE ( 'NONE', ( #160 ), #279, .T. ) ;
#59 = PERSON_AND_ORGANIZATION_ROLE ( 'creator' ) ;
#60 = AXIS2_PLACEMENT_3D ( 'NONE', #249, #309, #164 ) ;
#61 = DIRECTION ( 'NONE',  ( 0.000000000000000000, 0.000000000000000000, 1.000000000000000000 ) ) ;
#62 = DIRECTION ( 'NONE',  ( -0.000000000000000000, -0.000000000000000000, -1.000000000000000000 ) ) ;
#63 = COORDINATED_UNIVERSAL_TIME_OFFSET ( 1, 0, .AHEAD. ) ;
#64 = CARTESIAN_POINT ( 'NONE',  ( 7.000000000000000888, 8.572527594031474176E-16, 7.700000000000012612 ) ) ;
#65 = DIRECTION ( 'NONE',  ( 0.000000000000000000, 0.000000000000000000, 1.000000000000000000 ) ) ;
#66 = ORGANIZATION ( 'NEURÈENÝ', 'NEURÈENÝ', '' ) ;
#67 = DIRECTION ( 'NONE',  ( -1.000000000000000000, 1.224646799147351975E-16, 0.000000000000000000 ) ) ;
#68 = CARTESIAN_POINT ( 'NONE',  ( -11.00000000000000000, 0.000000000000000000, 7.000000000000000000 ) ) ;
#69 = DIRECTION ( 'NONE',  ( 1.000000000000000000, 0.000000000000000000, 0.000000000000000000 ) ) ;
#70 = EDGE_CURVE ( 'NONE', #313, #133, #1, .T. ) ;
#71 = DIRECTION ( 'NONE',  ( 1.000000000000000000, 0.000000000000000000, -0.000000000000000000 ) ) ;
#72 = DIRECTION ( 'NONE',  ( -0.000000000000000000, -0.000000000000000000, -1.000000000000000000 ) ) ;
#73 = CARTESIAN_POINT ( 'NONE',  ( 11.00000000000000000, 1.347111479062088405E-15, 0.000000000000000000 ) ) ;
#74 = CIRCLE ( 'NONE', #337, 0.7000000000000000666 ) ;
#75 = TOROIDAL_SURFACE ( 'NONE', #84, 7.700000000000001066, 0.6999999999999999556 ) ;
#76 = ORIENTED_EDGE ( 'NONE', *, *, #47, .F. ) ;
#77 = PERSON_AND_ORGANIZATION_ROLE ( 'design_owner' ) ;
#78 = LOCAL_TIME ( 16, 23, 13.00000000000000000, #272 ) ;
#79 = APPLICATION_CONTEXT ( 'configuration controlled 3d designs of mechanical parts and assemblies' ) ;
#80 = VERTEX_POINT ( 'NONE', #219 ) ;
#81 = ORIENTED_EDGE ( 'NONE', *, *, #209, .T. ) ;
#82 = ORIENTED_EDGE ( 'NONE', *, *, #215, .T. ) ;
#83 = VERTEX_POINT ( 'NONE', #190 ) ;
#84 = AXIS2_PLACEMENT_3D ( 'NONE', #252, #35, #153 ) ;
#85 = CIRCLE ( 'NONE', #351, 11.00000000000000000 ) ;
#86 = DATE_AND_TIME ( #297, #78 ) ;
#87 = EDGE_CURVE ( 'NONE', #289, #353, #144, .T. ) ;
#88 = LINE ( 'NONE', #173, #310 ) ;
#89 = APPROVAL_ROLE ( '' ) ;
#90 = CYLINDRICAL_SURFACE ( 'NONE', #38, 7.000000000000000888 ) ;
#91 = EDGE_CURVE ( 'NONE', #353, #289, #367, .T. ) ;
#92 = CLOSED_SHELL ( 'NONE', ( #202, #235, #9, #58, #193, #287, #358, #22, #306, #124, #114 ) ) ;
#93 = DIRECTION ( 'NONE',  ( -0.000000000000000000, -0.000000000000000000, -1.000000000000000000 ) ) ;
#94 = DIRECTION ( 'NONE',  ( 1.000000000000000000, 0.000000000000000000, 0.000000000000000000 ) ) ;
#95 = CYLINDRICAL_SURFACE ( 'NONE', #345, 5.000000000000000000 ) ;
#96 = CARTESIAN_POINT ( 'NONE',  ( 0.000000000000000000, 0.000000000000000000, 0.000000000000000000 ) ) ;
#97 = FACE_OUTER_BOUND ( 'NONE', #109, .T. ) ;
#98 = CC_DESIGN_SECURITY_CLASSIFICATION ( #231, ( #212 ) ) ;
#99 = DIRECTION ( 'NONE',  ( -1.000000000000000000, 0.000000000000000000, 0.000000000000000000 ) ) ;
#100 = DIRECTION ( 'NONE',  ( 0.000000000000000000, 0.000000000000000000, 1.000000000000000000 ) ) ;
#101 = CARTESIAN_POINT ( 'NONE',  ( 0.000000000000000000, 0.000000000000000000, 257.0000000000000000 ) ) ;
#102 = DIRECTION ( 'NONE',  ( 0.000000000000000000, 0.000000000000000000, 1.000000000000000000 ) ) ;
#103 = AXIS2_PLACEMENT_3D ( 'NONE', #333, #122, #329 ) ;
#104 = LOCAL_TIME ( 16, 23, 13.00000000000000000, #322 ) ;
#105 = ORIENTED_EDGE ( 'NONE', *, *, #185, .F. ) ;
#106 = APPROVAL_STATUS ( 'not_yet_approved' ) ;
#107 = VERTEX_POINT ( 'NONE', #7 ) ;
#108 = CALENDAR_DATE ( 2022, 8, 7 ) ;
#109 = EDGE_LOOP ( 'NONE', ( #377, #274 ) ) ;
#110 = EDGE_CURVE ( 'NONE', #296, #51, #205, .T. ) ;
#111 = DIRECTION ( 'NONE',  ( 1.000000000000000000, 0.000000000000000000, 0.000000000000000000 ) ) ;
#112 = ORIENTED_EDGE ( 'NONE', *, *, #70, .F. ) ;
#113 = AXIS2_PLACEMENT_3D ( 'NONE', #263, #93, #143 ) ;
#114 = ADVANCED_FACE ( 'NONE', ( #188 ), #251, .F. ) ;
#115 = ORIENTED_EDGE ( 'NONE', *, *, #215, .F. ) ;
#116 = DIRECTION ( 'NONE',  ( 1.000000000000000000, 0.000000000000000000, 0.000000000000000000 ) ) ;
#117 = EDGE_CURVE ( 'NONE', #80, #44, #240, .T. ) ;
#118 = VERTEX_POINT ( 'NONE', #64 ) ;
#119 = DIRECTION ( 'NONE',  ( 0.000000000000000000, 0.000000000000000000, 1.000000000000000000 ) ) ;
#120 = AXIS2_PLACEMENT_3D ( 'NONE', #335, #334, #12 ) ;
#121 = DIRECTION ( 'NONE',  ( -0.000000000000000000, -0.000000000000000000, -1.000000000000000000 ) ) ;
#122 = DIRECTION ( 'NONE',  ( 0.000000000000000000, 0.000000000000000000, 1.000000000000000000 ) ) ;
#123 = DIRECTION ( 'NONE',  ( -0.000000000000000000, -0.000000000000000000, -1.000000000000000000 ) ) ;
#124 = ADVANCED_FACE ( 'NONE', ( #308 ), #75, .F. ) ;
#125 = LINE ( 'NONE', #359, #269 ) ;
#126 = DIRECTION ( 'NONE',  ( 1.000000000000000000, 0.000000000000000000, 0.000000000000000000 ) ) ;
#127 = EDGE_LOOP ( 'NONE', ( #21, #373 ) ) ;
#128 = AXIS2_PLACEMENT_3D ( 'NONE', #275, #3, #214 ) ;
#129 = ORIENTED_EDGE ( 'NONE', *, *, #223, .F. ) ;
#130 = DATE_TIME_ROLE ( 'creation_date' ) ;
#131 = APPLICATION_PROTOCOL_DEFINITION ( 'international standard', 'config_control_design', 1994, #79 ) ;
#132 = APPLICATION_CONTEXT ( 'configuration controlled 3d designs of mechanical parts and assemblies' ) ;
#133 = VERTEX_POINT ( 'NONE', #11 ) ;
#134 = APPLICATION_PROTOCOL_DEFINITION ( 'international standard', 'config_control_design', 1994, #132 ) ;
#135 = PERSON ( 'NEURÈENÝ', 'NEURÈENÝ', 'NEURÈENÝ', ('NEURÈENÝ'), ('NEURÈENÝ'), ('NEURÈENÝ') ) ;
#136 = VECTOR ( 'NONE', #211, 1000.000000000000000 ) ;
#137 = APPROVAL_STATUS ( 'not_yet_approved' ) ;
#138 = CARTESIAN_POINT ( 'NONE',  ( 0.000000000000000000, 0.000000000000000000, 7.000000000000000000 ) ) ;
#139 = EDGE_CURVE ( 'NONE', #107, #83, #10, .T. ) ;
#140 = FACE_OUTER_BOUND ( 'NONE', #29, .T. ) ;
#141 = APPROVAL_DATE_TIME ( #30, #314 ) ;
#142 = CARTESIAN_POINT ( 'NONE',  ( 0.000000000000000000, 0.000000000000000000, 7.700000000000012612 ) ) ;
#143 = DIRECTION ( 'NONE',  ( -1.000000000000000000, 0.000000000000000000, 0.000000000000000000 ) ) ;
#144 = CIRCLE ( 'NONE', #103, 11.00000000000000000 ) ;
#145 = ORIENTED_EDGE ( 'NONE', *, *, #223, .T. ) ;
#146 = AXIS2_PLACEMENT_3D ( 'NONE', #138, #72, #316 ) ;
#147 = PRODUCT_RELATED_PRODUCT_CATEGORY ( 'detail', '', ( #222 ) ) ;
#148 = PERSON_AND_ORGANIZATION ( #135, #66 ) ;
#149 = DIRECTION ( 'NONE',  ( -1.000000000000000000, 0.000000000000000000, 0.000000000000000000 ) ) ;
#150 = DIRECTION ( 'NONE',  ( 1.000000000000000000, 0.000000000000000000, 0.000000000000000000 ) ) ;
#151 = APPROVAL_STATUS ( 'not_yet_approved' ) ;
#152 = DIRECTION ( 'NONE',  ( -0.000000000000000000, -0.000000000000000000, -1.000000000000000000 ) ) ;
#153 = DIRECTION ( 'NONE',  ( 1.000000000000000000, 0.000000000000000000, 0.000000000000000000 ) ) ;
#154 = CARTESIAN_POINT ( 'NONE',  ( -7.700000000000001066, 9.429780353434621002E-16, 7.000000000000006217 ) ) ;
#155 = CIRCLE ( 'NONE', #234, 7.700000000000001066 ) ;
#156 = CARTESIAN_POINT ( 'NONE',  ( 0.000000000000000000, 0.000000000000000000, 7.700000000000012612 ) ) ;
#157 = CARTESIAN_POINT ( 'NONE',  ( 0.000000000000000000, 0.000000000000000000, 0.000000000000000000 ) ) ;
#158 = PRODUCT_DEFINITION_SHAPE ( 'NONE', 'NONE',  #218 ) ;
#159 = FACE_BOUND ( 'NONE', #127, .T. ) ;
#160 = FACE_OUTER_BOUND ( 'NONE', #323, .T. ) ;
#161 = CIRCLE ( 'NONE', #146, 7.700000000000001066 ) ;
#162 = EDGE_CURVE ( 'NONE', #133, #313, #85, .T. ) ;
#163 = ORIENTED_EDGE ( 'NONE', *, *, #91, .F. ) ;
#164 = DIRECTION ( 'NONE',  ( 1.000000000000000000, 0.000000000000000000, 0.000000000000000000 ) ) ;
#165 = VERTEX_POINT ( 'NONE', #27 ) ;
#166 = COORDINATED_UNIVERSAL_TIME_OFFSET ( 1, 0, .AHEAD. ) ;
#167 = AXIS2_PLACEMENT_3D ( 'NONE', #256, #315, #168 ) ;
#168 = DIRECTION ( 'NONE',  ( 1.000000000000000000, 0.000000000000000000, 0.000000000000000000 ) ) ;
#169 = ADVANCED_BREP_SHAPE_REPRESENTATION ( 'b35c', ( #194, #167 ), #200 ) ;
#170 = CYLINDRICAL_SURFACE ( 'NONE', #113, 11.00000000000000000 ) ;
#171 = AXIS2_PLACEMENT_3D ( 'NONE', #217, #123, #182 ) ;
#172 = VECTOR ( 'NONE', #253, 1000.000000000000000 ) ;
#173 = CARTESIAN_POINT ( 'NONE',  ( 7.000000000000000888, 8.572527594031474176E-16, 257.0000000000000000 ) ) ;
#174 = CALENDAR_DATE ( 2022, 8, 7 ) ;
#175 = EDGE_LOOP ( 'NONE', ( #14, #41 ) ) ;
#176 = DIRECTION ( 'NONE',  ( -0.000000000000000000, -0.000000000000000000, -1.000000000000000000 ) ) ;
#177 = DATE_TIME_ROLE ( 'classification_date' ) ;
#178 = CARTESIAN_POINT ( 'NONE',  ( 0.000000000000000000, 0.000000000000000000, 257.0000000000000000 ) ) ;
#179 = ORIENTED_EDGE ( 'NONE', *, *, #197, .T. ) ;
#180 = AXIS2_PLACEMENT_3D ( 'NONE', #101, #362, #99 ) ;
#181 = PERSON_AND_ORGANIZATION ( #135, #66 ) ;
#182 = DIRECTION ( 'NONE',  ( -1.000000000000000000, 0.000000000000000000, 0.000000000000000000 ) ) ;
#183 = DIRECTION ( 'NONE',  ( 0.000000000000000000, 0.000000000000000000, 1.000000000000000000 ) ) ;
#184 = CARTESIAN_POINT ( 'NONE',  ( 0.000000000000000000, 0.000000000000000000, 257.0000000000000000 ) ) ;
#185 = EDGE_CURVE ( 'NONE', #289, #133, #226, .T. ) ;
#186 = CARTESIAN_POINT ( 'NONE',  ( -7.700000000000001066, 9.429780353434621002E-16, 7.700000000000012612 ) ) ;
#187 = AXIS2_PLACEMENT_3D ( 'NONE', #239, #121, #246 ) ;
#188 = FACE_OUTER_BOUND ( 'NONE', #312, .T. ) ;
#189 = CARTESIAN_POINT ( 'NONE',  ( -7.000000000000000888, 0.000000000000000000, 7.700000000000012612 ) ) ;
#190 = CARTESIAN_POINT ( 'NONE',  ( 5.000000000000000000, 6.123233995736766282E-16, 0.000000000000000000 ) ) ;
#191 = EDGE_CURVE ( 'NONE', #350, #51, #161, .T. ) ;
#192 = CARTESIAN_POINT ( 'NONE',  ( 11.00000000000000000, 1.347111479062088405E-15, 7.000000000000000000 ) ) ;
#193 = ADVANCED_FACE ( 'NONE', ( #366 ), #170, .T. ) ;
#194 = MANIFOLD_SOLID_BREP ( 'Odebrat vysunutím3', #92 ) ;
#195 = DIRECTION ( 'NONE',  ( 1.000000000000000000, 0.000000000000000000, -0.000000000000000000 ) ) ;
#196 = ORIENTED_EDGE ( 'NONE', *, *, #209, .F. ) ;
#197 = EDGE_CURVE ( 'NONE', #51, #350, #155, .T. ) ;
#198 = ORIENTED_EDGE ( 'NONE', *, *, #4, .T. ) ;
#199 = APPROVAL_ROLE ( '' ) ;
#200 =( GEOMETRIC_REPRESENTATION_CONTEXT ( 3 ) GLOBAL_UNCERTAINTY_ASSIGNED_CONTEXT ( ( #280 ) ) GLOBAL_UNIT_ASSIGNED_CONTEXT ( ( #304, #204, #20 ) ) REPRESENTATION_CONTEXT ( 'NONE', 'WORKASPACE' ) );
#201 = EDGE_LOOP ( 'NONE', ( #266, #112 ) ) ;
#202 = ADVANCED_FACE ( 'NONE', ( #56 ), #95, .F. ) ;
#203 = ORIENTED_EDGE ( 'NONE', *, *, #87, .F. ) ;
#204 =( NAMED_UNIT ( * ) PLANE_ANGLE_UNIT ( ) SI_UNIT ( $, .RADIAN. ) );
#205 = CIRCLE ( 'NONE', #360, 0.7000000000000000666 ) ;
#206 = AXIS2_PLACEMENT_3D ( 'NONE', #305, #276, #298 ) ;
#207 = AXIS2_PLACEMENT_3D ( 'NONE', #224, #301, #69 ) ;
#208 = FACE_OUTER_BOUND ( 'NONE', #324, .T. ) ;
#209 = EDGE_CURVE ( 'NONE', #83, #107, #368, .T. ) ;
#210 = DIRECTION ( 'NONE',  ( -1.000000000000000000, 0.000000000000000000, 0.000000000000000000 ) ) ;
#211 = DIRECTION ( 'NONE',  ( 0.000000000000000000, 0.000000000000000000, -1.000000000000000000 ) ) ;
#212 = PRODUCT_DEFINITION_FORMATION_WITH_SPECIFIED_SOURCE ( 'LIBOVOLNÝ', '', #222, .NOT_KNOWN. ) ;
#213 = SECURITY_CLASSIFICATION_LEVEL ( 'unclassified' ) ;
#214 = DIRECTION ( 'NONE',  ( 1.000000000000000000, 0.000000000000000000, 0.000000000000000000 ) ) ;
#215 = EDGE_CURVE ( 'NONE', #44, #83, #352, .T. ) ;
#216 = DIRECTION ( 'NONE',  ( 0.000000000000000000, 0.000000000000000000, -1.000000000000000000 ) ) ;
#217 = CARTESIAN_POINT ( 'NONE',  ( 0.000000000000000000, 0.000000000000000000, 7.000000000000000000 ) ) ;
#218 = PRODUCT_DEFINITION ( 'NEZNÁMÝ', '', #212, #344 ) ;
#219 = CARTESIAN_POINT ( 'NONE',  ( -5.000000000000000000, 0.000000000000000000, 257.0000000000000000 ) ) ;
#220 = AXIS2_PLACEMENT_3D ( 'NONE', #55, #293, #28 ) ;
#221 = VECTOR ( 'NONE', #216, 1000.000000000000000 ) ;
#222 = PRODUCT ( 'b35c', 'b35c', '', ( #372 ) ) ;
#223 = EDGE_CURVE ( 'NONE', #80, #107, #277, .T. ) ;
#224 = CARTESIAN_POINT ( 'NONE',  ( 0.000000000000000000, 0.000000000000000000, 257.0000000000000000 ) ) ;
#225 = DIRECTION ( 'NONE',  ( -0.000000000000000000, -0.000000000000000000, -1.000000000000000000 ) ) ;
#226 = LINE ( 'NONE', #336, #172 ) ;
#227 = CC_DESIGN_PERSON_AND_ORGANIZATION_ASSIGNMENT ( #325, #59, ( #212 ) ) ;
#228 = FACE_BOUND ( 'NONE', #364, .T. ) ;
#229 = ORIENTED_EDGE ( 'NONE', *, *, #320, .F. ) ;
#230 = PLANE ( 'NONE',  #361 ) ;
#231 = SECURITY_CLASSIFICATION ( '', '', #213 ) ;
#232 = CC_DESIGN_PERSON_AND_ORGANIZATION_ASSIGNMENT ( #237, #374, ( #218 ) ) ;
#233 = EDGE_LOOP ( 'NONE', ( #52, #198, #343, #76 ) ) ;
#234 = AXIS2_PLACEMENT_3D ( 'NONE', #328, #152, #299 ) ;
#235 = ADVANCED_FACE ( 'NONE', ( #208 ), #39, .F. ) ;
#236 = ORIENTED_EDGE ( 'NONE', *, *, #110, .T. ) ;
#237 = PERSON_AND_ORGANIZATION ( #135, #66 ) ;
#238 = EDGE_LOOP ( 'NONE', ( #242, #203, #286, #49 ) ) ;
#239 = CARTESIAN_POINT ( 'NONE',  ( 0.000000000000000000, 0.000000000000000000, 0.000000000000000000 ) ) ;
#240 = CIRCLE ( 'NONE', #207, 5.000000000000000000 ) ;
#241 = DIRECTION ( 'NONE',  ( 0.000000000000000000, 0.000000000000000000, 1.000000000000000000 ) ) ;
#242 = ORIENTED_EDGE ( 'NONE', *, *, #285, .F. ) ;
#243 = EDGE_CURVE ( 'NONE', #44, #80, #257, .T. ) ;
#244 = AXIS2_PLACEMENT_3D ( 'NONE', #142, #241, #150 ) ;
#245 = CARTESIAN_POINT ( 'NONE',  ( 0.000000000000000000, 0.000000000000000000, 0.000000000000000000 ) ) ;
#246 = DIRECTION ( 'NONE',  ( 1.000000000000000000, 0.000000000000000000, 0.000000000000000000 ) ) ;
#247 = CARTESIAN_POINT ( 'NONE',  ( 7.700000000000001066, 0.000000000000000000, 7.700000000000012612 ) ) ;
#248 = CC_DESIGN_PERSON_AND_ORGANIZATION_ASSIGNMENT ( #148, #381, ( #212 ) ) ;
#249 = CARTESIAN_POINT ( 'NONE',  ( 0.000000000000000000, 0.000000000000000000, 7.700000000000012612 ) ) ;
#250 = DIRECTION ( 'NONE',  ( 0.000000000000000000, 0.000000000000000000, 1.000000000000000000 ) ) ;
#251 = CYLINDRICAL_SURFACE ( 'NONE', #180, 5.000000000000000000 ) ;
#252 = CARTESIAN_POINT ( 'NONE',  ( 0.000000000000000000, 0.000000000000000000, 7.700000000000012612 ) ) ;
#253 = DIRECTION ( 'NONE',  ( -0.000000000000000000, -0.000000000000000000, -1.000000000000000000 ) ) ;
#254 = EDGE_CURVE ( 'NONE', #165, #261, #319, .T. ) ;
#255 = AXIS2_PLACEMENT_3D ( 'NONE', #184, #250, #126 ) ;
#256 = CARTESIAN_POINT ( 'NONE',  ( 0.000000000000000000, 0.000000000000000000, 0.000000000000000000 ) ) ;
#257 = CIRCLE ( 'NONE', #378, 5.000000000000000000 ) ;
#258 = ORIENTED_EDGE ( 'NONE', *, *, #50, .F. ) ;
#259 = CC_DESIGN_PERSON_AND_ORGANIZATION_ASSIGNMENT ( #265, #36, ( #231 ) ) ;
#260 = EDGE_CURVE ( 'NONE', #261, #165, #356, .T. ) ;
#261 = VERTEX_POINT ( 'NONE', #330 ) ;
#262 = APPROVAL_DATE_TIME ( #16, #376 ) ;
#263 = CARTESIAN_POINT ( 'NONE',  ( 0.000000000000000000, 0.000000000000000000, 7.000000000000000000 ) ) ;
#264 = ORIENTED_EDGE ( 'NONE', *, *, #139, .T. ) ;
#265 = PERSON_AND_ORGANIZATION ( #135, #66 ) ;
#266 = ORIENTED_EDGE ( 'NONE', *, *, #162, .F. ) ;
#267 = SHAPE_DEFINITION_REPRESENTATION ( #158, #169 ) ;
#268 = CARTESIAN_POINT ( 'NONE',  ( 5.000000000000000000, 6.123233995736766282E-16, 257.0000000000000000 ) ) ;
#269 = VECTOR ( 'NONE', #62, 1000.000000000000000 ) ;
#270 = CC_DESIGN_APPROVAL ( #376, ( #218 ) ) ;
#271 = ORIENTED_EDGE ( 'NONE', *, *, #191, .F. ) ;
#272 = COORDINATED_UNIVERSAL_TIME_OFFSET ( 1, 0, .AHEAD. ) ;
#273 = DIRECTION ( 'NONE',  ( 0.000000000000000000, 0.000000000000000000, 1.000000000000000000 ) ) ;
#274 = ORIENTED_EDGE ( 'NONE', *, *, #254, .T. ) ;
#275 = CARTESIAN_POINT ( 'NONE',  ( 0.000000000000000000, 0.000000000000000000, 0.000000000000000000 ) ) ;
#276 = DIRECTION ( 'NONE',  ( 0.000000000000000000, 0.000000000000000000, 1.000000000000000000 ) ) ;
#277 = LINE ( 'NONE', #354, #221 ) ;
#278 = PLANE ( 'NONE',  #120 ) ;
#279 = CYLINDRICAL_SURFACE ( 'NONE', #171, 11.00000000000000000 ) ;
#280 = UNCERTAINTY_MEASURE_WITH_UNIT (LENGTH_MEASURE( 1.000000000000000082E-05 ), #304, 'distance_accuracy_value', 'NONE');
#281 = CARTESIAN_POINT ( 'NONE',  ( 0.000000000000000000, 0.000000000000000000, 257.0000000000000000 ) ) ;
#282 = LOCAL_TIME ( 16, 23, 13.00000000000000000, #290 ) ;
#283 = CARTESIAN_POINT ( 'NONE',  ( 11.00000000000000000, 1.347111479062088405E-15, 7.000000000000000000 ) ) ;
#284 = ORIENTED_EDGE ( 'NONE', *, *, #70, .T. ) ;
#285 = EDGE_CURVE ( 'NONE', #353, #313, #42, .T. ) ;
#286 = ORIENTED_EDGE ( 'NONE', *, *, #185, .T. ) ;
#287 = ADVANCED_FACE ( 'NONE', ( #228, #6 ), #278, .T. ) ;
#288 = APPROVAL_PERSON_ORGANIZATION ( #317, #376, #45 ) ;
#289 = VERTEX_POINT ( 'NONE', #68 ) ;
#290 = COORDINATED_UNIVERSAL_TIME_OFFSET ( 1, 0, .AHEAD. ) ;
#291 = AXIS2_PLACEMENT_3D ( 'NONE', #307, #100, #5 ) ;
#292 = CARTESIAN_POINT ( 'NONE',  ( 0.000000000000000000, 0.000000000000000000, 257.0000000000000000 ) ) ;
#293 = DIRECTION ( 'NONE',  ( -0.000000000000000000, -0.000000000000000000, -1.000000000000000000 ) ) ;
#294 = DATE_AND_TIME ( #355, #104 ) ;
#295 = CC_DESIGN_APPROVAL ( #300, ( #231 ) ) ;
#296 = VERTEX_POINT ( 'NONE', #189 ) ;
#297 = CALENDAR_DATE ( 2022, 8, 7 ) ;
#298 = DIRECTION ( 'NONE',  ( 1.000000000000000000, 0.000000000000000000, 0.000000000000000000 ) ) ;
#299 = DIRECTION ( 'NONE',  ( 1.000000000000000000, 0.000000000000000000, 0.000000000000000000 ) ) ;
#300 = APPROVAL ( #151, 'NEURÈENÝ' ) ;
#301 = DIRECTION ( 'NONE',  ( 0.000000000000000000, 0.000000000000000000, 1.000000000000000000 ) ) ;
#302 = VECTOR ( 'NONE', #225, 1000.000000000000000 ) ;
#303 = DIRECTION ( 'NONE',  ( 0.000000000000000000, -1.000000000000000000, 0.000000000000000000 ) ) ;
#304 =( LENGTH_UNIT ( ) NAMED_UNIT ( * ) SI_UNIT ( .MILLI., .METRE. ) );
#305 = CARTESIAN_POINT ( 'NONE',  ( 0.000000000000000000, 0.000000000000000000, 7.000000000000000000 ) ) ;
#306 = ADVANCED_FACE ( 'NONE', ( #159, #97 ), #40, .T. ) ;
#307 = CARTESIAN_POINT ( 'NONE',  ( 0.000000000000000000, 0.000000000000000000, 257.0000000000000000 ) ) ;
#308 = FACE_OUTER_BOUND ( 'NONE', #57, .T. ) ;
#309 = DIRECTION ( 'NONE',  ( 0.000000000000000000, 0.000000000000000000, 1.000000000000000000 ) ) ;
#310 = VECTOR ( 'NONE', #176, 1000.000000000000000 ) ;
#311 = ORIENTED_EDGE ( 'NONE', *, *, #139, .F. ) ;
#312 = EDGE_LOOP ( 'NONE', ( #115, #371, #145, #264 ) ) ;
#313 = VERTEX_POINT ( 'NONE', #73 ) ;
#314 = APPROVAL ( #106, 'NEURÈENÝ' ) ;
#315 = DIRECTION ( 'NONE',  ( 0.000000000000000000, 0.000000000000000000, 1.000000000000000000 ) ) ;
#316 = DIRECTION ( 'NONE',  ( 1.000000000000000000, 0.000000000000000000, 0.000000000000000000 ) ) ;
#317 = PERSON_AND_ORGANIZATION ( #135, #66 ) ;
#318 = ORIENTED_EDGE ( 'NONE', *, *, #117, .T. ) ;
#319 = CIRCLE ( 'NONE', #255, 7.000000000000000888 ) ;
#320 = EDGE_CURVE ( 'NONE', #118, #296, #17, .T. ) ;
#321 = FACE_OUTER_BOUND ( 'NONE', #233, .T. ) ;
#322 = COORDINATED_UNIVERSAL_TIME_OFFSET ( 1, 0, .AHEAD. ) ;
#323 = EDGE_LOOP ( 'NONE', ( #163, #15, #284, #105 ) ) ;
#324 = EDGE_LOOP ( 'NONE', ( #369, #236, #271, #258 ) ) ;
#325 = PERSON_AND_ORGANIZATION ( #135, #66 ) ;
#326 = DIRECTION ( 'NONE',  ( 0.000000000000000000, 0.000000000000000000, -1.000000000000000000 ) ) ;
#327 = CC_DESIGN_DATE_AND_TIME_ASSIGNMENT ( #86, #177, ( #231 ) ) ;
#328 = CARTESIAN_POINT ( 'NONE',  ( 0.000000000000000000, 0.000000000000000000, 7.000000000000000000 ) ) ;
#329 = DIRECTION ( 'NONE',  ( 1.000000000000000000, 0.000000000000000000, 0.000000000000000000 ) ) ;
#330 = CARTESIAN_POINT ( 'NONE',  ( -7.000000000000000888, 0.000000000000000000, 257.0000000000000000 ) ) ;
#331 = CIRCLE ( 'NONE', #244, 7.000000000000000888 ) ;
#332 = CC_DESIGN_APPROVAL ( #314, ( #212 ) ) ;
#333 = CARTESIAN_POINT ( 'NONE',  ( 0.000000000000000000, 0.000000000000000000, 7.000000000000000000 ) ) ;
#334 = DIRECTION ( 'NONE',  ( 0.000000000000000000, 0.000000000000000000, 1.000000000000000000 ) ) ;
#335 = CARTESIAN_POINT ( 'NONE',  ( 0.000000000000000000, 0.000000000000000000, 7.000000000000000000 ) ) ;
#336 = CARTESIAN_POINT ( 'NONE',  ( -11.00000000000000000, 0.000000000000000000, 7.000000000000000000 ) ) ;
#337 = AXIS2_PLACEMENT_3D ( 'NONE', #247, #303, #326 ) ;
#338 = AXIS2_PLACEMENT_3D ( 'NONE', #156, #273, #111 ) ;
#339 = ORIENTED_EDGE ( 'NONE', *, *, #50, .T. ) ;
#340 = FACE_OUTER_BOUND ( 'NONE', #201, .T. ) ;
#341 = ORIENTED_EDGE ( 'NONE', *, *, #197, .F. ) ;
#342 = ORIENTED_EDGE ( 'NONE', *, *, #110, .F. ) ;
#343 = ORIENTED_EDGE ( 'NONE', *, *, #320, .T. ) ;
#344 = DESIGN_CONTEXT ( 'detailed design', #79, 'design' ) ;
#345 = AXIS2_PLACEMENT_3D ( 'NONE', #178, #32, #149 ) ;
#346 = CC_DESIGN_PERSON_AND_ORGANIZATION_ASSIGNMENT ( #348, #77, ( #222 ) ) ;
#347 = EDGE_LOOP ( 'NONE', ( #318, #82, #81, #129 ) ) ;
#348 = PERSON_AND_ORGANIZATION ( #135, #66 ) ;
#349 = ORIENTED_EDGE ( 'NONE', *, *, #43, .T. ) ;
#350 = VERTEX_POINT ( 'NONE', #8 ) ;
#351 = AXIS2_PLACEMENT_3D ( 'NONE', #245, #183, #37 ) ;
#352 = LINE ( 'NONE', #268, #136 ) ;
#353 = VERTEX_POINT ( 'NONE', #192 ) ;
#354 = CARTESIAN_POINT ( 'NONE',  ( -5.000000000000000000, 0.000000000000000000, 257.0000000000000000 ) ) ;
#355 = CALENDAR_DATE ( 2022, 8, 7 ) ;
#356 = CIRCLE ( 'NONE', #291, 7.000000000000000888 ) ;
#357 = CARTESIAN_POINT ( 'NONE',  ( 5.000000000000000000, 6.123233995736766282E-16, 257.0000000000000000 ) ) ;
#358 = ADVANCED_FACE ( 'NONE', ( #365, #340 ), #230, .F. ) ;
#359 = CARTESIAN_POINT ( 'NONE',  ( -7.000000000000000888, 0.000000000000000000, 257.0000000000000000 ) ) ;
#360 = AXIS2_PLACEMENT_3D ( 'NONE', #186, #363, #67 ) ;
#361 = AXIS2_PLACEMENT_3D ( 'NONE', #157, #102, #195 ) ;
#362 = DIRECTION ( 'NONE',  ( 0.000000000000000000, 0.000000000000000000, -1.000000000000000000 ) ) ;
#363 = DIRECTION ( 'NONE',  ( 1.224646799147353207E-16, 1.000000000000000000, -0.000000000000000000 ) ) ;
#364 = EDGE_LOOP ( 'NONE', ( #23, #179 ) ) ;
#365 = FACE_BOUND ( 'NONE', #48, .T. ) ;
#366 = FACE_OUTER_BOUND ( 'NONE', #238, .T. ) ;
#367 = CIRCLE ( 'NONE', #206, 11.00000000000000000 ) ;
#368 = CIRCLE ( 'NONE', #187, 5.000000000000000000 ) ;
#369 = ORIENTED_EDGE ( 'NONE', *, *, #43, .F. ) ;
#370 = PERSON_AND_ORGANIZATION ( #135, #66 ) ;
#371 = ORIENTED_EDGE ( 'NONE', *, *, #243, .T. ) ;
#372 = MECHANICAL_CONTEXT ( 'NONE', #132, 'mechanical' ) ;
#373 = ORIENTED_EDGE ( 'NONE', *, *, #243, .F. ) ;
#374 = PERSON_AND_ORGANIZATION_ROLE ( 'creator' ) ;
#375 = ORIENTED_EDGE ( 'NONE', *, *, #260, .F. ) ;
#376 = APPROVAL ( #137, 'NEURÈENÝ' ) ;
#377 = ORIENTED_EDGE ( 'NONE', *, *, #260, .T. ) ;
#378 = AXIS2_PLACEMENT_3D ( 'NONE', #380, #61, #116 ) ;
#379 = ORIENTED_EDGE ( 'NONE', *, *, #4, .F. ) ;
#380 = CARTESIAN_POINT ( 'NONE',  ( 0.000000000000000000, 0.000000000000000000, 257.0000000000000000 ) ) ;
#381 = PERSON_AND_ORGANIZATION_ROLE ( 'design_supplier' ) ;
ENDSEC;
END-ISO-10303-21;
