ISO-10303-21;
HEADER;
FILE_DESCRIPTION (( 'STEP AP203' ),
    '1' );
FILE_NAME ('0c09.STEP',
    '2022-07-08T15:20:17',
    ( '' ),
    ( '' ),
    'SwSTEP 2.0',
    'SolidWorks 2019',
    '' );
FILE_SCHEMA (( 'CONFIG_CONTROL_DESIGN' ));
ENDSEC;

DATA;
#1 = ORIENTED_EDGE ( 'NONE', *, *, #274, .F. ) ;
#2 = ADVANCED_FACE ( 'NONE', ( #39 ), #265, .F. ) ;
#3 = DIRECTION ( 'NONE',  ( 1.000000000000000000, 0.000000000000000000, 0.000000000000000000 ) ) ;
#4 = ORIENTED_EDGE ( 'NONE', *, *, #351, .T. ) ;
#5 = VECTOR ( 'NONE', #56, 1000.000000000000000 ) ;
#6 = ORIENTED_EDGE ( 'NONE', *, *, #301, .T. ) ;
#7 = DIRECTION ( 'NONE',  ( 0.000000000000000000, 0.000000000000000000, 1.000000000000000000 ) ) ;
#8 = DIRECTION ( 'NONE',  ( 1.000000000000000000, 0.000000000000000000, 0.000000000000000000 ) ) ;
#9 = CARTESIAN_POINT ( 'NONE',  ( 0.000000000000000000, 0.000000000000000000, 230.0000000000000000 ) ) ;
#10 = LOCAL_TIME ( 17, 20, 17.00000000000000000, #325 ) ;
#11 = PERSON_AND_ORGANIZATION_ROLE ( 'creator' ) ;
#12 = CARTESIAN_POINT ( 'NONE',  ( 7.000000000000000000, 8.572527594031473190E-16, 5.000000000000000000 ) ) ;
#13 = EDGE_LOOP ( 'NONE', ( #28, #230 ) ) ;
#14 = DATE_AND_TIME ( #70, #10 ) ;
#15 = PRODUCT ( '0c09', '0c09', '', ( #97 ) ) ;
#16 = DIRECTION ( 'NONE',  ( 1.000000000000000000, 0.000000000000000000, -0.000000000000000000 ) ) ;
#17 = AXIS2_PLACEMENT_3D ( 'NONE', #294, #157, #8 ) ;
#18 = EDGE_CURVE ( 'NONE', #65, #283, #264, .T. ) ;
#19 = DIRECTION ( 'NONE',  ( 1.000000000000000000, 0.000000000000000000, 0.000000000000000000 ) ) ;
#20 = CIRCLE ( 'NONE', #57, 4.000000000000000000 ) ;
#21 = LINE ( 'NONE', #280, #344 ) ;
#22 = AXIS2_PLACEMENT_3D ( 'NONE', #119, #231, #30 ) ;
#23 = PERSON_AND_ORGANIZATION_ROLE ( 'classification_officer' ) ;
#24 = CARTESIAN_POINT ( 'NONE',  ( 7.000000000000000000, 8.572527594031473190E-16, 5.000000000000000000 ) ) ;
#25 = ORIENTED_EDGE ( 'NONE', *, *, #18, .F. ) ;
#26 = ORIENTED_EDGE ( 'NONE', *, *, #182, .F. ) ;
#27 = CARTESIAN_POINT ( 'NONE',  ( 0.000000000000000000, 0.000000000000000000, 230.0000000000000000 ) ) ;
#28 = ORIENTED_EDGE ( 'NONE', *, *, #142, .F. ) ;
#29 = LOCAL_TIME ( 17, 20, 17.00000000000000000, #44 ) ;
#30 = DIRECTION ( 'NONE',  ( -1.000000000000000000, 1.224646799147351482E-16, 0.000000000000000000 ) ) ;
#31 = CARTESIAN_POINT ( 'NONE',  ( 7.000000000000000000, 8.572527594031473190E-16, 0.000000000000000000 ) ) ;
#32 = ORIENTED_EDGE ( 'NONE', *, *, #243, .T. ) ;
#33 = DIRECTION ( 'NONE',  ( -0.000000000000000000, -0.000000000000000000, -1.000000000000000000 ) ) ;
#34 = EDGE_LOOP ( 'NONE', ( #369, #4 ) ) ;
#35 = TOROIDAL_SURFACE ( 'NONE', #89, 4.500000000000000888, 0.5000000000000000000 ) ;
#36 = CARTESIAN_POINT ( 'NONE',  ( 0.000000000000000000, 0.000000000000000000, 0.000000000000000000 ) ) ;
#37 = ORIENTED_EDGE ( 'NONE', *, *, #301, .F. ) ;
#38 =( GEOMETRIC_REPRESENTATION_CONTEXT ( 3 ) GLOBAL_UNCERTAINTY_ASSIGNED_CONTEXT ( ( #281 ) ) GLOBAL_UNIT_ASSIGNED_CONTEXT ( ( #282, #139, #374 ) ) REPRESENTATION_CONTEXT ( 'NONE', 'WORKASPACE' ) );
#39 = FACE_OUTER_BOUND ( 'NONE', #149, .T. ) ;
#40 = DIRECTION ( 'NONE',  ( 0.000000000000000000, 0.000000000000000000, 1.000000000000000000 ) ) ;
#41 = AXIS2_PLACEMENT_3D ( 'NONE', #214, #354, #43 ) ;
#42 = CIRCLE ( 'NONE', #163, 2.500000000000000000 ) ;
#43 = DIRECTION ( 'NONE',  ( 1.000000000000000000, 0.000000000000000000, -0.000000000000000000 ) ) ;
#44 = COORDINATED_UNIVERSAL_TIME_OFFSET ( 1, 0, .AHEAD. ) ;
#45 = DIRECTION ( 'NONE',  ( -0.000000000000000000, -0.000000000000000000, -1.000000000000000000 ) ) ;
#46 = CIRCLE ( 'NONE', #68, 4.000000000000000000 ) ;
#47 = DATE_TIME_ROLE ( 'creation_date' ) ;
#48 = DIRECTION ( 'NONE',  ( 0.000000000000000000, 0.000000000000000000, 1.000000000000000000 ) ) ;
#49 = LINE ( 'NONE', #158, #199 ) ;
#50 = CARTESIAN_POINT ( 'NONE',  ( 0.000000000000000000, 0.000000000000000000, 230.0000000000000000 ) ) ;
#51 = AXIS2_PLACEMENT_3D ( 'NONE', #141, #226, #171 ) ;
#52 = CALENDAR_DATE ( 2022, 8, 7 ) ;
#53 = FACE_BOUND ( 'NONE', #348, .T. ) ;
#54 = DATE_AND_TIME ( #248, #218 ) ;
#55 = DIRECTION ( 'NONE',  ( 1.000000000000000000, 0.000000000000000000, 0.000000000000000000 ) ) ;
#56 = DIRECTION ( 'NONE',  ( -0.000000000000000000, -0.000000000000000000, -1.000000000000000000 ) ) ;
#57 = AXIS2_PLACEMENT_3D ( 'NONE', #276, #329, #246 ) ;
#58 = CARTESIAN_POINT ( 'NONE',  ( 4.000000000000000000, 4.898587196589412829E-16, 5.500000000000005329 ) ) ;
#59 = ORIENTED_EDGE ( 'NONE', *, *, #256, .T. ) ;
#60 = VERTEX_POINT ( 'NONE', #323 ) ;
#61 = AXIS2_PLACEMENT_3D ( 'NONE', #62, #123, #176 ) ;
#62 = CARTESIAN_POINT ( 'NONE',  ( 4.500000000000000888, 0.000000000000000000, 5.500000000000005329 ) ) ;
#63 = VERTEX_POINT ( 'NONE', #326 ) ;
#64 = CARTESIAN_POINT ( 'NONE',  ( 0.000000000000000000, 0.000000000000000000, 230.0000000000000000 ) ) ;
#65 = VERTEX_POINT ( 'NONE', #162 ) ;
#66 = EDGE_LOOP ( 'NONE', ( #309, #253 ) ) ;
#67 = CC_DESIGN_PERSON_AND_ORGANIZATION_ASSIGNMENT ( #183, #319, ( #15 ) ) ;
#68 = AXIS2_PLACEMENT_3D ( 'NONE', #378, #314, #88 ) ;
#69 = DIRECTION ( 'NONE',  ( -0.000000000000000000, -0.000000000000000000, -1.000000000000000000 ) ) ;
#70 = CALENDAR_DATE ( 2022, 8, 7 ) ;
#71 = EDGE_CURVE ( 'NONE', #315, #117, #360, .T. ) ;
#72 = DIRECTION ( 'NONE',  ( -0.000000000000000000, -0.000000000000000000, -1.000000000000000000 ) ) ;
#73 = CARTESIAN_POINT ( 'NONE',  ( 4.000000000000000000, 4.898587196589412829E-16, 230.0000000000000000 ) ) ;
#74 = FACE_OUTER_BOUND ( 'NONE', #174, .T. ) ;
#75 = CIRCLE ( 'NONE', #245, 4.000000000000000000 ) ;
#76 = FACE_OUTER_BOUND ( 'NONE', #34, .T. ) ;
#77 = CIRCLE ( 'NONE', #121, 2.500000000000000000 ) ;
#78 = APPROVAL_DATE_TIME ( #167, #268 ) ;
#79 = PLANE ( 'NONE',  #361 ) ;
#80 = APPLICATION_CONTEXT ( 'configuration controlled 3d designs of mechanical parts and assemblies' ) ;
#81 = VERTEX_POINT ( 'NONE', #12 ) ;
#82 = CARTESIAN_POINT ( 'NONE',  ( 0.000000000000000000, 0.000000000000000000, 5.000000000000000000 ) ) ;
#83 = FACE_OUTER_BOUND ( 'NONE', #228, .T. ) ;
#84 = CARTESIAN_POINT ( 'NONE',  ( 0.000000000000000000, 0.000000000000000000, 0.000000000000000000 ) ) ;
#85 = CC_DESIGN_APPROVAL ( #278, ( #114 ) ) ;
#86 = DIRECTION ( 'NONE',  ( -1.000000000000000000, 0.000000000000000000, 0.000000000000000000 ) ) ;
#87 = ADVANCED_FACE ( 'NONE', ( #298, #129 ), #102, .F. ) ;
#88 = DIRECTION ( 'NONE',  ( 1.000000000000000000, 0.000000000000000000, 0.000000000000000000 ) ) ;
#89 = AXIS2_PLACEMENT_3D ( 'NONE', #146, #48, #187 ) ;
#90 = ORIENTED_EDGE ( 'NONE', *, *, #107, .F. ) ;
#91 = AXIS2_PLACEMENT_3D ( 'NONE', #341, #202, #93 ) ;
#92 = ORGANIZATION ( 'NEURÈENÝ', 'NEURÈENÝ', '' ) ;
#93 = DIRECTION ( 'NONE',  ( -1.000000000000000000, 0.000000000000000000, 0.000000000000000000 ) ) ;
#94 = ORIENTED_EDGE ( 'NONE', *, *, #71, .F. ) ;
#95 = CYLINDRICAL_SURFACE ( 'NONE', #173, 2.500000000000000000 ) ;
#96 = ORIENTED_EDGE ( 'NONE', *, *, #213, .T. ) ;
#97 = MECHANICAL_CONTEXT ( 'NONE', #178, 'mechanical' ) ;
#98 = ORIENTED_EDGE ( 'NONE', *, *, #107, .T. ) ;
#99 = CIRCLE ( 'NONE', #287, 4.500000000000000888 ) ;
#100 = PERSON_AND_ORGANIZATION ( #299, #92 ) ;
#101 = AXIS2_PLACEMENT_3D ( 'NONE', #203, #7, #125 ) ;
#102 = PLANE ( 'NONE',  #41 ) ;
#103 = AXIS2_PLACEMENT_3D ( 'NONE', #334, #188, #194 ) ;
#104 = DIRECTION ( 'NONE',  ( 1.000000000000000000, 0.000000000000000000, 0.000000000000000000 ) ) ;
#105 = APPROVAL_STATUS ( 'not_yet_approved' ) ;
#106 = CARTESIAN_POINT ( 'NONE',  ( 0.000000000000000000, 0.000000000000000000, 5.000000000000000000 ) ) ;
#107 = EDGE_CURVE ( 'NONE', #63, #288, #75, .T. ) ;
#108 = CARTESIAN_POINT ( 'NONE',  ( 0.000000000000000000, 0.000000000000000000, 230.0000000000000000 ) ) ;
#109 = PERSON_AND_ORGANIZATION ( #299, #92 ) ;
#110 = DIRECTION ( 'NONE',  ( 0.000000000000000000, 0.000000000000000000, 1.000000000000000000 ) ) ;
#111 = LOCAL_TIME ( 17, 20, 17.00000000000000000, #367 ) ;
#112 = DIRECTION ( 'NONE',  ( 0.000000000000000000, 0.000000000000000000, 1.000000000000000000 ) ) ;
#113 = DIRECTION ( 'NONE',  ( 1.000000000000000000, 0.000000000000000000, 0.000000000000000000 ) ) ;
#114 = PRODUCT_DEFINITION_FORMATION_WITH_SPECIFIED_SOURCE ( 'LIBOVOLNÝ', '', #15, .NOT_KNOWN. ) ;
#115 = VERTEX_POINT ( 'NONE', #73 ) ;
#116 = DIRECTION ( 'NONE',  ( -1.000000000000000000, 0.000000000000000000, 0.000000000000000000 ) ) ;
#117 = VERTEX_POINT ( 'NONE', #159 ) ;
#118 = CYLINDRICAL_SURFACE ( 'NONE', #143, 4.000000000000000000 ) ;
#119 = CARTESIAN_POINT ( 'NONE',  ( -4.500000000000000888, 5.510910596163089556E-16, 5.500000000000005329 ) ) ;
#120 = ORIENTED_EDGE ( 'NONE', *, *, #142, .T. ) ;
#121 = AXIS2_PLACEMENT_3D ( 'NONE', #84, #219, #55 ) ;
#122 = ADVANCED_FACE ( 'NONE', ( #164 ), #155, .F. ) ;
#123 = DIRECTION ( 'NONE',  ( 0.000000000000000000, -1.000000000000000000, 0.000000000000000000 ) ) ;
#124 = ORIENTED_EDGE ( 'NONE', *, *, #251, .T. ) ;
#125 = DIRECTION ( 'NONE',  ( 1.000000000000000000, 0.000000000000000000, 0.000000000000000000 ) ) ;
#126 = CALENDAR_DATE ( 2022, 8, 7 ) ;
#127 = ADVANCED_FACE ( 'NONE', ( #83 ), #35, .F. ) ;
#128 = CARTESIAN_POINT ( 'NONE',  ( 0.000000000000000000, 0.000000000000000000, 5.000000000000000000 ) ) ;
#129 = FACE_OUTER_BOUND ( 'NONE', #239, .T. ) ;
#130 = DATE_AND_TIME ( #237, #29 ) ;
#131 = VERTEX_POINT ( 'NONE', #31 ) ;
#132 = EDGE_CURVE ( 'NONE', #115, #288, #49, .T. ) ;
#133 = CC_DESIGN_APPROVAL ( #268, ( #322 ) ) ;
#134 = LINE ( 'NONE', #24, #262 ) ;
#135 = AXIS2_PLACEMENT_3D ( 'NONE', #270, #267, #19 ) ;
#136 = PERSON_AND_ORGANIZATION_ROLE ( 'creator' ) ;
#137 = AXIS2_PLACEMENT_3D ( 'NONE', #220, #221, #368 ) ;
#138 = LINE ( 'NONE', #169, #5 ) ;
#139 =( NAMED_UNIT ( * ) PLANE_ANGLE_UNIT ( ) SI_UNIT ( $, .RADIAN. ) );
#140 = ORIENTED_EDGE ( 'NONE', *, *, #317, .T. ) ;
#141 = CARTESIAN_POINT ( 'NONE',  ( 0.000000000000000000, 0.000000000000000000, 5.000000000000000000 ) ) ;
#142 = EDGE_CURVE ( 'NONE', #283, #117, #42, .T. ) ;
#143 = AXIS2_PLACEMENT_3D ( 'NONE', #27, #338, #86 ) ;
#144 = VERTEX_POINT ( 'NONE', #161 ) ;
#145 = CARTESIAN_POINT ( 'NONE',  ( 2.500000000000000000, 3.061616997868383141E-16, 230.0000000000000000 ) ) ;
#146 = CARTESIAN_POINT ( 'NONE',  ( 0.000000000000000000, 0.000000000000000000, 5.500000000000005329 ) ) ;
#147 = ORIENTED_EDGE ( 'NONE', *, *, #277, .T. ) ;
#148 = ORIENTED_EDGE ( 'NONE', *, *, #197, .F. ) ;
#149 = EDGE_LOOP ( 'NONE', ( #37, #200, #376, #179 ) ) ;
#150 = LOCAL_TIME ( 17, 20, 17.00000000000000000, #212 ) ;
#151 = VERTEX_POINT ( 'NONE', #154 ) ;
#152 = PERSON_AND_ORGANIZATION ( #299, #92 ) ;
#153 = CC_DESIGN_PERSON_AND_ORGANIZATION_ASSIGNMENT ( #300, #136, ( #114 ) ) ;
#154 = CARTESIAN_POINT ( 'NONE',  ( -4.500000000000000888, 5.510910596163088569E-16, 5.000000000000002665 ) ) ;
#155 = CYLINDRICAL_SURFACE ( 'NONE', #156, 2.500000000000000000 ) ;
#156 = AXIS2_PLACEMENT_3D ( 'NONE', #9, #250, #335 ) ;
#157 = DIRECTION ( 'NONE',  ( 0.000000000000000000, 0.000000000000000000, 1.000000000000000000 ) ) ;
#158 = CARTESIAN_POINT ( 'NONE',  ( 4.000000000000000000, 4.898587196589412829E-16, 230.0000000000000000 ) ) ;
#159 = CARTESIAN_POINT ( 'NONE',  ( 2.500000000000000000, 3.061616997868383141E-16, 0.000000000000000000 ) ) ;
#160 = CIRCLE ( 'NONE', #303, 7.000000000000000000 ) ;
#161 = CARTESIAN_POINT ( 'NONE',  ( 4.500000000000000888, 0.000000000000000000, 5.000000000000002665 ) ) ;
#162 = CARTESIAN_POINT ( 'NONE',  ( -2.500000000000000000, 0.000000000000000000, 230.0000000000000000 ) ) ;
#163 = AXIS2_PLACEMENT_3D ( 'NONE', #238, #69, #185 ) ;
#164 = FACE_OUTER_BOUND ( 'NONE', #261, .T. ) ;
#165 = CIRCLE ( 'NONE', #137, 4.000000000000000000 ) ;
#166 = DIRECTION ( 'NONE',  ( 0.000000000000000000, 0.000000000000000000, 1.000000000000000000 ) ) ;
#167 = DATE_AND_TIME ( #52, #111 ) ;
#168 = FACE_BOUND ( 'NONE', #66, .T. ) ;
#169 = CARTESIAN_POINT ( 'NONE',  ( -4.000000000000000000, 0.000000000000000000, 230.0000000000000000 ) ) ;
#170 = DIRECTION ( 'NONE',  ( -0.000000000000000000, -0.000000000000000000, -1.000000000000000000 ) ) ;
#171 = DIRECTION ( 'NONE',  ( 1.000000000000000000, 0.000000000000000000, 0.000000000000000000 ) ) ;
#172 = ADVANCED_BREP_SHAPE_REPRESENTATION ( '0c09', ( #363, #17 ), #38 ) ;
#173 = AXIS2_PLACEMENT_3D ( 'NONE', #64, #206, #116 ) ;
#174 = EDGE_LOOP ( 'NONE', ( #96, #140 ) ) ;
#175 = ADVANCED_FACE ( 'NONE', ( #359 ), #324, .T. ) ;
#176 = DIRECTION ( 'NONE',  ( 0.000000000000000000, 0.000000000000000000, -1.000000000000000000 ) ) ;
#177 = EDGE_LOOP ( 'NONE', ( #352, #333, #181, #1 ) ) ;
#178 = APPLICATION_CONTEXT ( 'configuration controlled 3d designs of mechanical parts and assemblies' ) ;
#179 = ORIENTED_EDGE ( 'NONE', *, *, #210, .F. ) ;
#180 = APPROVAL_STATUS ( 'not_yet_approved' ) ;
#181 = ORIENTED_EDGE ( 'NONE', *, *, #195, .T. ) ;
#182 = EDGE_CURVE ( 'NONE', #144, #151, #227, .T. ) ;
#183 = PERSON_AND_ORGANIZATION ( #299, #92 ) ;
#184 = CIRCLE ( 'NONE', #61, 0.5000000000000004441 ) ;
#185 = DIRECTION ( 'NONE',  ( 1.000000000000000000, 0.000000000000000000, 0.000000000000000000 ) ) ;
#186 = CARTESIAN_POINT ( 'NONE',  ( 0.000000000000000000, 0.000000000000000000, 5.500000000000005329 ) ) ;
#187 = DIRECTION ( 'NONE',  ( 1.000000000000000000, 0.000000000000000000, 0.000000000000000000 ) ) ;
#188 = DIRECTION ( 'NONE',  ( 0.000000000000000000, 0.000000000000000000, 1.000000000000000000 ) ) ;
#189 = PERSON_AND_ORGANIZATION ( #299, #92 ) ;
#190 = DIRECTION ( 'NONE',  ( 0.000000000000000000, 0.000000000000000000, 1.000000000000000000 ) ) ;
#191 = VECTOR ( 'NONE', #364, 1000.000000000000000 ) ;
#192 = DIRECTION ( 'NONE',  ( 1.000000000000000000, 0.000000000000000000, 0.000000000000000000 ) ) ;
#193 = EDGE_LOOP ( 'NONE', ( #293, #124, #259, #207 ) ) ;
#194 = DIRECTION ( 'NONE',  ( 1.000000000000000000, 0.000000000000000000, 0.000000000000000000 ) ) ;
#195 = EDGE_CURVE ( 'NONE', #288, #63, #20, .T. ) ;
#196 = AXIS2_PLACEMENT_3D ( 'NONE', #313, #190, #16 ) ;
#197 = EDGE_CURVE ( 'NONE', #247, #115, #165, .T. ) ;
#198 = EDGE_LOOP ( 'NONE', ( #356, #148, #339, #98 ) ) ;
#199 = VECTOR ( 'NONE', #45, 1000.000000000000000 ) ;
#200 = ORIENTED_EDGE ( 'NONE', *, *, #195, .F. ) ;
#201 = ADVANCED_FACE ( 'NONE', ( #53, #74 ), #79, .T. ) ;
#202 = DIRECTION ( 'NONE',  ( -0.000000000000000000, -0.000000000000000000, -1.000000000000000000 ) ) ;
#203 = CARTESIAN_POINT ( 'NONE',  ( 0.000000000000000000, 0.000000000000000000, 5.500000000000005329 ) ) ;
#204 = FACE_OUTER_BOUND ( 'NONE', #263, .T. ) ;
#205 = VERTEX_POINT ( 'NONE', #373 ) ;
#206 = DIRECTION ( 'NONE',  ( 0.000000000000000000, 0.000000000000000000, -1.000000000000000000 ) ) ;
#207 = ORIENTED_EDGE ( 'NONE', *, *, #277, .F. ) ;
#208 = APPROVAL_ROLE ( '' ) ;
#209 = EDGE_CURVE ( 'NONE', #205, #131, #377, .T. ) ;
#210 = EDGE_CURVE ( 'NONE', #151, #144, #99, .T. ) ;
#211 = CIRCLE ( 'NONE', #22, 0.5000000000000004441 ) ;
#212 = COORDINATED_UNIVERSAL_TIME_OFFSET ( 1, 0, .AHEAD. ) ;
#213 = EDGE_CURVE ( 'NONE', #60, #81, #160, .T. ) ;
#214 = CARTESIAN_POINT ( 'NONE',  ( 0.000000000000000000, 0.000000000000000000, 0.000000000000000000 ) ) ;
#215 = COORDINATED_UNIVERSAL_TIME_OFFSET ( 1, 0, .AHEAD. ) ;
#216 = CARTESIAN_POINT ( 'NONE',  ( -4.000000000000000000, 0.000000000000000000, 230.0000000000000000 ) ) ;
#217 = DATE_TIME_ROLE ( 'classification_date' ) ;
#218 = LOCAL_TIME ( 17, 20, 17.00000000000000000, #215 ) ;
#219 = DIRECTION ( 'NONE',  ( -0.000000000000000000, -0.000000000000000000, -1.000000000000000000 ) ) ;
#220 = CARTESIAN_POINT ( 'NONE',  ( 0.000000000000000000, 0.000000000000000000, 230.0000000000000000 ) ) ;
#221 = DIRECTION ( 'NONE',  ( 0.000000000000000000, 0.000000000000000000, 1.000000000000000000 ) ) ;
#222 = CC_DESIGN_PERSON_AND_ORGANIZATION_ASSIGNMENT ( #189, #304, ( #114 ) ) ;
#223 = FACE_OUTER_BOUND ( 'NONE', #198, .T. ) ;
#224 = CIRCLE ( 'NONE', #51, 7.000000000000000000 ) ;
#225 = ORIENTED_EDGE ( 'NONE', *, *, #18, .T. ) ;
#226 = DIRECTION ( 'NONE',  ( 0.000000000000000000, 0.000000000000000000, 1.000000000000000000 ) ) ;
#227 = CIRCLE ( 'NONE', #135, 4.500000000000000888 ) ;
#228 = EDGE_LOOP ( 'NONE', ( #90, #6, #26, #252 ) ) ;
#229 = AXIS2_PLACEMENT_3D ( 'NONE', #258, #33, #345 ) ;
#230 = ORIENTED_EDGE ( 'NONE', *, *, #256, .F. ) ;
#231 = DIRECTION ( 'NONE',  ( 1.224646799147353207E-16, 1.000000000000000000, -0.000000000000000000 ) ) ;
#232 = CARTESIAN_POINT ( 'NONE',  ( -2.500000000000000000, 0.000000000000000000, 230.0000000000000000 ) ) ;
#233 = APPROVAL_STATUS ( 'not_yet_approved' ) ;
#234 = CIRCLE ( 'NONE', #269, 2.500000000000000000 ) ;
#235 = APPLICATION_PROTOCOL_DEFINITION ( 'international standard', 'config_control_design', 1994, #178 ) ;
#236 = CC_DESIGN_PERSON_AND_ORGANIZATION_ASSIGNMENT ( #109, #23, ( #322 ) ) ;
#237 = CALENDAR_DATE ( 2022, 8, 7 ) ;
#238 = CARTESIAN_POINT ( 'NONE',  ( 0.000000000000000000, 0.000000000000000000, 0.000000000000000000 ) ) ;
#239 = EDGE_LOOP ( 'NONE', ( #342, #318 ) ) ;
#240 = APPROVAL_PERSON_ORGANIZATION ( #272, #278, #353 ) ;
#241 = EDGE_CURVE ( 'NONE', #65, #315, #234, .T. ) ;
#242 = DIRECTION ( 'NONE',  ( -0.000000000000000000, -0.000000000000000000, -1.000000000000000000 ) ) ;
#243 = EDGE_CURVE ( 'NONE', #315, #65, #312, .T. ) ;
#244 = DIRECTION ( 'NONE',  ( 1.000000000000000000, 0.000000000000000000, 0.000000000000000000 ) ) ;
#245 = AXIS2_PLACEMENT_3D ( 'NONE', #186, #40, #104 ) ;
#246 = DIRECTION ( 'NONE',  ( 1.000000000000000000, 0.000000000000000000, 0.000000000000000000 ) ) ;
#247 = VERTEX_POINT ( 'NONE', #216 ) ;
#248 = CALENDAR_DATE ( 2022, 8, 7 ) ;
#249 = CIRCLE ( 'NONE', #327, 7.000000000000000000 ) ;
#250 = DIRECTION ( 'NONE',  ( 0.000000000000000000, 0.000000000000000000, -1.000000000000000000 ) ) ;
#251 = EDGE_CURVE ( 'NONE', #81, #131, #134, .T. ) ;
#252 = ORIENTED_EDGE ( 'NONE', *, *, #291, .F. ) ;
#253 = ORIENTED_EDGE ( 'NONE', *, *, #243, .F. ) ;
#254 = CYLINDRICAL_SURFACE ( 'NONE', #229, 4.000000000000000000 ) ;
#255 = AXIS2_PLACEMENT_3D ( 'NONE', #50, #110, #113 ) ;
#256 = EDGE_CURVE ( 'NONE', #117, #283, #77, .T. ) ;
#257 = ORIENTED_EDGE ( 'NONE', *, *, #251, .F. ) ;
#258 = CARTESIAN_POINT ( 'NONE',  ( 0.000000000000000000, 0.000000000000000000, 230.0000000000000000 ) ) ;
#259 = ORIENTED_EDGE ( 'NONE', *, *, #306, .T. ) ;
#260 = CARTESIAN_POINT ( 'NONE',  ( -2.500000000000000000, 0.000000000000000000, 0.000000000000000000 ) ) ;
#261 = EDGE_LOOP ( 'NONE', ( #94, #32, #225, #120 ) ) ;
#262 = VECTOR ( 'NONE', #336, 1000.000000000000000 ) ;
#263 = EDGE_LOOP ( 'NONE', ( #320, #316, #59, #25 ) ) ;
#264 = LINE ( 'NONE', #232, #191 ) ;
#265 = TOROIDAL_SURFACE ( 'NONE', #101, 4.500000000000000888, 0.5000000000000000000 ) ;
#266 = ADVANCED_FACE ( 'NONE', ( #168, #76 ), #307, .T. ) ;
#267 = DIRECTION ( 'NONE',  ( -0.000000000000000000, -0.000000000000000000, -1.000000000000000000 ) ) ;
#268 = APPROVAL ( #105, 'NEURÈENÝ' ) ;
#269 = AXIS2_PLACEMENT_3D ( 'NONE', #108, #166, #244 ) ;
#270 = CARTESIAN_POINT ( 'NONE',  ( 0.000000000000000000, 0.000000000000000000, 5.000000000000000000 ) ) ;
#271 = CARTESIAN_POINT ( 'NONE',  ( 2.500000000000000000, 3.061616997868383141E-16, 230.0000000000000000 ) ) ;
#272 = PERSON_AND_ORGANIZATION ( #299, #92 ) ;
#273 = SHAPE_DEFINITION_REPRESENTATION ( #346, #172 ) ;
#274 = EDGE_CURVE ( 'NONE', #247, #63, #138, .T. ) ;
#275 = PRODUCT_DEFINITION ( 'NEZNÁMÝ', '', #114, #371 ) ;
#276 = CARTESIAN_POINT ( 'NONE',  ( 0.000000000000000000, 0.000000000000000000, 5.500000000000005329 ) ) ;
#277 = EDGE_CURVE ( 'NONE', #60, #205, #21, .T. ) ;
#278 = APPROVAL ( #233, 'NEURÈENÝ' ) ;
#279 = APPROVAL_PERSON_ORGANIZATION ( #100, #308, #208 ) ;
#280 = CARTESIAN_POINT ( 'NONE',  ( -7.000000000000000000, 0.000000000000000000, 5.000000000000000000 ) ) ;
#281 = UNCERTAINTY_MEASURE_WITH_UNIT (LENGTH_MEASURE( 1.000000000000000082E-05 ), #282, 'distance_accuracy_value', 'NONE');
#282 =( LENGTH_UNIT ( ) NAMED_UNIT ( * ) SI_UNIT ( .MILLI., .METRE. ) );
#283 = VERTEX_POINT ( 'NONE', #260 ) ;
#284 = CYLINDRICAL_SURFACE ( 'NONE', #91, 7.000000000000000000 ) ;
#285 = ORIENTED_EDGE ( 'NONE', *, *, #209, .T. ) ;
#286 = FACE_OUTER_BOUND ( 'NONE', #193, .T. ) ;
#287 = AXIS2_PLACEMENT_3D ( 'NONE', #82, #170, #192 ) ;
#288 = VERTEX_POINT ( 'NONE', #58 ) ;
#289 = DIRECTION ( 'NONE',  ( 0.000000000000000000, 0.000000000000000000, 1.000000000000000000 ) ) ;
#290 = EDGE_LOOP ( 'NONE', ( #257, #311, #147, #285 ) ) ;
#291 = EDGE_CURVE ( 'NONE', #288, #144, #184, .T. ) ;
#292 = APPROVAL_PERSON_ORGANIZATION ( #332, #268, #370 ) ;
#293 = ORIENTED_EDGE ( 'NONE', *, *, #317, .F. ) ;
#294 = CARTESIAN_POINT ( 'NONE',  ( 0.000000000000000000, 0.000000000000000000, 0.000000000000000000 ) ) ;
#295 = DIRECTION ( 'NONE',  ( 0.000000000000000000, 0.000000000000000000, -1.000000000000000000 ) ) ;
#296 = PRODUCT_RELATED_PRODUCT_CATEGORY ( 'detail', '', ( #15 ) ) ;
#297 = DIRECTION ( 'NONE',  ( -1.000000000000000000, 0.000000000000000000, 0.000000000000000000 ) ) ;
#298 = FACE_BOUND ( 'NONE', #13, .T. ) ;
#299 = PERSON ( 'NEURÈENÝ', 'NEURÈENÝ', 'NEURÈENÝ', ('NEURÈENÝ'), ('NEURÈENÝ'), ('NEURÈENÝ') ) ;
#300 = PERSON_AND_ORGANIZATION ( #299, #92 ) ;
#301 = EDGE_CURVE ( 'NONE', #63, #151, #211, .T. ) ;
#302 = DIRECTION ( 'NONE',  ( 1.000000000000000000, 0.000000000000000000, 0.000000000000000000 ) ) ;
#303 = AXIS2_PLACEMENT_3D ( 'NONE', #305, #112, #302 ) ;
#304 = PERSON_AND_ORGANIZATION_ROLE ( 'design_supplier' ) ;
#305 = CARTESIAN_POINT ( 'NONE',  ( 0.000000000000000000, 0.000000000000000000, 5.000000000000000000 ) ) ;
#306 = EDGE_CURVE ( 'NONE', #131, #205, #249, .T. ) ;
#307 = PLANE ( 'NONE',  #196 ) ;
#308 = APPROVAL ( #180, 'NEURÈENÝ' ) ;
#309 = ORIENTED_EDGE ( 'NONE', *, *, #241, .F. ) ;
#310 = DIRECTION ( 'NONE',  ( 0.000000000000000000, 0.000000000000000000, 1.000000000000000000 ) ) ;
#311 = ORIENTED_EDGE ( 'NONE', *, *, #213, .F. ) ;
#312 = CIRCLE ( 'NONE', #255, 2.500000000000000000 ) ;
#313 = CARTESIAN_POINT ( 'NONE',  ( 0.000000000000000000, 0.000000000000000000, 230.0000000000000000 ) ) ;
#314 = DIRECTION ( 'NONE',  ( 0.000000000000000000, 0.000000000000000000, 1.000000000000000000 ) ) ;
#315 = VERTEX_POINT ( 'NONE', #145 ) ;
#316 = ORIENTED_EDGE ( 'NONE', *, *, #71, .T. ) ;
#317 = EDGE_CURVE ( 'NONE', #81, #60, #224, .T. ) ;
#318 = ORIENTED_EDGE ( 'NONE', *, *, #306, .F. ) ;
#319 = PERSON_AND_ORGANIZATION_ROLE ( 'design_owner' ) ;
#320 = ORIENTED_EDGE ( 'NONE', *, *, #241, .T. ) ;
#321 = DATE_AND_TIME ( #126, #150 ) ;
#322 = SECURITY_CLASSIFICATION ( '', '', #362 ) ;
#323 = CARTESIAN_POINT ( 'NONE',  ( -7.000000000000000000, 0.000000000000000000, 5.000000000000000000 ) ) ;
#324 = CYLINDRICAL_SURFACE ( 'NONE', #340, 7.000000000000000000 ) ;
#325 = COORDINATED_UNIVERSAL_TIME_OFFSET ( 1, 0, .AHEAD. ) ;
#326 = CARTESIAN_POINT ( 'NONE',  ( -4.000000000000000000, 0.000000000000000000, 5.500000000000005329 ) ) ;
#327 = AXIS2_PLACEMENT_3D ( 'NONE', #36, #289, #3 ) ;
#328 = ADVANCED_FACE ( 'NONE', ( #223 ), #254, .T. ) ;
#329 = DIRECTION ( 'NONE',  ( 0.000000000000000000, 0.000000000000000000, 1.000000000000000000 ) ) ;
#330 = ADVANCED_FACE ( 'NONE', ( #380 ), #118, .T. ) ;
#331 = CC_DESIGN_APPROVAL ( #308, ( #275 ) ) ;
#332 = PERSON_AND_ORGANIZATION ( #299, #92 ) ;
#333 = ORIENTED_EDGE ( 'NONE', *, *, #132, .T. ) ;
#334 = CARTESIAN_POINT ( 'NONE',  ( 0.000000000000000000, 0.000000000000000000, 0.000000000000000000 ) ) ;
#335 = DIRECTION ( 'NONE',  ( -1.000000000000000000, 0.000000000000000000, 0.000000000000000000 ) ) ;
#336 = DIRECTION ( 'NONE',  ( -0.000000000000000000, -0.000000000000000000, -1.000000000000000000 ) ) ;
#337 = CC_DESIGN_SECURITY_CLASSIFICATION ( #322, ( #114 ) ) ;
#338 = DIRECTION ( 'NONE',  ( -0.000000000000000000, -0.000000000000000000, -1.000000000000000000 ) ) ;
#339 = ORIENTED_EDGE ( 'NONE', *, *, #274, .T. ) ;
#340 = AXIS2_PLACEMENT_3D ( 'NONE', #128, #72, #297 ) ;
#341 = CARTESIAN_POINT ( 'NONE',  ( 0.000000000000000000, 0.000000000000000000, 5.000000000000000000 ) ) ;
#342 = ORIENTED_EDGE ( 'NONE', *, *, #209, .F. ) ;
#343 = ADVANCED_FACE ( 'NONE', ( #286 ), #284, .T. ) ;
#344 = VECTOR ( 'NONE', #242, 1000.000000000000000 ) ;
#345 = DIRECTION ( 'NONE',  ( -1.000000000000000000, 0.000000000000000000, 0.000000000000000000 ) ) ;
#346 = PRODUCT_DEFINITION_SHAPE ( 'NONE', 'NONE',  #275 ) ;
#347 = ORIENTED_EDGE ( 'NONE', *, *, #182, .T. ) ;
#348 = EDGE_LOOP ( 'NONE', ( #347, #379 ) ) ;
#349 = APPROVAL_DATE_TIME ( #321, #308 ) ;
#350 = VECTOR ( 'NONE', #295, 1000.000000000000000 ) ;
#351 = EDGE_CURVE ( 'NONE', #115, #247, #46, .T. ) ;
#352 = ORIENTED_EDGE ( 'NONE', *, *, #351, .F. ) ;
#353 = APPROVAL_ROLE ( '' ) ;
#354 = DIRECTION ( 'NONE',  ( 0.000000000000000000, 0.000000000000000000, 1.000000000000000000 ) ) ;
#355 = APPLICATION_PROTOCOL_DEFINITION ( 'international standard', 'config_control_design', 1994, #80 ) ;
#356 = ORIENTED_EDGE ( 'NONE', *, *, #132, .F. ) ;
#357 = APPROVAL_DATE_TIME ( #14, #278 ) ;
#358 = CC_DESIGN_DATE_AND_TIME_ASSIGNMENT ( #54, #217, ( #322 ) ) ;
#359 = FACE_OUTER_BOUND ( 'NONE', #290, .T. ) ;
#360 = LINE ( 'NONE', #271, #350 ) ;
#361 = AXIS2_PLACEMENT_3D ( 'NONE', #106, #310, #372 ) ;
#362 = SECURITY_CLASSIFICATION_LEVEL ( 'unclassified' ) ;
#363 = MANIFOLD_SOLID_BREP ( 'Odebrat vysunutím3', #365 ) ;
#364 = DIRECTION ( 'NONE',  ( 0.000000000000000000, 0.000000000000000000, -1.000000000000000000 ) ) ;
#365 = CLOSED_SHELL ( 'NONE', ( #381, #127, #330, #343, #175, #201, #87, #328, #266, #2, #122 ) ) ;
#366 = CC_DESIGN_PERSON_AND_ORGANIZATION_ASSIGNMENT ( #152, #11, ( #275 ) ) ;
#367 = COORDINATED_UNIVERSAL_TIME_OFFSET ( 1, 0, .AHEAD. ) ;
#368 = DIRECTION ( 'NONE',  ( 1.000000000000000000, 0.000000000000000000, 0.000000000000000000 ) ) ;
#369 = ORIENTED_EDGE ( 'NONE', *, *, #197, .T. ) ;
#370 = APPROVAL_ROLE ( '' ) ;
#371 = DESIGN_CONTEXT ( 'detailed design', #80, 'design' ) ;
#372 = DIRECTION ( 'NONE',  ( 1.000000000000000000, 0.000000000000000000, -0.000000000000000000 ) ) ;
#373 = CARTESIAN_POINT ( 'NONE',  ( -7.000000000000000000, 0.000000000000000000, 0.000000000000000000 ) ) ;
#374 =( NAMED_UNIT ( * ) SI_UNIT ( $, .STERADIAN. ) SOLID_ANGLE_UNIT ( ) );
#375 = CC_DESIGN_DATE_AND_TIME_ASSIGNMENT ( #130, #47, ( #275 ) ) ;
#376 = ORIENTED_EDGE ( 'NONE', *, *, #291, .T. ) ;
#377 = CIRCLE ( 'NONE', #103, 7.000000000000000000 ) ;
#378 = CARTESIAN_POINT ( 'NONE',  ( 0.000000000000000000, 0.000000000000000000, 230.0000000000000000 ) ) ;
#379 = ORIENTED_EDGE ( 'NONE', *, *, #210, .T. ) ;
#380 = FACE_OUTER_BOUND ( 'NONE', #177, .T. ) ;
#381 = ADVANCED_FACE ( 'NONE', ( #204 ), #95, .F. ) ;
ENDSEC;
END-ISO-10303-21;
