ISO-10303-21;
HEADER;
FILE_DESCRIPTION (( 'STEP AP203' ),
    '1' );
FILE_NAME ('5b94.STEP',
    '2022-07-08T14:30:52',
    ( '' ),
    ( '' ),
    'SwSTEP 2.0',
    'SolidWorks 2019',
    '' );
FILE_SCHEMA (( 'CONFIG_CONTROL_DESIGN' ));
ENDSEC;

DATA;
#1 = DIRECTION ( 'NONE',  ( 1.000000000000000000, 0.000000000000000000, 0.000000000000000000 ) ) ;
#2 = FACE_OUTER_BOUND ( 'NONE', #166, .T. ) ;
#3 = AXIS2_PLACEMENT_3D ( 'NONE', #228, #142, #288 ) ;
#4 = ORIENTED_EDGE ( 'NONE', *, *, #274, .T. ) ;
#5 = ORGANIZATION ( 'NEURÈENÝ', 'NEURÈENÝ', '' ) ;
#6 = DIRECTION ( 'NONE',  ( 1.000000000000000000, 0.000000000000000000, 0.000000000000000000 ) ) ;
#7 = ORIENTED_EDGE ( 'NONE', *, *, #279, .T. ) ;
#8 = VERTEX_POINT ( 'NONE', #366 ) ;
#9 = COORDINATED_UNIVERSAL_TIME_OFFSET ( 1, 0, .AHEAD. ) ;
#10 = ORIENTED_EDGE ( 'NONE', *, *, #230, .F. ) ;
#11 = DIRECTION ( 'NONE',  ( 1.000000000000000000, 0.000000000000000000, 0.000000000000000000 ) ) ;
#12 = EDGE_LOOP ( 'NONE', ( #295, #45, #7, #246 ) ) ;
#13 = ADVANCED_FACE ( 'NONE', ( #136 ), #300, .T. ) ;
#14 =( NAMED_UNIT ( * ) SI_UNIT ( $, .STERADIAN. ) SOLID_ANGLE_UNIT ( ) );
#15 = ORIENTED_EDGE ( 'NONE', *, *, #348, .T. ) ;
#16 = PERSON_AND_ORGANIZATION_ROLE ( 'creator' ) ;
#17 = VERTEX_POINT ( 'NONE', #269 ) ;
#18 = LOCAL_TIME ( 16, 30, 52.00000000000000000, #94 ) ;
#19 = ORIENTED_EDGE ( 'NONE', *, *, #342, .F. ) ;
#20 = CARTESIAN_POINT ( 'NONE',  ( 10.00000000000000000, 1.224646799147353256E-15, 7.000000000000000000 ) ) ;
#21 = CARTESIAN_POINT ( 'NONE',  ( 0.000000000000000000, 0.000000000000000000, 257.0000000000000000 ) ) ;
#22 = AXIS2_PLACEMENT_3D ( 'NONE', #113, #112, #50 ) ;
#23 = DIRECTION ( 'NONE',  ( 1.000000000000000000, 0.000000000000000000, 0.000000000000000000 ) ) ;
#24 = AXIS2_PLACEMENT_3D ( 'NONE', #311, #227, #231 ) ;
#25 = LINE ( 'NONE', #372, #367 ) ;
#26 = EDGE_CURVE ( 'NONE', #355, #17, #95, .T. ) ;
#27 = CARTESIAN_POINT ( 'NONE',  ( 0.000000000000000000, 0.000000000000000000, 0.000000000000000000 ) ) ;
#28 = AXIS2_PLACEMENT_3D ( 'NONE', #158, #222, #130 ) ;
#29 = DIRECTION ( 'NONE',  ( 1.000000000000000000, 0.000000000000000000, 0.000000000000000000 ) ) ;
#30 = CIRCLE ( 'NONE', #305, 6.000000000000000888 ) ;
#31 = DIRECTION ( 'NONE',  ( 1.000000000000000000, 0.000000000000000000, 0.000000000000000000 ) ) ;
#32 = PRODUCT_RELATED_PRODUCT_CATEGORY ( 'detail', '', ( #325 ) ) ;
#33 = CARTESIAN_POINT ( 'NONE',  ( 0.000000000000000000, 0.000000000000000000, 7.000000000000000000 ) ) ;
#34 = PERSON ( 'NEURÈENÝ', 'NEURÈENÝ', 'NEURÈENÝ', ('NEURÈENÝ'), ('NEURÈENÝ'), ('NEURÈENÝ') ) ;
#35 = CARTESIAN_POINT ( 'NONE',  ( 0.000000000000000000, 0.000000000000000000, 7.700000000000012612 ) ) ;
#36 = DIRECTION ( 'NONE',  ( 0.000000000000000000, 0.000000000000000000, -1.000000000000000000 ) ) ;
#37 = EDGE_CURVE ( 'NONE', #133, #187, #270, .T. ) ;
#38 = COORDINATED_UNIVERSAL_TIME_OFFSET ( 1, 0, .AHEAD. ) ;
#39 = VERTEX_POINT ( 'NONE', #219 ) ;
#40 = PERSON_AND_ORGANIZATION ( #34, #5 ) ;
#41 = ORIENTED_EDGE ( 'NONE', *, *, #139, .T. ) ;
#42 = APPROVAL_PERSON_ORGANIZATION ( #299, #61, #101 ) ;
#43 = ORIENTED_EDGE ( 'NONE', *, *, #279, .F. ) ;
#44 = CC_DESIGN_PERSON_AND_ORGANIZATION_ASSIGNMENT ( #217, #16, ( #54 ) ) ;
#45 = ORIENTED_EDGE ( 'NONE', *, *, #92, .T. ) ;
#46 = APPROVAL_ROLE ( '' ) ;
#47 = VERTEX_POINT ( 'NONE', #330 ) ;
#48 = LINE ( 'NONE', #20, #97 ) ;
#49 = FACE_OUTER_BOUND ( 'NONE', #332, .T. ) ;
#50 = DIRECTION ( 'NONE',  ( -1.000000000000000000, 0.000000000000000000, 0.000000000000000000 ) ) ;
#51 = CIRCLE ( 'NONE', #285, 4.250000000000000000 ) ;
#52 = DIRECTION ( 'NONE',  ( -0.000000000000000000, -0.000000000000000000, -1.000000000000000000 ) ) ;
#53 = LOCAL_TIME ( 16, 30, 52.00000000000000000, #126 ) ;
#54 = PRODUCT_DEFINITION ( 'NEZNÁMÝ', '', #162, #200 ) ;
#55 = DIRECTION ( 'NONE',  ( 0.000000000000000000, 0.000000000000000000, 1.000000000000000000 ) ) ;
#56 = FACE_OUTER_BOUND ( 'NONE', #107, .T. ) ;
#57 = ORIENTED_EDGE ( 'NONE', *, *, #134, .T. ) ;
#58 = AXIS2_PLACEMENT_3D ( 'NONE', #370, #242, #337 ) ;
#59 = LINE ( 'NONE', #347, #380 ) ;
#60 = AXIS2_PLACEMENT_3D ( 'NONE', #165, #245, #11 ) ;
#61 = APPROVAL ( #271, 'NEURÈENÝ' ) ;
#62 = DIRECTION ( 'NONE',  ( 0.000000000000000000, 0.000000000000000000, 1.000000000000000000 ) ) ;
#63 = DIRECTION ( 'NONE',  ( 1.000000000000000000, 0.000000000000000000, 0.000000000000000000 ) ) ;
#64 = DIRECTION ( 'NONE',  ( 0.000000000000000000, 0.000000000000000000, -1.000000000000000000 ) ) ;
#65 = VERTEX_POINT ( 'NONE', #69 ) ;
#66 = CC_DESIGN_DATE_AND_TIME_ASSIGNMENT ( #308, #327, ( #369 ) ) ;
#67 = DATE_AND_TIME ( #329, #263 ) ;
#68 = EDGE_LOOP ( 'NONE', ( #74, #320 ) ) ;
#69 = CARTESIAN_POINT ( 'NONE',  ( 6.700000000000001066, 0.000000000000000000, 7.000000000000006217 ) ) ;
#70 = APPROVAL_STATUS ( 'not_yet_approved' ) ;
#71 = VERTEX_POINT ( 'NONE', #81 ) ;
#72 = CIRCLE ( 'NONE', #104, 4.250000000000000000 ) ;
#73 = DATE_AND_TIME ( #275, #53 ) ;
#74 = ORIENTED_EDGE ( 'NONE', *, *, #230, .T. ) ;
#75 = SECURITY_CLASSIFICATION_LEVEL ( 'unclassified' ) ;
#76 = DIRECTION ( 'NONE',  ( 1.000000000000000000, 0.000000000000000000, 0.000000000000000000 ) ) ;
#77 = CARTESIAN_POINT ( 'NONE',  ( -10.00000000000000000, 0.000000000000000000, 0.000000000000000000 ) ) ;
#78 = APPROVAL ( #70, 'NEURÈENÝ' ) ;
#79 = VECTOR ( 'NONE', #264, 1000.000000000000000 ) ;
#80 = CARTESIAN_POINT ( 'NONE',  ( 0.000000000000000000, 0.000000000000000000, 7.000000000000000000 ) ) ;
#81 = CARTESIAN_POINT ( 'NONE',  ( 10.00000000000000000, 1.224646799147353256E-15, 0.000000000000000000 ) ) ;
#82 = ADVANCED_FACE ( 'NONE', ( #49 ), #340, .T. ) ;
#83 = CARTESIAN_POINT ( 'NONE',  ( -4.250000000000000000, 0.000000000000000000, 257.0000000000000000 ) ) ;
#84 = DIRECTION ( 'NONE',  ( 0.000000000000000000, 0.000000000000000000, -1.000000000000000000 ) ) ;
#85 = VERTEX_POINT ( 'NONE', #339 ) ;
#86 = EDGE_CURVE ( 'NONE', #169, #65, #110, .T. ) ;
#87 = CYLINDRICAL_SURFACE ( 'NONE', #346, 4.250000000000000000 ) ;
#88 = ORIENTED_EDGE ( 'NONE', *, *, #323, .T. ) ;
#89 = DIRECTION ( 'NONE',  ( 0.000000000000000000, 0.000000000000000000, 1.000000000000000000 ) ) ;
#90 = APPLICATION_CONTEXT ( 'configuration controlled 3d designs of mechanical parts and assemblies' ) ;
#91 = FACE_OUTER_BOUND ( 'NONE', #12, .T. ) ;
#92 = EDGE_CURVE ( 'NONE', #187, #133, #51, .T. ) ;
#93 = ORIENTED_EDGE ( 'NONE', *, *, #37, .T. ) ;
#94 = COORDINATED_UNIVERSAL_TIME_OFFSET ( 1, 0, .AHEAD. ) ;
#95 = CIRCLE ( 'NONE', #58, 0.7000000000000000666 ) ;
#96 = ORIENTED_EDGE ( 'NONE', *, *, #368, .T. ) ;
#97 = VECTOR ( 'NONE', #141, 1000.000000000000000 ) ;
#98 = ORIENTED_EDGE ( 'NONE', *, *, #99, .T. ) ;
#99 = EDGE_CURVE ( 'NONE', #47, #169, #202, .T. ) ;
#100 = DIRECTION ( 'NONE',  ( 0.000000000000000000, 0.000000000000000000, 1.000000000000000000 ) ) ;
#101 = APPROVAL_ROLE ( '' ) ;
#102 = ORIENTED_EDGE ( 'NONE', *, *, #139, .F. ) ;
#103 = AXIS2_PLACEMENT_3D ( 'NONE', #343, #229, #205 ) ;
#104 = AXIS2_PLACEMENT_3D ( 'NONE', #261, #267, #1 ) ;
#105 = CALENDAR_DATE ( 2022, 8, 7 ) ;
#106 = ORIENTED_EDGE ( 'NONE', *, *, #353, .F. ) ;
#107 = EDGE_LOOP ( 'NONE', ( #93, #249, #364, #43 ) ) ;
#108 = ADVANCED_FACE ( 'NONE', ( #144, #174 ), #256, .T. ) ;
#109 = FACE_OUTER_BOUND ( 'NONE', #276, .T. ) ;
#110 = CIRCLE ( 'NONE', #236, 0.7000000000000000666 ) ;
#111 = AXIS2_PLACEMENT_3D ( 'NONE', #379, #314, #23 ) ;
#112 = DIRECTION ( 'NONE',  ( -0.000000000000000000, -0.000000000000000000, -1.000000000000000000 ) ) ;
#113 = CARTESIAN_POINT ( 'NONE',  ( 0.000000000000000000, 0.000000000000000000, 257.0000000000000000 ) ) ;
#114 = CARTESIAN_POINT ( 'NONE',  ( 4.250000000000000000, 5.204748896376250699E-16, 257.0000000000000000 ) ) ;
#115 = DIRECTION ( 'NONE',  ( -1.000000000000000000, 0.000000000000000000, 0.000000000000000000 ) ) ;
#116 = LOCAL_TIME ( 16, 30, 52.00000000000000000, #132 ) ;
#117 = CARTESIAN_POINT ( 'NONE',  ( 0.000000000000000000, 0.000000000000000000, 257.0000000000000000 ) ) ;
#118 = DIRECTION ( 'NONE',  ( 0.000000000000000000, 0.000000000000000000, 1.000000000000000000 ) ) ;
#119 = VECTOR ( 'NONE', #52, 1000.000000000000000 ) ;
#120 = DIRECTION ( 'NONE',  ( 1.000000000000000000, 0.000000000000000000, 0.000000000000000000 ) ) ;
#121 = CIRCLE ( 'NONE', #223, 10.00000000000000000 ) ;
#122 = AXIS2_PLACEMENT_3D ( 'NONE', #235, #123, #63 ) ;
#123 = DIRECTION ( 'NONE',  ( -0.000000000000000000, -0.000000000000000000, -1.000000000000000000 ) ) ;
#124 = EDGE_LOOP ( 'NONE', ( #88, #15 ) ) ;
#125 = PERSON_AND_ORGANIZATION_ROLE ( 'classification_officer' ) ;
#126 = COORDINATED_UNIVERSAL_TIME_OFFSET ( 1, 0, .AHEAD. ) ;
#127 = ORIENTED_EDGE ( 'NONE', *, *, #323, .F. ) ;
#128 = CIRCLE ( 'NONE', #243, 10.00000000000000000 ) ;
#129 = APPLICATION_PROTOCOL_DEFINITION ( 'international standard', 'config_control_design', 1994, #90 ) ;
#130 = DIRECTION ( 'NONE',  ( -1.000000000000000000, 0.000000000000000000, 0.000000000000000000 ) ) ;
#131 = ADVANCED_FACE ( 'NONE', ( #284, #251 ), #171, .T. ) ;
#132 = COORDINATED_UNIVERSAL_TIME_OFFSET ( 1, 0, .AHEAD. ) ;
#133 = VERTEX_POINT ( 'NONE', #83 ) ;
#134 = EDGE_CURVE ( 'NONE', #169, #355, #262, .T. ) ;
#135 = APPROVAL_DATE_TIME ( #67, #61 ) ;
#136 = FACE_OUTER_BOUND ( 'NONE', #248, .T. ) ;
#137 = APPLICATION_CONTEXT ( 'configuration controlled 3d designs of mechanical parts and assemblies' ) ;
#138 = AXIS2_PLACEMENT_3D ( 'NONE', #349, #36, #322 ) ;
#139 = EDGE_CURVE ( 'NONE', #184, #196, #25, .T. ) ;
#140 = ORIENTED_EDGE ( 'NONE', *, *, #26, .T. ) ;
#141 = DIRECTION ( 'NONE',  ( -0.000000000000000000, -0.000000000000000000, -1.000000000000000000 ) ) ;
#142 = DIRECTION ( 'NONE',  ( 0.000000000000000000, 0.000000000000000000, 1.000000000000000000 ) ) ;
#143 = FACE_BOUND ( 'NONE', #307, .T. ) ;
#144 = FACE_BOUND ( 'NONE', #357, .T. ) ;
#145 = DIRECTION ( 'NONE',  ( 1.000000000000000000, 0.000000000000000000, 0.000000000000000000 ) ) ;
#146 = CC_DESIGN_PERSON_AND_ORGANIZATION_ASSIGNMENT ( #195, #268, ( #162 ) ) ;
#147 = DIRECTION ( 'NONE',  ( 0.000000000000000000, 0.000000000000000000, 1.000000000000000000 ) ) ;
#148 = CIRCLE ( 'NONE', #360, 6.700000000000001066 ) ;
#149 = CARTESIAN_POINT ( 'NONE',  ( 0.000000000000000000, 0.000000000000000000, 7.000000000000000000 ) ) ;
#150 = CARTESIAN_POINT ( 'NONE',  ( 0.000000000000000000, 0.000000000000000000, 257.0000000000000000 ) ) ;
#151 = ORIENTED_EDGE ( 'NONE', *, *, #178, .T. ) ;
#152 = ADVANCED_FACE ( 'NONE', ( #109 ), #153, .F. ) ;
#153 = TOROIDAL_SURFACE ( 'NONE', #111, 6.700000000000001066, 0.6999999999999999556 ) ;
#154 = DIRECTION ( 'NONE',  ( 1.000000000000000000, 0.000000000000000000, 0.000000000000000000 ) ) ;
#155 = CIRCLE ( 'NONE', #122, 6.700000000000001066 ) ;
#156 = DIRECTION ( 'NONE',  ( 1.000000000000000000, 0.000000000000000000, 0.000000000000000000 ) ) ;
#157 = DATE_TIME_ROLE ( 'creation_date' ) ;
#158 = CARTESIAN_POINT ( 'NONE',  ( 0.000000000000000000, 0.000000000000000000, 7.000000000000000000 ) ) ;
#159 = PERSON_AND_ORGANIZATION ( #34, #5 ) ;
#160 = ORIENTED_EDGE ( 'NONE', *, *, #348, .F. ) ;
#161 = ADVANCED_BREP_SHAPE_REPRESENTATION ( '5b94', ( #194, #60 ), #335 ) ;
#162 = PRODUCT_DEFINITION_FORMATION_WITH_SPECIFIED_SOURCE ( 'LIBOVOLNÝ', '', #325, .NOT_KNOWN. ) ;
#163 = CALENDAR_DATE ( 2022, 8, 7 ) ;
#164 = ORIENTED_EDGE ( 'NONE', *, *, #201, .T. ) ;
#165 = CARTESIAN_POINT ( 'NONE',  ( 0.000000000000000000, 0.000000000000000000, 0.000000000000000000 ) ) ;
#166 = EDGE_LOOP ( 'NONE', ( #208, #10, #302, #186 ) ) ;
#167 = ADVANCED_FACE ( 'NONE', ( #143, #253 ), #282, .F. ) ;
#168 = PERSON_AND_ORGANIZATION_ROLE ( 'design_owner' ) ;
#169 = VERTEX_POINT ( 'NONE', #203 ) ;
#170 = VECTOR ( 'NONE', #183, 1000.000000000000000 ) ;
#171 = PLANE ( 'NONE',  #221 ) ;
#172 = CC_DESIGN_PERSON_AND_ORGANIZATION_ASSIGNMENT ( #220, #125, ( #369 ) ) ;
#173 = DIRECTION ( 'NONE',  ( -1.000000000000000000, 0.000000000000000000, 0.000000000000000000 ) ) ;
#174 = FACE_OUTER_BOUND ( 'NONE', #68, .T. ) ;
#175 = CIRCLE ( 'NONE', #198, 4.250000000000000000 ) ;
#176 = CARTESIAN_POINT ( 'NONE',  ( 6.000000000000000888, 7.347880794884120722E-16, 257.0000000000000000 ) ) ;
#177 = CARTESIAN_POINT ( 'NONE',  ( 0.000000000000000000, 0.000000000000000000, 7.000000000000000000 ) ) ;
#178 = EDGE_CURVE ( 'NONE', #71, #196, #215, .T. ) ;
#179 = CARTESIAN_POINT ( 'NONE',  ( -6.000000000000000888, 0.000000000000000000, 257.0000000000000000 ) ) ;
#180 = DIRECTION ( 'NONE',  ( 0.000000000000000000, 0.000000000000000000, 1.000000000000000000 ) ) ;
#181 = DIRECTION ( 'NONE',  ( 1.000000000000000000, 0.000000000000000000, 0.000000000000000000 ) ) ;
#182 = ORIENTED_EDGE ( 'NONE', *, *, #206, .F. ) ;
#183 = DIRECTION ( 'NONE',  ( -0.000000000000000000, -0.000000000000000000, -1.000000000000000000 ) ) ;
#184 = VERTEX_POINT ( 'NONE', #376 ) ;
#185 = DIRECTION ( 'NONE',  ( 0.000000000000000000, 0.000000000000000000, 1.000000000000000000 ) ) ;
#186 = ORIENTED_EDGE ( 'NONE', *, *, #193, .T. ) ;
#187 = VERTEX_POINT ( 'NONE', #114 ) ;
#188 = ORIENTED_EDGE ( 'NONE', *, *, #92, .F. ) ;
#189 = SHAPE_DEFINITION_REPRESENTATION ( #214, #161 ) ;
#190 = AXIS2_PLACEMENT_3D ( 'NONE', #362, #100, #76 ) ;
#191 = ORIENTED_EDGE ( 'NONE', *, *, #134, .F. ) ;
#192 = ORIENTED_EDGE ( 'NONE', *, *, #86, .T. ) ;
#193 = EDGE_CURVE ( 'NONE', #355, #169, #316, .T. ) ;
#194 = MANIFOLD_SOLID_BREP ( 'Odebrat vysunutím3', #377 ) ;
#195 = PERSON_AND_ORGANIZATION ( #34, #5 ) ;
#196 = VERTEX_POINT ( 'NONE', #77 ) ;
#197 = DIRECTION ( 'NONE',  ( 0.000000000000000000, 0.000000000000000000, -1.000000000000000000 ) ) ;
#198 = AXIS2_PLACEMENT_3D ( 'NONE', #239, #237, #156 ) ;
#199 = DIRECTION ( 'NONE',  ( -0.000000000000000000, -0.000000000000000000, -1.000000000000000000 ) ) ;
#200 = DESIGN_CONTEXT ( 'detailed design', #137, 'design' ) ;
#201 = EDGE_CURVE ( 'NONE', #39, #71, #48, .T. ) ;
#202 = LINE ( 'NONE', #176, #119 ) ;
#203 = CARTESIAN_POINT ( 'NONE',  ( 6.000000000000000888, 7.347880794884120722E-16, 7.700000000000012612 ) ) ;
#204 = ADVANCED_FACE ( 'NONE', ( #250 ), #313, .T. ) ;
#205 = DIRECTION ( 'NONE',  ( 1.000000000000000000, 0.000000000000000000, 0.000000000000000000 ) ) ;
#206 = EDGE_CURVE ( 'NONE', #184, #39, #121, .T. ) ;
#207 = CARTESIAN_POINT ( 'NONE',  ( 0.000000000000000000, 0.000000000000000000, 7.000000000000000000 ) ) ;
#208 = ORIENTED_EDGE ( 'NONE', *, *, #99, .F. ) ;
#209 = CYLINDRICAL_SURFACE ( 'NONE', #138, 4.250000000000000000 ) ;
#210 = CIRCLE ( 'NONE', #232, 6.000000000000000888 ) ;
#211 = ORIENTED_EDGE ( 'NONE', *, *, #193, .F. ) ;
#212 = FACE_OUTER_BOUND ( 'NONE', #238, .T. ) ;
#213 = CARTESIAN_POINT ( 'NONE',  ( 0.000000000000000000, 0.000000000000000000, 257.0000000000000000 ) ) ;
#214 = PRODUCT_DEFINITION_SHAPE ( 'NONE', 'NONE',  #54 ) ;
#215 = CIRCLE ( 'NONE', #374, 10.00000000000000000 ) ;
#216 = ADVANCED_FACE ( 'NONE', ( #56 ), #209, .F. ) ;
#217 = PERSON_AND_ORGANIZATION ( #34, #5 ) ;
#218 = ORIENTED_EDGE ( 'NONE', *, *, #201, .F. ) ;
#219 = CARTESIAN_POINT ( 'NONE',  ( 10.00000000000000000, 1.224646799147353256E-15, 7.000000000000000000 ) ) ;
#220 = PERSON_AND_ORGANIZATION ( #34, #5 ) ;
#221 = AXIS2_PLACEMENT_3D ( 'NONE', #177, #373, #289 ) ;
#222 = DIRECTION ( 'NONE',  ( -0.000000000000000000, -0.000000000000000000, -1.000000000000000000 ) ) ;
#223 = AXIS2_PLACEMENT_3D ( 'NONE', #149, #62, #6 ) ;
#224 = UNCERTAINTY_MEASURE_WITH_UNIT (LENGTH_MEASURE( 1.000000000000000082E-05 ), #258, 'distance_accuracy_value', 'NONE');
#225 = ORIENTED_EDGE ( 'NONE', *, *, #368, .F. ) ;
#226 = DIRECTION ( 'NONE',  ( 1.000000000000000000, 0.000000000000000000, -0.000000000000000000 ) ) ;
#227 = DIRECTION ( 'NONE',  ( 0.000000000000000000, 0.000000000000000000, 1.000000000000000000 ) ) ;
#228 = CARTESIAN_POINT ( 'NONE',  ( 0.000000000000000000, 0.000000000000000000, 257.0000000000000000 ) ) ;
#229 = DIRECTION ( 'NONE',  ( 0.000000000000000000, 0.000000000000000000, 1.000000000000000000 ) ) ;
#230 = EDGE_CURVE ( 'NONE', #278, #47, #30, .T. ) ;
#231 = DIRECTION ( 'NONE',  ( 1.000000000000000000, 0.000000000000000000, 0.000000000000000000 ) ) ;
#232 = AXIS2_PLACEMENT_3D ( 'NONE', #354, #118, #120 ) ;
#233 = APPROVAL_PERSON_ORGANIZATION ( #358, #78, #46 ) ;
#234 = DIRECTION ( 'NONE',  ( -1.000000000000000000, 0.000000000000000000, 0.000000000000000000 ) ) ;
#235 = CARTESIAN_POINT ( 'NONE',  ( 0.000000000000000000, 0.000000000000000000, 7.000000000000000000 ) ) ;
#236 = AXIS2_PLACEMENT_3D ( 'NONE', #283, #315, #197 ) ;
#237 = DIRECTION ( 'NONE',  ( -0.000000000000000000, -0.000000000000000000, -1.000000000000000000 ) ) ;
#238 = EDGE_LOOP ( 'NONE', ( #272, #191, #192, #160 ) ) ;
#239 = CARTESIAN_POINT ( 'NONE',  ( 0.000000000000000000, 0.000000000000000000, 0.000000000000000000 ) ) ;
#240 = APPROVAL_STATUS ( 'not_yet_approved' ) ;
#241 = CC_DESIGN_PERSON_AND_ORGANIZATION_ASSIGNMENT ( #40, #168, ( #325 ) ) ;
#242 = DIRECTION ( 'NONE',  ( 1.224646799147353207E-16, 1.000000000000000000, -0.000000000000000000 ) ) ;
#243 = AXIS2_PLACEMENT_3D ( 'NONE', #351, #89, #29 ) ;
#244 = EDGE_LOOP ( 'NONE', ( #280, #164, #151, #102 ) ) ;
#245 = DIRECTION ( 'NONE',  ( 0.000000000000000000, 0.000000000000000000, 1.000000000000000000 ) ) ;
#246 = ORIENTED_EDGE ( 'NONE', *, *, #310, .T. ) ;
#247 = PERSON_AND_ORGANIZATION_ROLE ( 'creator' ) ;
#248 = EDGE_LOOP ( 'NONE', ( #218, #182, #41, #96 ) ) ;
#249 = ORIENTED_EDGE ( 'NONE', *, *, #260, .T. ) ;
#250 = FACE_OUTER_BOUND ( 'NONE', #244, .T. ) ;
#251 = FACE_OUTER_BOUND ( 'NONE', #350, .T. ) ;
#252 = AXIS2_PLACEMENT_3D ( 'NONE', #80, #199, #173 ) ;
#253 = FACE_OUTER_BOUND ( 'NONE', #334, .T. ) ;
#254 = ADVANCED_FACE ( 'NONE', ( #212 ), #326, .F. ) ;
#255 = DIRECTION ( 'NONE',  ( 0.000000000000000000, 0.000000000000000000, 1.000000000000000000 ) ) ;
#256 = PLANE ( 'NONE',  #3 ) ;
#257 = AXIS2_PLACEMENT_3D ( 'NONE', #27, #375, #226 ) ;
#258 =( LENGTH_UNIT ( ) NAMED_UNIT ( * ) SI_UNIT ( .MILLI., .METRE. ) );
#259 = LINE ( 'NONE', #319, #79 ) ;
#260 = EDGE_CURVE ( 'NONE', #187, #85, #59, .T. ) ;
#261 = CARTESIAN_POINT ( 'NONE',  ( 0.000000000000000000, 0.000000000000000000, 0.000000000000000000 ) ) ;
#262 = CIRCLE ( 'NONE', #103, 6.000000000000000888 ) ;
#263 = LOCAL_TIME ( 16, 30, 52.00000000000000000, #38 ) ;
#264 = DIRECTION ( 'NONE',  ( 0.000000000000000000, 0.000000000000000000, -1.000000000000000000 ) ) ;
#265 = ORIENTED_EDGE ( 'NONE', *, *, #86, .F. ) ;
#266 = CC_DESIGN_PERSON_AND_ORGANIZATION_ASSIGNMENT ( #363, #247, ( #162 ) ) ;
#267 = DIRECTION ( 'NONE',  ( -0.000000000000000000, -0.000000000000000000, -1.000000000000000000 ) ) ;
#268 = PERSON_AND_ORGANIZATION_ROLE ( 'design_supplier' ) ;
#269 = CARTESIAN_POINT ( 'NONE',  ( -6.700000000000001066, 8.205133554287267548E-16, 7.000000000000006217 ) ) ;
#270 = CIRCLE ( 'NONE', #190, 4.250000000000000000 ) ;
#271 = APPROVAL_STATUS ( 'not_yet_approved' ) ;
#272 = ORIENTED_EDGE ( 'NONE', *, *, #26, .F. ) ;
#273 = APPROVAL_PERSON_ORGANIZATION ( #159, #338, #277 ) ;
#274 = EDGE_CURVE ( 'NONE', #39, #184, #312, .T. ) ;
#275 = CALENDAR_DATE ( 2022, 8, 7 ) ;
#276 = EDGE_LOOP ( 'NONE', ( #211, #140, #127, #265 ) ) ;
#277 = APPROVAL_ROLE ( '' ) ;
#278 = VERTEX_POINT ( 'NONE', #294 ) ;
#279 = EDGE_CURVE ( 'NONE', #133, #8, #259, .T. ) ;
#280 = ORIENTED_EDGE ( 'NONE', *, *, #274, .F. ) ;
#281 = ADVANCED_FACE ( 'NONE', ( #2 ), #293, .T. ) ;
#282 = PLANE ( 'NONE',  #257 ) ;
#283 = CARTESIAN_POINT ( 'NONE',  ( 6.700000000000001066, 0.000000000000000000, 7.700000000000012612 ) ) ;
#284 = FACE_BOUND ( 'NONE', #124, .T. ) ;
#285 = AXIS2_PLACEMENT_3D ( 'NONE', #21, #55, #145 ) ;
#286 = CC_DESIGN_DATE_AND_TIME_ASSIGNMENT ( #73, #157, ( #54 ) ) ;
#287 = CC_DESIGN_APPROVAL ( #61, ( #162 ) ) ;
#288 = DIRECTION ( 'NONE',  ( 1.000000000000000000, 0.000000000000000000, -0.000000000000000000 ) ) ;
#289 = DIRECTION ( 'NONE',  ( 1.000000000000000000, 0.000000000000000000, -0.000000000000000000 ) ) ;
#290 = DIRECTION ( 'NONE',  ( -0.000000000000000000, -0.000000000000000000, -1.000000000000000000 ) ) ;
#291 = AXIS2_PLACEMENT_3D ( 'NONE', #207, #180, #31 ) ;
#292 = CC_DESIGN_SECURITY_CLASSIFICATION ( #369, ( #162 ) ) ;
#293 = CYLINDRICAL_SURFACE ( 'NONE', #321, 6.000000000000000888 ) ;
#294 = CARTESIAN_POINT ( 'NONE',  ( -6.000000000000000888, 0.000000000000000000, 257.0000000000000000 ) ) ;
#295 = ORIENTED_EDGE ( 'NONE', *, *, #260, .F. ) ;
#296 = DIRECTION ( 'NONE',  ( 1.000000000000000000, 0.000000000000000000, 0.000000000000000000 ) ) ;
#297 = EDGE_CURVE ( 'NONE', #278, #355, #324, .T. ) ;
#298 = DIRECTION ( 'NONE',  ( -0.000000000000000000, -0.000000000000000000, -1.000000000000000000 ) ) ;
#299 = PERSON_AND_ORGANIZATION ( #34, #5 ) ;
#300 = CYLINDRICAL_SURFACE ( 'NONE', #28, 10.00000000000000000 ) ;
#301 = MECHANICAL_CONTEXT ( 'NONE', #90, 'mechanical' ) ;
#302 = ORIENTED_EDGE ( 'NONE', *, *, #297, .T. ) ;
#303 = APPROVAL_DATE_TIME ( #365, #338 ) ;
#304 = ORIENTED_EDGE ( 'NONE', *, *, #206, .T. ) ;
#305 = AXIS2_PLACEMENT_3D ( 'NONE', #150, #147, #296 ) ;
#306 = APPLICATION_PROTOCOL_DEFINITION ( 'international standard', 'config_control_design', 1994, #137 ) ;
#307 = EDGE_LOOP ( 'NONE', ( #371, #106 ) ) ;
#308 = DATE_AND_TIME ( #331, #116 ) ;
#309 = ORIENTED_EDGE ( 'NONE', *, *, #37, .F. ) ;
#310 = EDGE_CURVE ( 'NONE', #8, #85, #72, .T. ) ;
#311 = CARTESIAN_POINT ( 'NONE',  ( 0.000000000000000000, 0.000000000000000000, 7.700000000000012612 ) ) ;
#312 = CIRCLE ( 'NONE', #291, 10.00000000000000000 ) ;
#313 = CYLINDRICAL_SURFACE ( 'NONE', #252, 10.00000000000000000 ) ;
#314 = DIRECTION ( 'NONE',  ( 0.000000000000000000, 0.000000000000000000, 1.000000000000000000 ) ) ;
#315 = DIRECTION ( 'NONE',  ( 0.000000000000000000, -1.000000000000000000, 0.000000000000000000 ) ) ;
#316 = CIRCLE ( 'NONE', #24, 6.000000000000000888 ) ;
#317 = CC_DESIGN_APPROVAL ( #78, ( #369 ) ) ;
#318 = DIRECTION ( 'NONE',  ( 1.000000000000000000, 0.000000000000000000, 0.000000000000000000 ) ) ;
#319 = CARTESIAN_POINT ( 'NONE',  ( -4.250000000000000000, 0.000000000000000000, 257.0000000000000000 ) ) ;
#320 = ORIENTED_EDGE ( 'NONE', *, *, #342, .T. ) ;
#321 = AXIS2_PLACEMENT_3D ( 'NONE', #117, #298, #234 ) ;
#322 = DIRECTION ( 'NONE',  ( -1.000000000000000000, 0.000000000000000000, 0.000000000000000000 ) ) ;
#323 = EDGE_CURVE ( 'NONE', #65, #17, #148, .T. ) ;
#324 = LINE ( 'NONE', #179, #170 ) ;
#325 = PRODUCT ( '5b94', '5b94', '', ( #301 ) ) ;
#326 = TOROIDAL_SURFACE ( 'NONE', #341, 6.700000000000001066, 0.6999999999999999556 ) ;
#327 = DATE_TIME_ROLE ( 'classification_date' ) ;
#328 = ORIENTED_EDGE ( 'NONE', *, *, #178, .F. ) ;
#329 = CALENDAR_DATE ( 2022, 8, 7 ) ;
#330 = CARTESIAN_POINT ( 'NONE',  ( 6.000000000000000888, 7.347880794884120722E-16, 257.0000000000000000 ) ) ;
#331 = CALENDAR_DATE ( 2022, 8, 7 ) ;
#332 = EDGE_LOOP ( 'NONE', ( #19, #98, #57, #359 ) ) ;
#333 = APPROVAL_DATE_TIME ( #336, #78 ) ;
#334 = EDGE_LOOP ( 'NONE', ( #225, #328 ) ) ;
#335 =( GEOMETRIC_REPRESENTATION_CONTEXT ( 3 ) GLOBAL_UNCERTAINTY_ASSIGNED_CONTEXT ( ( #224 ) ) GLOBAL_UNIT_ASSIGNED_CONTEXT ( ( #258, #361, #14 ) ) REPRESENTATION_CONTEXT ( 'NONE', 'WORKASPACE' ) );
#336 = DATE_AND_TIME ( #105, #381 ) ;
#337 = DIRECTION ( 'NONE',  ( -1.000000000000000000, 1.224646799147353454E-16, 0.000000000000000000 ) ) ;
#338 = APPROVAL ( #240, 'NEURÈENÝ' ) ;
#339 = CARTESIAN_POINT ( 'NONE',  ( 4.250000000000000000, 5.204748896376250699E-16, 0.000000000000000000 ) ) ;
#340 = CYLINDRICAL_SURFACE ( 'NONE', #22, 6.000000000000000888 ) ;
#341 = AXIS2_PLACEMENT_3D ( 'NONE', #35, #185, #181 ) ;
#342 = EDGE_CURVE ( 'NONE', #47, #278, #210, .T. ) ;
#343 = CARTESIAN_POINT ( 'NONE',  ( 0.000000000000000000, 0.000000000000000000, 7.700000000000012612 ) ) ;
#344 = CARTESIAN_POINT ( 'NONE',  ( 0.000000000000000000, 0.000000000000000000, 0.000000000000000000 ) ) ;
#345 = DIRECTION ( 'NONE',  ( -0.000000000000000000, -0.000000000000000000, -1.000000000000000000 ) ) ;
#346 = AXIS2_PLACEMENT_3D ( 'NONE', #213, #64, #115 ) ;
#347 = CARTESIAN_POINT ( 'NONE',  ( 4.250000000000000000, 5.204748896376250699E-16, 257.0000000000000000 ) ) ;
#348 = EDGE_CURVE ( 'NONE', #17, #65, #155, .T. ) ;
#349 = CARTESIAN_POINT ( 'NONE',  ( 0.000000000000000000, 0.000000000000000000, 257.0000000000000000 ) ) ;
#350 = EDGE_LOOP ( 'NONE', ( #304, #4 ) ) ;
#351 = CARTESIAN_POINT ( 'NONE',  ( 0.000000000000000000, 0.000000000000000000, 0.000000000000000000 ) ) ;
#352 = CC_DESIGN_APPROVAL ( #338, ( #54 ) ) ;
#353 = EDGE_CURVE ( 'NONE', #85, #8, #175, .T. ) ;
#354 = CARTESIAN_POINT ( 'NONE',  ( 0.000000000000000000, 0.000000000000000000, 257.0000000000000000 ) ) ;
#355 = VERTEX_POINT ( 'NONE', #356 ) ;
#356 = CARTESIAN_POINT ( 'NONE',  ( -6.000000000000000888, 0.000000000000000000, 7.700000000000012612 ) ) ;
#357 = EDGE_LOOP ( 'NONE', ( #309, #188 ) ) ;
#358 = PERSON_AND_ORGANIZATION ( #34, #5 ) ;
#359 = ORIENTED_EDGE ( 'NONE', *, *, #297, .F. ) ;
#360 = AXIS2_PLACEMENT_3D ( 'NONE', #33, #290, #154 ) ;
#361 =( NAMED_UNIT ( * ) PLANE_ANGLE_UNIT ( ) SI_UNIT ( $, .RADIAN. ) );
#362 = CARTESIAN_POINT ( 'NONE',  ( 0.000000000000000000, 0.000000000000000000, 257.0000000000000000 ) ) ;
#363 = PERSON_AND_ORGANIZATION ( #34, #5 ) ;
#364 = ORIENTED_EDGE ( 'NONE', *, *, #353, .T. ) ;
#365 = DATE_AND_TIME ( #163, #18 ) ;
#366 = CARTESIAN_POINT ( 'NONE',  ( -4.250000000000000000, 0.000000000000000000, 0.000000000000000000 ) ) ;
#367 = VECTOR ( 'NONE', #345, 1000.000000000000000 ) ;
#368 = EDGE_CURVE ( 'NONE', #196, #71, #128, .T. ) ;
#369 = SECURITY_CLASSIFICATION ( '', '', #75 ) ;
#370 = CARTESIAN_POINT ( 'NONE',  ( -6.700000000000001066, 8.205133554287267548E-16, 7.700000000000012612 ) ) ;
#371 = ORIENTED_EDGE ( 'NONE', *, *, #310, .F. ) ;
#372 = CARTESIAN_POINT ( 'NONE',  ( -10.00000000000000000, 0.000000000000000000, 7.000000000000000000 ) ) ;
#373 = DIRECTION ( 'NONE',  ( 0.000000000000000000, 0.000000000000000000, 1.000000000000000000 ) ) ;
#374 = AXIS2_PLACEMENT_3D ( 'NONE', #344, #255, #318 ) ;
#375 = DIRECTION ( 'NONE',  ( 0.000000000000000000, 0.000000000000000000, 1.000000000000000000 ) ) ;
#376 = CARTESIAN_POINT ( 'NONE',  ( -10.00000000000000000, 0.000000000000000000, 7.000000000000000000 ) ) ;
#377 = CLOSED_SHELL ( 'NONE', ( #216, #152, #82, #204, #13, #131, #167, #281, #108, #254, #378 ) ) ;
#378 = ADVANCED_FACE ( 'NONE', ( #91 ), #87, .F. ) ;
#379 = CARTESIAN_POINT ( 'NONE',  ( 0.000000000000000000, 0.000000000000000000, 7.700000000000012612 ) ) ;
#380 = VECTOR ( 'NONE', #84, 1000.000000000000000 ) ;
#381 = LOCAL_TIME ( 16, 30, 52.00000000000000000, #9 ) ;
ENDSEC;
END-ISO-10303-21;
