ISO-10303-21;
HEADER;
FILE_DESCRIPTION (( 'STEP AP203' ),
    '1' );
FILE_NAME ('0a7b.STEP',
    '2022-07-08T14:26:11',
    ( '' ),
    ( '' ),
    'SwSTEP 2.0',
    'SolidWorks 2019',
    '' );
FILE_SCHEMA (( 'CONFIG_CONTROL_DESIGN' ));
ENDSEC;

DATA;
#1 = CC_DESIGN_PERSON_AND_ORGANIZATION_ASSIGNMENT ( #282, #246, ( #344 ) ) ;
#2 = VERTEX_POINT ( 'NONE', #356 ) ;
#3 = EDGE_LOOP ( 'NONE', ( #15, #247, #181, #35 ) ) ;
#4 = DIRECTION ( 'NONE',  ( 0.000000000000000000, 0.000000000000000000, -1.000000000000000000 ) ) ;
#5 = ORIENTED_EDGE ( 'NONE', *, *, #365, .F. ) ;
#6 = ADVANCED_FACE ( 'NONE', ( #266 ), #95, .F. ) ;
#7 = DIRECTION ( 'NONE',  ( 1.000000000000000000, 0.000000000000000000, 0.000000000000000000 ) ) ;
#8 = PERSON_AND_ORGANIZATION ( #80, #265 ) ;
#9 = AXIS2_PLACEMENT_3D ( 'NONE', #200, #30, #124 ) ;
#10 = CC_DESIGN_APPROVAL ( #271, ( #13 ) ) ;
#11 = EDGE_LOOP ( 'NONE', ( #37, #34, #276, #92 ) ) ;
#12 = CALENDAR_DATE ( 2022, 8, 7 ) ;
#13 = PRODUCT_DEFINITION ( 'NEZNÁMÝ', '', #344, #118 ) ;
#14 = DATE_TIME_ROLE ( 'creation_date' ) ;
#15 = ORIENTED_EDGE ( 'NONE', *, *, #233, .T. ) ;
#16 = CARTESIAN_POINT ( 'NONE',  ( 6.000000000000000888, 7.347880794884120722E-16, 7.699999999999985079 ) ) ;
#17 = PERSON_AND_ORGANIZATION_ROLE ( 'design_supplier' ) ;
#18 = CIRCLE ( 'NONE', #87, 4.500000000000000000 ) ;
#19 = ORIENTED_EDGE ( 'NONE', *, *, #186, .T. ) ;
#20 = EDGE_CURVE ( 'NONE', #182, #42, #375, .T. ) ;
#21 = DIRECTION ( 'NONE',  ( -0.000000000000000000, -0.000000000000000000, -1.000000000000000000 ) ) ;
#22 = CC_DESIGN_PERSON_AND_ORGANIZATION_ASSIGNMENT ( #107, #275, ( #317 ) ) ;
#23 = DIRECTION ( 'NONE',  ( 1.000000000000000000, 0.000000000000000000, 0.000000000000000000 ) ) ;
#24 = FACE_OUTER_BOUND ( 'NONE', #154, .T. ) ;
#25 = CIRCLE ( 'NONE', #165, 6.700000000000001066 ) ;
#26 = DIRECTION ( 'NONE',  ( 0.000000000000000000, 0.000000000000000000, 1.000000000000000000 ) ) ;
#27 = CARTESIAN_POINT ( 'NONE',  ( -6.700000000000001066, 8.205133554287267548E-16, 6.999999999999992006 ) ) ;
#28 = SHAPE_DEFINITION_REPRESENTATION ( #361, #231 ) ;
#29 = CYLINDRICAL_SURFACE ( 'NONE', #290, 6.000000000000000888 ) ;
#30 = DIRECTION ( 'NONE',  ( 0.000000000000000000, 0.000000000000000000, 1.000000000000000000 ) ) ;
#31 = AXIS2_PLACEMENT_3D ( 'NONE', #143, #232, #141 ) ;
#32 = LOCAL_TIME ( 16, 26, 11.00000000000000000, #244 ) ;
#33 = EDGE_LOOP ( 'NONE', ( #189, #268, #63, #149 ) ) ;
#34 = ORIENTED_EDGE ( 'NONE', *, *, #100, .T. ) ;
#35 = ORIENTED_EDGE ( 'NONE', *, *, #44, .F. ) ;
#36 = AXIS2_PLACEMENT_3D ( 'NONE', #61, #315, #59 ) ;
#37 = ORIENTED_EDGE ( 'NONE', *, *, #294, .F. ) ;
#38 = CARTESIAN_POINT ( 'NONE',  ( 0.000000000000000000, 0.000000000000000000, 0.000000000000000000 ) ) ;
#39 = EDGE_LOOP ( 'NONE', ( #370, #162, #249, #109 ) ) ;
#40 = COORDINATED_UNIVERSAL_TIME_OFFSET ( 1, 0, .AHEAD. ) ;
#41 = CIRCLE ( 'NONE', #296, 4.500000000000000000 ) ;
#42 = VERTEX_POINT ( 'NONE', #128 ) ;
#43 = VERTEX_POINT ( 'NONE', #239 ) ;
#44 = EDGE_CURVE ( 'NONE', #43, #323, #291, .T. ) ;
#45 = ORIENTED_EDGE ( 'NONE', *, *, #158, .T. ) ;
#46 = CARTESIAN_POINT ( 'NONE',  ( 0.000000000000000000, 0.000000000000000000, 457.0000000000000000 ) ) ;
#47 = APPROVAL_ROLE ( '' ) ;
#48 = CIRCLE ( 'NONE', #261, 6.700000000000001066 ) ;
#49 = CC_DESIGN_APPROVAL ( #293, ( #317 ) ) ;
#50 = CARTESIAN_POINT ( 'NONE',  ( 0.000000000000000000, 0.000000000000000000, 7.000000000000000000 ) ) ;
#51 = DIRECTION ( 'NONE',  ( -0.000000000000000000, -0.000000000000000000, -1.000000000000000000 ) ) ;
#52 = DIRECTION ( 'NONE',  ( 1.000000000000000000, 0.000000000000000000, 0.000000000000000000 ) ) ;
#53 = CC_DESIGN_PERSON_AND_ORGANIZATION_ASSIGNMENT ( #102, #17, ( #344 ) ) ;
#54 = ADVANCED_FACE ( 'NONE', ( #64 ), #98, .T. ) ;
#55 = AXIS2_PLACEMENT_3D ( 'NONE', #135, #139, #377 ) ;
#56 = DIRECTION ( 'NONE',  ( -1.000000000000000000, 0.000000000000000000, 0.000000000000000000 ) ) ;
#57 = UNCERTAINTY_MEASURE_WITH_UNIT (LENGTH_MEASURE( 1.000000000000000082E-05 ), #79, 'distance_accuracy_value', 'NONE');
#58 = CARTESIAN_POINT ( 'NONE',  ( 0.000000000000000000, 0.000000000000000000, 0.000000000000000000 ) ) ;
#59 = DIRECTION ( 'NONE',  ( 1.000000000000000000, 0.000000000000000000, 0.000000000000000000 ) ) ;
#60 = EDGE_CURVE ( 'NONE', #218, #97, #295, .T. ) ;
#61 = CARTESIAN_POINT ( 'NONE',  ( 0.000000000000000000, 0.000000000000000000, 457.0000000000000000 ) ) ;
#62 = AXIS2_PLACEMENT_3D ( 'NONE', #145, #123, #289 ) ;
#63 = ORIENTED_EDGE ( 'NONE', *, *, #228, .F. ) ;
#64 = FACE_OUTER_BOUND ( 'NONE', #308, .T. ) ;
#65 = EDGE_CURVE ( 'NONE', #323, #355, #184, .T. ) ;
#66 = CARTESIAN_POINT ( 'NONE',  ( -4.500000000000000000, 0.000000000000000000, 457.0000000000000000 ) ) ;
#67 = AXIS2_PLACEMENT_3D ( 'NONE', #58, #321, #318 ) ;
#68 = ORIENTED_EDGE ( 'NONE', *, *, #228, .T. ) ;
#69 = ORIENTED_EDGE ( 'NONE', *, *, #294, .T. ) ;
#70 = EDGE_CURVE ( 'NONE', #263, #355, #345, .T. ) ;
#71 = APPLICATION_PROTOCOL_DEFINITION ( 'international standard', 'config_control_design', 1994, #103 ) ;
#72 = CALENDAR_DATE ( 2022, 8, 7 ) ;
#73 = CIRCLE ( 'NONE', #286, 0.7000000000000000666 ) ;
#74 = ORIENTED_EDGE ( 'NONE', *, *, #270, .F. ) ;
#75 = DIRECTION ( 'NONE',  ( 1.000000000000000000, 0.000000000000000000, 0.000000000000000000 ) ) ;
#76 = APPROVAL_ROLE ( '' ) ;
#77 = ORIENTED_EDGE ( 'NONE', *, *, #209, .T. ) ;
#78 = DIRECTION ( 'NONE',  ( -0.000000000000000000, -0.000000000000000000, -1.000000000000000000 ) ) ;
#79 =( LENGTH_UNIT ( ) NAMED_UNIT ( * ) SI_UNIT ( .MILLI., .METRE. ) );
#80 = PERSON ( 'NEURÈENÝ', 'NEURÈENÝ', 'NEURÈENÝ', ('NEURÈENÝ'), ('NEURÈENÝ'), ('NEURÈENÝ') ) ;
#81 = CARTESIAN_POINT ( 'NONE',  ( 4.500000000000000000, 5.510910596163088569E-16, 457.0000000000000000 ) ) ;
#82 =( NAMED_UNIT ( * ) PLANE_ANGLE_UNIT ( ) SI_UNIT ( $, .RADIAN. ) );
#83 = DIRECTION ( 'NONE',  ( 1.000000000000000000, 0.000000000000000000, 0.000000000000000000 ) ) ;
#84 = DIRECTION ( 'NONE',  ( 0.000000000000000000, 0.000000000000000000, 1.000000000000000000 ) ) ;
#85 = ADVANCED_FACE ( 'NONE', ( #374 ), #136, .F. ) ;
#86 = FACE_OUTER_BOUND ( 'NONE', #39, .T. ) ;
#87 = AXIS2_PLACEMENT_3D ( 'NONE', #221, #190, #219 ) ;
#88 = DIRECTION ( 'NONE',  ( 1.000000000000000000, 0.000000000000000000, -0.000000000000000000 ) ) ;
#89 = APPROVAL ( #364, 'NEURÈENÝ' ) ;
#90 = DIRECTION ( 'NONE',  ( 1.000000000000000000, 0.000000000000000000, -0.000000000000000000 ) ) ;
#91 = DIRECTION ( 'NONE',  ( 1.224646799147353207E-16, 1.000000000000000000, -0.000000000000000000 ) ) ;
#92 = ORIENTED_EDGE ( 'NONE', *, *, #158, .F. ) ;
#93 = AXIS2_PLACEMENT_3D ( 'NONE', #180, #210, #178 ) ;
#94 = APPROVAL_PERSON_ORGANIZATION ( #310, #89, #104 ) ;
#95 = CYLINDRICAL_SURFACE ( 'NONE', #179, 4.500000000000000000 ) ;
#96 = EDGE_CURVE ( 'NONE', #263, #43, #18, .T. ) ;
#97 = VERTEX_POINT ( 'NONE', #225 ) ;
#98 = CYLINDRICAL_SURFACE ( 'NONE', #93, 6.000000000000000888 ) ;
#99 = CIRCLE ( 'NONE', #204, 6.000000000000000888 ) ;
#100 = EDGE_CURVE ( 'NONE', #2, #352, #368, .T. ) ;
#101 = ORIENTED_EDGE ( 'NONE', *, *, #113, .T. ) ;
#102 = PERSON_AND_ORGANIZATION ( #80, #265 ) ;
#103 = APPLICATION_CONTEXT ( 'configuration controlled 3d designs of mechanical parts and assemblies' ) ;
#104 = APPROVAL_ROLE ( '' ) ;
#105 = ORIENTED_EDGE ( 'NONE', *, *, #60, .T. ) ;
#106 = FACE_OUTER_BOUND ( 'NONE', #245, .T. ) ;
#107 = PERSON_AND_ORGANIZATION ( #80, #265 ) ;
#108 = APPROVAL_PERSON_ORGANIZATION ( #8, #271, #76 ) ;
#109 = ORIENTED_EDGE ( 'NONE', *, *, #65, .T. ) ;
#110 = LINE ( 'NONE', #169, #170 ) ;
#111 = APPLICATION_PROTOCOL_DEFINITION ( 'international standard', 'config_control_design', 1994, #172 ) ;
#112 = ADVANCED_FACE ( 'NONE', ( #24 ), #342, .F. ) ;
#113 = EDGE_CURVE ( 'NONE', #303, #2, #224, .T. ) ;
#114 = CARTESIAN_POINT ( 'NONE',  ( 0.000000000000000000, 0.000000000000000000, 7.000000000000000000 ) ) ;
#115 = DIRECTION ( 'NONE',  ( 0.000000000000000000, 0.000000000000000000, 1.000000000000000000 ) ) ;
#116 = CLOSED_SHELL ( 'NONE', ( #6, #85, #54, #167, #240, #267, #362, #337, #301, #112, #320 ) ) ;
#117 = VECTOR ( 'NONE', #21, 1000.000000000000000 ) ;
#118 = DESIGN_CONTEXT ( 'detailed design', #103, 'design' ) ;
#119 = CARTESIAN_POINT ( 'NONE',  ( 0.000000000000000000, 0.000000000000000000, 7.000000000000000000 ) ) ;
#120 = CARTESIAN_POINT ( 'NONE',  ( 0.000000000000000000, 0.000000000000000000, 457.0000000000000000 ) ) ;
#121 = DIRECTION ( 'NONE',  ( -1.000000000000000000, 0.000000000000000000, 0.000000000000000000 ) ) ;
#122 = CC_DESIGN_DATE_AND_TIME_ASSIGNMENT ( #153, #14, ( #13 ) ) ;
#123 = DIRECTION ( 'NONE',  ( 0.000000000000000000, 0.000000000000000000, 1.000000000000000000 ) ) ;
#124 = DIRECTION ( 'NONE',  ( 1.000000000000000000, 0.000000000000000000, 0.000000000000000000 ) ) ;
#125 = ORIENTED_EDGE ( 'NONE', *, *, #20, .T. ) ;
#126 = EDGE_CURVE ( 'NONE', #97, #182, #272, .T. ) ;
#127 = ORIENTED_EDGE ( 'NONE', *, *, #100, .F. ) ;
#128 = CARTESIAN_POINT ( 'NONE',  ( 6.700000000000001066, 0.000000000000000000, 6.999999999999992006 ) ) ;
#129 = ORIENTED_EDGE ( 'NONE', *, *, #203, .F. ) ;
#130 = DIRECTION ( 'NONE',  ( -0.000000000000000000, -0.000000000000000000, -1.000000000000000000 ) ) ;
#131 = VECTOR ( 'NONE', #269, 1000.000000000000000 ) ;
#132 = ORIENTED_EDGE ( 'NONE', *, *, #96, .F. ) ;
#133 = ORIENTED_EDGE ( 'NONE', *, *, #234, .F. ) ;
#134 = SECURITY_CLASSIFICATION_LEVEL ( 'unclassified' ) ;
#135 = CARTESIAN_POINT ( 'NONE',  ( 0.000000000000000000, 0.000000000000000000, 7.000000000000000000 ) ) ;
#136 = TOROIDAL_SURFACE ( 'NONE', #171, 6.700000000000001066, 0.6999999999999999556 ) ;
#137 = CYLINDRICAL_SURFACE ( 'NONE', #144, 10.00000000000000000 ) ;
#138 = CARTESIAN_POINT ( 'NONE',  ( 0.000000000000000000, 0.000000000000000000, 457.0000000000000000 ) ) ;
#139 = DIRECTION ( 'NONE',  ( 0.000000000000000000, 0.000000000000000000, 1.000000000000000000 ) ) ;
#140 = AXIS2_PLACEMENT_3D ( 'NONE', #38, #152, #7 ) ;
#141 = DIRECTION ( 'NONE',  ( 1.000000000000000000, 0.000000000000000000, 0.000000000000000000 ) ) ;
#142 = FACE_OUTER_BOUND ( 'NONE', #358, .T. ) ;
#143 = CARTESIAN_POINT ( 'NONE',  ( 0.000000000000000000, 0.000000000000000000, 7.000000000000000000 ) ) ;
#144 = AXIS2_PLACEMENT_3D ( 'NONE', #119, #311, #166 ) ;
#145 = CARTESIAN_POINT ( 'NONE',  ( 0.000000000000000000, 0.000000000000000000, 7.000000000000000000 ) ) ;
#146 = ORIENTED_EDGE ( 'NONE', *, *, #113, .F. ) ;
#147 = ORIENTED_EDGE ( 'NONE', *, *, #234, .T. ) ;
#148 = AXIS2_PLACEMENT_3D ( 'NONE', #292, #206, #4 ) ;
#149 = ORIENTED_EDGE ( 'NONE', *, *, #20, .F. ) ;
#150 = ORIENTED_EDGE ( 'NONE', *, *, #126, .T. ) ;
#151 = CC_DESIGN_PERSON_AND_ORGANIZATION_ASSIGNMENT ( #191, #214, ( #213 ) ) ;
#152 = DIRECTION ( 'NONE',  ( -0.000000000000000000, -0.000000000000000000, -1.000000000000000000 ) ) ;
#153 = DATE_AND_TIME ( #164, #312 ) ;
#154 = EDGE_LOOP ( 'NONE', ( #298, #5, #125, #264 ) ) ;
#155 = VECTOR ( 'NONE', #363, 1000.000000000000000 ) ;
#156 = APPROVAL_DATE_TIME ( #183, #271 ) ;
#157 = ORIENTED_EDGE ( 'NONE', *, *, #260, .F. ) ;
#158 = EDGE_CURVE ( 'NONE', #303, #251, #110, .T. ) ;
#159 = EDGE_LOOP ( 'NONE', ( #147, #207 ) ) ;
#160 = CARTESIAN_POINT ( 'NONE',  ( 0.000000000000000000, 0.000000000000000000, 7.699999999999985079 ) ) ;
#161 =( NAMED_UNIT ( * ) SI_UNIT ( $, .STERADIAN. ) SOLID_ANGLE_UNIT ( ) );
#162 = ORIENTED_EDGE ( 'NONE', *, *, #96, .T. ) ;
#163 = DIRECTION ( 'NONE',  ( 1.000000000000000000, 0.000000000000000000, 0.000000000000000000 ) ) ;
#164 = CALENDAR_DATE ( 2022, 8, 7 ) ;
#165 = AXIS2_PLACEMENT_3D ( 'NONE', #340, #78, #52 ) ;
#166 = DIRECTION ( 'NONE',  ( -1.000000000000000000, 0.000000000000000000, 0.000000000000000000 ) ) ;
#167 = ADVANCED_FACE ( 'NONE', ( #192 ), #137, .T. ) ;
#168 = CARTESIAN_POINT ( 'NONE',  ( 0.000000000000000000, 0.000000000000000000, 7.699999999999985079 ) ) ;
#169 = CARTESIAN_POINT ( 'NONE',  ( -10.00000000000000000, 0.000000000000000000, 7.000000000000000000 ) ) ;
#170 = VECTOR ( 'NONE', #285, 1000.000000000000000 ) ;
#171 = AXIS2_PLACEMENT_3D ( 'NONE', #255, #284, #343 ) ;
#172 = APPLICATION_CONTEXT ( 'configuration controlled 3d designs of mechanical parts and assemblies' ) ;
#173 = CARTESIAN_POINT ( 'NONE',  ( -4.500000000000000000, 0.000000000000000000, 0.000000000000000000 ) ) ;
#174 = CYLINDRICAL_SURFACE ( 'NONE', #256, 4.500000000000000000 ) ;
#175 = CARTESIAN_POINT ( 'NONE',  ( 0.000000000000000000, 0.000000000000000000, 0.000000000000000000 ) ) ;
#176 = CIRCLE ( 'NONE', #9, 6.000000000000000888 ) ;
#177 = DIRECTION ( 'NONE',  ( -1.000000000000000000, 0.000000000000000000, 0.000000000000000000 ) ) ;
#178 = DIRECTION ( 'NONE',  ( -1.000000000000000000, 0.000000000000000000, 0.000000000000000000 ) ) ;
#179 = AXIS2_PLACEMENT_3D ( 'NONE', #211, #241, #177 ) ;
#180 = CARTESIAN_POINT ( 'NONE',  ( 0.000000000000000000, 0.000000000000000000, 457.0000000000000000 ) ) ;
#181 = ORIENTED_EDGE ( 'NONE', *, *, #260, .T. ) ;
#182 = VERTEX_POINT ( 'NONE', #16 ) ;
#183 = DATE_AND_TIME ( #372, #316 ) ;
#184 = CIRCLE ( 'NONE', #140, 4.500000000000000000 ) ;
#185 = DATE_AND_TIME ( #12, #304 ) ;
#186 = EDGE_CURVE ( 'NONE', #330, #182, #338, .T. ) ;
#187 = CARTESIAN_POINT ( 'NONE',  ( 4.500000000000000000, 5.510910596163088569E-16, 457.0000000000000000 ) ) ;
#188 = PERSON_AND_ORGANIZATION ( #80, #265 ) ;
#189 = ORIENTED_EDGE ( 'NONE', *, *, #126, .F. ) ;
#190 = DIRECTION ( 'NONE',  ( 0.000000000000000000, 0.000000000000000000, 1.000000000000000000 ) ) ;
#191 = PERSON_AND_ORGANIZATION ( #80, #265 ) ;
#192 = FACE_OUTER_BOUND ( 'NONE', #11, .T. ) ;
#193 = PERSON_AND_ORGANIZATION_ROLE ( 'creator' ) ;
#194 = AXIS2_PLACEMENT_3D ( 'NONE', #114, #254, #223 ) ;
#195 = DIRECTION ( 'NONE',  ( 0.000000000000000000, 0.000000000000000000, 1.000000000000000000 ) ) ;
#196 = CARTESIAN_POINT ( 'NONE',  ( 0.000000000000000000, 0.000000000000000000, 0.000000000000000000 ) ) ;
#197 = CARTESIAN_POINT ( 'NONE',  ( 0.000000000000000000, 0.000000000000000000, 457.0000000000000000 ) ) ;
#198 = CIRCLE ( 'NONE', #36, 6.000000000000000888 ) ;
#199 = APPROVAL_PERSON_ORGANIZATION ( #188, #293, #47 ) ;
#200 = CARTESIAN_POINT ( 'NONE',  ( 0.000000000000000000, 0.000000000000000000, 7.699999999999985079 ) ) ;
#201 = FACE_OUTER_BOUND ( 'NONE', #334, .T. ) ;
#202 = DIRECTION ( 'NONE',  ( -1.000000000000000000, 1.224646799147353454E-16, 0.000000000000000000 ) ) ;
#203 = EDGE_CURVE ( 'NONE', #251, #352, #349, .T. ) ;
#204 = AXIS2_PLACEMENT_3D ( 'NONE', #138, #195, #163 ) ;
#205 = ORIENTED_EDGE ( 'NONE', *, *, #233, .F. ) ;
#206 = DIRECTION ( 'NONE',  ( 0.000000000000000000, -1.000000000000000000, 0.000000000000000000 ) ) ;
#207 = ORIENTED_EDGE ( 'NONE', *, *, #277, .T. ) ;
#208 = AXIS2_PLACEMENT_3D ( 'NONE', #160, #84, #309 ) ;
#209 = EDGE_CURVE ( 'NONE', #327, #42, #48, .T. ) ;
#210 = DIRECTION ( 'NONE',  ( -0.000000000000000000, -0.000000000000000000, -1.000000000000000000 ) ) ;
#211 = CARTESIAN_POINT ( 'NONE',  ( 0.000000000000000000, 0.000000000000000000, 457.0000000000000000 ) ) ;
#212 = CALENDAR_DATE ( 2022, 8, 7 ) ;
#213 = PRODUCT ( '0a7b', '0a7b', '', ( #222 ) ) ;
#214 = PERSON_AND_ORGANIZATION_ROLE ( 'design_owner' ) ;
#215 = ORIENTED_EDGE ( 'NONE', *, *, #60, .F. ) ;
#216 = AXIS2_PLACEMENT_3D ( 'NONE', #302, #305, #336 ) ;
#217 = CARTESIAN_POINT ( 'NONE',  ( 0.000000000000000000, 0.000000000000000000, 0.000000000000000000 ) ) ;
#218 = VERTEX_POINT ( 'NONE', #313 ) ;
#219 = DIRECTION ( 'NONE',  ( 1.000000000000000000, 0.000000000000000000, 0.000000000000000000 ) ) ;
#220 = APPROVAL_STATUS ( 'not_yet_approved' ) ;
#221 = CARTESIAN_POINT ( 'NONE',  ( 0.000000000000000000, 0.000000000000000000, 457.0000000000000000 ) ) ;
#222 = MECHANICAL_CONTEXT ( 'NONE', #172, 'mechanical' ) ;
#223 = DIRECTION ( 'NONE',  ( -1.000000000000000000, 0.000000000000000000, 0.000000000000000000 ) ) ;
#224 = CIRCLE ( 'NONE', #55, 10.00000000000000000 ) ;
#225 = CARTESIAN_POINT ( 'NONE',  ( -6.000000000000000888, 0.000000000000000000, 7.699999999999985079 ) ) ;
#226 = PLANE ( 'NONE',  #242 ) ;
#227 = CC_DESIGN_DATE_AND_TIME_ASSIGNMENT ( #360, #339, ( #317 ) ) ;
#228 = EDGE_CURVE ( 'NONE', #42, #327, #25, .T. ) ;
#229 = CARTESIAN_POINT ( 'NONE',  ( 4.500000000000000000, 5.510910596163088569E-16, 0.000000000000000000 ) ) ;
#230 = LOCAL_TIME ( 16, 26, 11.00000000000000000, #331 ) ;
#231 = ADVANCED_BREP_SHAPE_REPRESENTATION ( '0a7b', ( #325, #216 ), #333 ) ;
#232 = DIRECTION ( 'NONE',  ( 0.000000000000000000, 0.000000000000000000, 1.000000000000000000 ) ) ;
#233 = EDGE_CURVE ( 'NONE', #43, #263, #376, .T. ) ;
#234 = EDGE_CURVE ( 'NONE', #218, #330, #99, .T. ) ;
#235 = CARTESIAN_POINT ( 'NONE',  ( -6.700000000000001066, 8.205133554287267548E-16, 7.699999999999985079 ) ) ;
#236 = ORIENTED_EDGE ( 'NONE', *, *, #186, .F. ) ;
#237 = CIRCLE ( 'NONE', #67, 10.00000000000000000 ) ;
#238 = EDGE_LOOP ( 'NONE', ( #205, #132 ) ) ;
#239 = CARTESIAN_POINT ( 'NONE',  ( -4.500000000000000000, 0.000000000000000000, 457.0000000000000000 ) ) ;
#240 = ADVANCED_FACE ( 'NONE', ( #106 ), #371, .T. ) ;
#241 = DIRECTION ( 'NONE',  ( 0.000000000000000000, 0.000000000000000000, -1.000000000000000000 ) ) ;
#242 = AXIS2_PLACEMENT_3D ( 'NONE', #120, #347, #90 ) ;
#243 = ORIENTED_EDGE ( 'NONE', *, *, #65, .F. ) ;
#244 = COORDINATED_UNIVERSAL_TIME_OFFSET ( 1, 0, .AHEAD. ) ;
#245 = EDGE_LOOP ( 'NONE', ( #127, #146, #45, #367 ) ) ;
#246 = PERSON_AND_ORGANIZATION_ROLE ( 'creator' ) ;
#247 = ORIENTED_EDGE ( 'NONE', *, *, #70, .T. ) ;
#248 = CARTESIAN_POINT ( 'NONE',  ( -10.00000000000000000, 0.000000000000000000, 0.000000000000000000 ) ) ;
#249 = ORIENTED_EDGE ( 'NONE', *, *, #44, .T. ) ;
#250 = DATE_AND_TIME ( #72, #32 ) ;
#251 = VERTEX_POINT ( 'NONE', #248 ) ;
#252 = CARTESIAN_POINT ( 'NONE',  ( 6.000000000000000888, 7.347880794884120722E-16, 457.0000000000000000 ) ) ;
#253 = COORDINATED_UNIVERSAL_TIME_OFFSET ( 1, 0, .AHEAD. ) ;
#254 = DIRECTION ( 'NONE',  ( -0.000000000000000000, -0.000000000000000000, -1.000000000000000000 ) ) ;
#255 = CARTESIAN_POINT ( 'NONE',  ( 0.000000000000000000, 0.000000000000000000, 7.699999999999985079 ) ) ;
#256 = AXIS2_PLACEMENT_3D ( 'NONE', #197, #262, #56 ) ;
#257 = FACE_BOUND ( 'NONE', #238, .T. ) ;
#258 = FACE_OUTER_BOUND ( 'NONE', #354, .T. ) ;
#259 = DIRECTION ( 'NONE',  ( -0.000000000000000000, -0.000000000000000000, -1.000000000000000000 ) ) ;
#260 = EDGE_CURVE ( 'NONE', #355, #323, #41, .T. ) ;
#261 = AXIS2_PLACEMENT_3D ( 'NONE', #50, #51, #283 ) ;
#262 = DIRECTION ( 'NONE',  ( 0.000000000000000000, 0.000000000000000000, -1.000000000000000000 ) ) ;
#263 = VERTEX_POINT ( 'NONE', #187 ) ;
#264 = ORIENTED_EDGE ( 'NONE', *, *, #209, .F. ) ;
#265 = ORGANIZATION ( 'NEURÈENÝ', 'NEURÈENÝ', '' ) ;
#266 = FACE_OUTER_BOUND ( 'NONE', #3, .T. ) ;
#267 = ADVANCED_FACE ( 'NONE', ( #319, #142 ), #288, .T. ) ;
#268 = ORIENTED_EDGE ( 'NONE', *, *, #373, .T. ) ;
#269 = DIRECTION ( 'NONE',  ( 0.000000000000000000, 0.000000000000000000, -1.000000000000000000 ) ) ;
#270 = EDGE_CURVE ( 'NONE', #352, #251, #237, .T. ) ;
#271 = APPROVAL ( #220, 'NEURÈENÝ' ) ;
#272 = CIRCLE ( 'NONE', #322, 6.000000000000000888 ) ;
#273 = ORIENTED_EDGE ( 'NONE', *, *, #365, .T. ) ;
#274 = CC_DESIGN_SECURITY_CLASSIFICATION ( #317, ( #344 ) ) ;
#275 = PERSON_AND_ORGANIZATION_ROLE ( 'classification_officer' ) ;
#276 = ORIENTED_EDGE ( 'NONE', *, *, #270, .T. ) ;
#277 = EDGE_CURVE ( 'NONE', #330, #218, #198, .T. ) ;
#278 = DIRECTION ( 'NONE',  ( 1.000000000000000000, 0.000000000000000000, 0.000000000000000000 ) ) ;
#279 = EDGE_LOOP ( 'NONE', ( #68, #77 ) ) ;
#280 = CIRCLE ( 'NONE', #31, 10.00000000000000000 ) ;
#281 = DIRECTION ( 'NONE',  ( 0.000000000000000000, 0.000000000000000000, -1.000000000000000000 ) ) ;
#282 = PERSON_AND_ORGANIZATION ( #80, #265 ) ;
#283 = DIRECTION ( 'NONE',  ( 1.000000000000000000, 0.000000000000000000, 0.000000000000000000 ) ) ;
#284 = DIRECTION ( 'NONE',  ( 0.000000000000000000, 0.000000000000000000, 1.000000000000000000 ) ) ;
#285 = DIRECTION ( 'NONE',  ( -0.000000000000000000, -0.000000000000000000, -1.000000000000000000 ) ) ;
#286 = AXIS2_PLACEMENT_3D ( 'NONE', #235, #91, #202 ) ;
#287 = CARTESIAN_POINT ( 'NONE',  ( 6.000000000000000888, 7.347880794884120722E-16, 457.0000000000000000 ) ) ;
#288 = PLANE ( 'NONE',  #62 ) ;
#289 = DIRECTION ( 'NONE',  ( 1.000000000000000000, 0.000000000000000000, -0.000000000000000000 ) ) ;
#290 = AXIS2_PLACEMENT_3D ( 'NONE', #379, #259, #121 ) ;
#291 = LINE ( 'NONE', #66, #131 ) ;
#292 = CARTESIAN_POINT ( 'NONE',  ( 6.700000000000001066, 0.000000000000000000, 7.699999999999985079 ) ) ;
#293 = APPROVAL ( #307, 'NEURÈENÝ' ) ;
#294 = EDGE_CURVE ( 'NONE', #2, #303, #280, .T. ) ;
#295 = LINE ( 'NONE', #329, #353 ) ;
#296 = AXIS2_PLACEMENT_3D ( 'NONE', #217, #335, #75 ) ;
#297 = CC_DESIGN_APPROVAL ( #89, ( #344 ) ) ;
#298 = ORIENTED_EDGE ( 'NONE', *, *, #373, .F. ) ;
#299 = ORIENTED_EDGE ( 'NONE', *, *, #277, .F. ) ;
#300 = CC_DESIGN_PERSON_AND_ORGANIZATION_ASSIGNMENT ( #341, #193, ( #13 ) ) ;
#301 = ADVANCED_FACE ( 'NONE', ( #257, #378 ), #226, .T. ) ;
#302 = CARTESIAN_POINT ( 'NONE',  ( 0.000000000000000000, 0.000000000000000000, 0.000000000000000000 ) ) ;
#303 = VERTEX_POINT ( 'NONE', #380 ) ;
#304 = LOCAL_TIME ( 16, 26, 11.00000000000000000, #369 ) ;
#305 = DIRECTION ( 'NONE',  ( 0.000000000000000000, 0.000000000000000000, 1.000000000000000000 ) ) ;
#306 = CARTESIAN_POINT ( 'NONE',  ( 10.00000000000000000, 1.224646799147353256E-15, 7.000000000000000000 ) ) ;
#307 = APPROVAL_STATUS ( 'not_yet_approved' ) ;
#308 = EDGE_LOOP ( 'NONE', ( #299, #19, #273, #215 ) ) ;
#309 = DIRECTION ( 'NONE',  ( 1.000000000000000000, 0.000000000000000000, 0.000000000000000000 ) ) ;
#310 = PERSON_AND_ORGANIZATION ( #80, #265 ) ;
#311 = DIRECTION ( 'NONE',  ( -0.000000000000000000, -0.000000000000000000, -1.000000000000000000 ) ) ;
#312 = LOCAL_TIME ( 16, 26, 11.00000000000000000, #40 ) ;
#313 = CARTESIAN_POINT ( 'NONE',  ( -6.000000000000000888, 0.000000000000000000, 457.0000000000000000 ) ) ;
#314 = DIRECTION ( 'NONE',  ( 0.000000000000000000, 0.000000000000000000, 1.000000000000000000 ) ) ;
#315 = DIRECTION ( 'NONE',  ( 0.000000000000000000, 0.000000000000000000, 1.000000000000000000 ) ) ;
#316 = LOCAL_TIME ( 16, 26, 11.00000000000000000, #253 ) ;
#317 = SECURITY_CLASSIFICATION ( '', '', #134 ) ;
#318 = DIRECTION ( 'NONE',  ( 1.000000000000000000, 0.000000000000000000, 0.000000000000000000 ) ) ;
#319 = FACE_BOUND ( 'NONE', #279, .T. ) ;
#320 = ADVANCED_FACE ( 'NONE', ( #86 ), #174, .F. ) ;
#321 = DIRECTION ( 'NONE',  ( 0.000000000000000000, 0.000000000000000000, 1.000000000000000000 ) ) ;
#322 = AXIS2_PLACEMENT_3D ( 'NONE', #168, #115, #278 ) ;
#323 = VERTEX_POINT ( 'NONE', #173 ) ;
#324 = PRODUCT_RELATED_PRODUCT_CATEGORY ( 'detail', '', ( #213 ) ) ;
#325 = MANIFOLD_SOLID_BREP ( 'Odebrat vysunutím3', #116 ) ;
#326 = EDGE_LOOP ( 'NONE', ( #243, #157 ) ) ;
#327 = VERTEX_POINT ( 'NONE', #27 ) ;
#328 = AXIS2_PLACEMENT_3D ( 'NONE', #175, #348, #88 ) ;
#329 = CARTESIAN_POINT ( 'NONE',  ( -6.000000000000000888, 0.000000000000000000, 457.0000000000000000 ) ) ;
#330 = VERTEX_POINT ( 'NONE', #287 ) ;
#331 = COORDINATED_UNIVERSAL_TIME_OFFSET ( 1, 0, .AHEAD. ) ;
#332 = AXIS2_PLACEMENT_3D ( 'NONE', #196, #314, #83 ) ;
#333 =( GEOMETRIC_REPRESENTATION_CONTEXT ( 3 ) GLOBAL_UNCERTAINTY_ASSIGNED_CONTEXT ( ( #57 ) ) GLOBAL_UNIT_ASSIGNED_CONTEXT ( ( #79, #82, #161 ) ) REPRESENTATION_CONTEXT ( 'NONE', 'WORKASPACE' ) );
#334 = EDGE_LOOP ( 'NONE', ( #129, #74 ) ) ;
#335 = DIRECTION ( 'NONE',  ( -0.000000000000000000, -0.000000000000000000, -1.000000000000000000 ) ) ;
#336 = DIRECTION ( 'NONE',  ( 1.000000000000000000, 0.000000000000000000, 0.000000000000000000 ) ) ;
#337 = ADVANCED_FACE ( 'NONE', ( #258 ), #29, .T. ) ;
#338 = LINE ( 'NONE', #252, #155 ) ;
#339 = DATE_TIME_ROLE ( 'classification_date' ) ;
#340 = CARTESIAN_POINT ( 'NONE',  ( 0.000000000000000000, 0.000000000000000000, 7.000000000000000000 ) ) ;
#341 = PERSON_AND_ORGANIZATION ( #80, #265 ) ;
#342 = TOROIDAL_SURFACE ( 'NONE', #208, 6.700000000000001066, 0.6999999999999999556 ) ;
#343 = DIRECTION ( 'NONE',  ( 1.000000000000000000, 0.000000000000000000, 0.000000000000000000 ) ) ;
#344 = PRODUCT_DEFINITION_FORMATION_WITH_SPECIFIED_SOURCE ( 'LIBOVOLNÝ', '', #213, .NOT_KNOWN. ) ;
#345 = LINE ( 'NONE', #81, #366 ) ;
#346 = APPROVAL_DATE_TIME ( #185, #293 ) ;
#347 = DIRECTION ( 'NONE',  ( 0.000000000000000000, 0.000000000000000000, 1.000000000000000000 ) ) ;
#348 = DIRECTION ( 'NONE',  ( 0.000000000000000000, 0.000000000000000000, 1.000000000000000000 ) ) ;
#349 = CIRCLE ( 'NONE', #332, 10.00000000000000000 ) ;
#350 = FACE_BOUND ( 'NONE', #326, .T. ) ;
#351 = CARTESIAN_POINT ( 'NONE',  ( 10.00000000000000000, 1.224646799147353256E-15, 0.000000000000000000 ) ) ;
#352 = VERTEX_POINT ( 'NONE', #351 ) ;
#353 = VECTOR ( 'NONE', #130, 1000.000000000000000 ) ;
#354 = EDGE_LOOP ( 'NONE', ( #236, #133, #105, #150 ) ) ;
#355 = VERTEX_POINT ( 'NONE', #229 ) ;
#356 = CARTESIAN_POINT ( 'NONE',  ( 10.00000000000000000, 1.224646799147353256E-15, 7.000000000000000000 ) ) ;
#357 = AXIS2_PLACEMENT_3D ( 'NONE', #46, #26, #23 ) ;
#358 = EDGE_LOOP ( 'NONE', ( #101, #69 ) ) ;
#359 = APPROVAL_DATE_TIME ( #250, #89 ) ;
#360 = DATE_AND_TIME ( #212, #230 ) ;
#361 = PRODUCT_DEFINITION_SHAPE ( 'NONE', 'NONE',  #13 ) ;
#362 = ADVANCED_FACE ( 'NONE', ( #350, #201 ), #381, .F. ) ;
#363 = DIRECTION ( 'NONE',  ( -0.000000000000000000, -0.000000000000000000, -1.000000000000000000 ) ) ;
#364 = APPROVAL_STATUS ( 'not_yet_approved' ) ;
#365 = EDGE_CURVE ( 'NONE', #182, #97, #176, .T. ) ;
#366 = VECTOR ( 'NONE', #281, 1000.000000000000000 ) ;
#367 = ORIENTED_EDGE ( 'NONE', *, *, #203, .T. ) ;
#368 = LINE ( 'NONE', #306, #117 ) ;
#369 = COORDINATED_UNIVERSAL_TIME_OFFSET ( 1, 0, .AHEAD. ) ;
#370 = ORIENTED_EDGE ( 'NONE', *, *, #70, .F. ) ;
#371 = CYLINDRICAL_SURFACE ( 'NONE', #194, 10.00000000000000000 ) ;
#372 = CALENDAR_DATE ( 2022, 8, 7 ) ;
#373 = EDGE_CURVE ( 'NONE', #97, #327, #73, .T. ) ;
#374 = FACE_OUTER_BOUND ( 'NONE', #33, .T. ) ;
#375 = CIRCLE ( 'NONE', #148, 0.7000000000000000666 ) ;
#376 = CIRCLE ( 'NONE', #357, 4.500000000000000000 ) ;
#377 = DIRECTION ( 'NONE',  ( 1.000000000000000000, 0.000000000000000000, 0.000000000000000000 ) ) ;
#378 = FACE_OUTER_BOUND ( 'NONE', #159, .T. ) ;
#379 = CARTESIAN_POINT ( 'NONE',  ( 0.000000000000000000, 0.000000000000000000, 457.0000000000000000 ) ) ;
#380 = CARTESIAN_POINT ( 'NONE',  ( -10.00000000000000000, 0.000000000000000000, 7.000000000000000000 ) ) ;
#381 = PLANE ( 'NONE',  #328 ) ;
ENDSEC;
END-ISO-10303-21;
