ISO-10303-21;
HEADER;
FILE_DESCRIPTION (( 'STEP AP203' ),
    '1' );
FILE_NAME ('0a48.STEP',
    '2022-07-08T15:24:53',
    ( '' ),
    ( '' ),
    'SwSTEP 2.0',
    'SolidWorks 2019',
    '' );
FILE_SCHEMA (( 'CONFIG_CONTROL_DESIGN' ));
ENDSEC;

DATA;
#1 = VERTEX_POINT ( 'NONE', #221 ) ;
#2 = FACE_OUTER_BOUND ( 'NONE', #159, .T. ) ;
#3 = VECTOR ( 'NONE', #355, 1000.000000000000000 ) ;
#4 = EDGE_LOOP ( 'NONE', ( #267, #320 ) ) ;
#5 = ORIENTED_EDGE ( 'NONE', *, *, #13, .F. ) ;
#6 = APPROVAL_PERSON_ORGANIZATION ( #375, #183, #114 ) ;
#7 = ORIENTED_EDGE ( 'NONE', *, *, #117, .T. ) ;
#8 = APPROVAL_DATE_TIME ( #43, #282 ) ;
#9 = EDGE_CURVE ( 'NONE', #292, #46, #195, .T. ) ;
#10 = DIRECTION ( 'NONE',  ( -0.000000000000000000, -0.000000000000000000, -1.000000000000000000 ) ) ;
#11 = MECHANICAL_CONTEXT ( 'NONE', #94, 'mechanical' ) ;
#12 = DIRECTION ( 'NONE',  ( 0.000000000000000000, 0.000000000000000000, 1.000000000000000000 ) ) ;
#13 = EDGE_CURVE ( 'NONE', #222, #343, #362, .T. ) ;
#14 = PERSON_AND_ORGANIZATION ( #98, #90 ) ;
#15 = COORDINATED_UNIVERSAL_TIME_OFFSET ( 1, 0, .AHEAD. ) ;
#16 = CARTESIAN_POINT ( 'NONE',  ( 0.000000000000000000, 0.000000000000000000, 0.000000000000000000 ) ) ;
#17 = PERSON_AND_ORGANIZATION_ROLE ( 'classification_officer' ) ;
#18 = CIRCLE ( 'NONE', #67, 0.5000000000000004441 ) ;
#19 = LOCAL_TIME ( 17, 24, 53.00000000000000000, #15 ) ;
#20 = DIRECTION ( 'NONE',  ( -0.000000000000000000, -0.000000000000000000, -1.000000000000000000 ) ) ;
#21 = ADVANCED_FACE ( 'NONE', ( #107, #172 ), #177, .T. ) ;
#22 = DIRECTION ( 'NONE',  ( -0.000000000000000000, -0.000000000000000000, -1.000000000000000000 ) ) ;
#23 = DIRECTION ( 'NONE',  ( 1.000000000000000000, 0.000000000000000000, 0.000000000000000000 ) ) ;
#24 = VECTOR ( 'NONE', #188, 1000.000000000000000 ) ;
#25 = CARTESIAN_POINT ( 'NONE',  ( -4.000000000000000000, 0.000000000000000000, 5.500000000000005329 ) ) ;
#26 = ORIENTED_EDGE ( 'NONE', *, *, #223, .T. ) ;
#27 = AXIS2_PLACEMENT_3D ( 'NONE', #162, #326, #194 ) ;
#28 = FACE_OUTER_BOUND ( 'NONE', #217, .T. ) ;
#29 = VERTEX_POINT ( 'NONE', #301 ) ;
#30 = LINE ( 'NONE', #157, #58 ) ;
#31 = ORIENTED_EDGE ( 'NONE', *, *, #127, .F. ) ;
#32 = APPROVAL_PERSON_ORGANIZATION ( #201, #132, #166 ) ;
#33 = ORIENTED_EDGE ( 'NONE', *, *, #40, .F. ) ;
#34 = CARTESIAN_POINT ( 'NONE',  ( 4.500000000000000888, 0.000000000000000000, 5.000000000000002665 ) ) ;
#35 = CIRCLE ( 'NONE', #200, 2.250000000000000000 ) ;
#36 = ORIENTED_EDGE ( 'NONE', *, *, #280, .F. ) ;
#37 = DATE_TIME_ROLE ( 'creation_date' ) ;
#38 = EDGE_LOOP ( 'NONE', ( #26, #66, #96, #289 ) ) ;
#39 =( GEOMETRIC_REPRESENTATION_CONTEXT ( 3 ) GLOBAL_UNCERTAINTY_ASSIGNED_CONTEXT ( ( #176 ) ) GLOBAL_UNIT_ASSIGNED_CONTEXT ( ( #261, #294, #227 ) ) REPRESENTATION_CONTEXT ( 'NONE', 'WORKASPACE' ) );
#40 = EDGE_CURVE ( 'NONE', #359, #346, #80, .T. ) ;
#41 = DIRECTION ( 'NONE',  ( -0.000000000000000000, -0.000000000000000000, -1.000000000000000000 ) ) ;
#42 = CARTESIAN_POINT ( 'NONE',  ( 4.000000000000000000, 4.898587196589412829E-16, 105.0000000000000142 ) ) ;
#43 = DATE_AND_TIME ( #225, #146 ) ;
#44 = DIRECTION ( 'NONE',  ( 1.000000000000000000, 0.000000000000000000, 0.000000000000000000 ) ) ;
#45 = EDGE_CURVE ( 'NONE', #149, #348, #35, .T. ) ;
#46 = VERTEX_POINT ( 'NONE', #108 ) ;
#47 = AXIS2_PLACEMENT_3D ( 'NONE', #242, #133, #264 ) ;
#48 = DIRECTION ( 'NONE',  ( 1.000000000000000000, 0.000000000000000000, 0.000000000000000000 ) ) ;
#49 = DIRECTION ( 'NONE',  ( 0.000000000000000000, 0.000000000000000000, -1.000000000000000000 ) ) ;
#50 = CARTESIAN_POINT ( 'NONE',  ( 0.000000000000000000, 0.000000000000000000, 105.0000000000000142 ) ) ;
#51 = EDGE_CURVE ( 'NONE', #350, #328, #138, .T. ) ;
#52 = CIRCLE ( 'NONE', #322, 2.250000000000000000 ) ;
#53 = CARTESIAN_POINT ( 'NONE',  ( -2.250000000000000000, 0.000000000000000000, 105.0000000000000142 ) ) ;
#54 = VECTOR ( 'NONE', #85, 1000.000000000000000 ) ;
#55 = PERSON_AND_ORGANIZATION ( #98, #90 ) ;
#56 = FACE_OUTER_BOUND ( 'NONE', #70, .T. ) ;
#57 = EDGE_LOOP ( 'NONE', ( #123, #62, #247, #33 ) ) ;
#58 = VECTOR ( 'NONE', #207, 1000.000000000000000 ) ;
#59 = DIRECTION ( 'NONE',  ( 1.000000000000000000, 0.000000000000000000, -0.000000000000000000 ) ) ;
#60 = DIRECTION ( 'NONE',  ( -0.000000000000000000, -0.000000000000000000, -1.000000000000000000 ) ) ;
#61 = CARTESIAN_POINT ( 'NONE',  ( 4.000000000000000000, 4.898587196589412829E-16, 5.500000000000005329 ) ) ;
#62 = ORIENTED_EDGE ( 'NONE', *, *, #356, .F. ) ;
#63 = ORIENTED_EDGE ( 'NONE', *, *, #112, .F. ) ;
#64 = CARTESIAN_POINT ( 'NONE',  ( 2.250000000000000000, 2.755455298081544285E-16, 0.000000000000000000 ) ) ;
#65 = EDGE_CURVE ( 'NONE', #29, #155, #184, .T. ) ;
#66 = ORIENTED_EDGE ( 'NONE', *, *, #86, .T. ) ;
#67 = AXIS2_PLACEMENT_3D ( 'NONE', #281, #115, #376 ) ;
#68 = AXIS2_PLACEMENT_3D ( 'NONE', #259, #191, #246 ) ;
#69 = CARTESIAN_POINT ( 'NONE',  ( 0.000000000000000000, 0.000000000000000000, 105.0000000000000142 ) ) ;
#70 = EDGE_LOOP ( 'NONE', ( #134, #100, #297, #5 ) ) ;
#71 = CIRCLE ( 'NONE', #226, 0.5000000000000004441 ) ;
#72 = ORIENTED_EDGE ( 'NONE', *, *, #305, .F. ) ;
#73 = CARTESIAN_POINT ( 'NONE',  ( 0.000000000000000000, 0.000000000000000000, 0.000000000000000000 ) ) ;
#74 = EDGE_CURVE ( 'NONE', #343, #359, #71, .T. ) ;
#75 = AXIS2_PLACEMENT_3D ( 'NONE', #125, #240, #319 ) ;
#76 = DIRECTION ( 'NONE',  ( 0.000000000000000000, 0.000000000000000000, 1.000000000000000000 ) ) ;
#77 = DIRECTION ( 'NONE',  ( 1.000000000000000000, 0.000000000000000000, 0.000000000000000000 ) ) ;
#78 = COORDINATED_UNIVERSAL_TIME_OFFSET ( 1, 0, .AHEAD. ) ;
#79 = FACE_OUTER_BOUND ( 'NONE', #38, .T. ) ;
#80 = CIRCLE ( 'NONE', #334, 4.500000000000000888 ) ;
#81 = CARTESIAN_POINT ( 'NONE',  ( 0.000000000000000000, 0.000000000000000000, 105.0000000000000142 ) ) ;
#82 = DATE_AND_TIME ( #179, #126 ) ;
#83 = AXIS2_PLACEMENT_3D ( 'NONE', #303, #171, #272 ) ;
#84 = DIRECTION ( 'NONE',  ( 0.000000000000000000, 0.000000000000000000, 1.000000000000000000 ) ) ;
#85 = DIRECTION ( 'NONE',  ( -0.000000000000000000, -0.000000000000000000, -1.000000000000000000 ) ) ;
#86 = EDGE_CURVE ( 'NONE', #29, #348, #30, .T. ) ;
#87 = DIRECTION ( 'NONE',  ( 1.224646799147353207E-16, 1.000000000000000000, -0.000000000000000000 ) ) ;
#88 = DIRECTION ( 'NONE',  ( -1.000000000000000000, 0.000000000000000000, 0.000000000000000000 ) ) ;
#89 = DIRECTION ( 'NONE',  ( -1.000000000000000000, 0.000000000000000000, 0.000000000000000000 ) ) ;
#90 = ORGANIZATION ( 'NEURÈENÝ', 'NEURÈENÝ', '' ) ;
#91 = DIRECTION ( 'NONE',  ( 0.000000000000000000, 0.000000000000000000, 1.000000000000000000 ) ) ;
#92 = ORIENTED_EDGE ( 'NONE', *, *, #9, .F. ) ;
#93 = EDGE_CURVE ( 'NONE', #46, #292, #161, .T. ) ;
#94 = APPLICATION_CONTEXT ( 'configuration controlled 3d designs of mechanical parts and assemblies' ) ;
#95 = CYLINDRICAL_SURFACE ( 'NONE', #324, 4.000000000000000000 ) ;
#96 = ORIENTED_EDGE ( 'NONE', *, *, #127, .T. ) ;
#97 = PRODUCT_DEFINITION_FORMATION_WITH_SPECIFIED_SOURCE ( 'LIBOVOLNÝ', '', #268, .NOT_KNOWN. ) ;
#98 = PERSON ( 'NEURÈENÝ', 'NEURÈENÝ', 'NEURÈENÝ', ('NEURÈENÝ'), ('NEURÈENÝ'), ('NEURÈENÝ') ) ;
#99 = CARTESIAN_POINT ( 'NONE',  ( -4.500000000000000888, 5.510910596163088569E-16, 5.000000000000002665 ) ) ;
#100 = ORIENTED_EDGE ( 'NONE', *, *, #51, .T. ) ;
#101 = APPLICATION_PROTOCOL_DEFINITION ( 'international standard', 'config_control_design', 1994, #119 ) ;
#102 = ORIENTED_EDGE ( 'NONE', *, *, #291, .F. ) ;
#103 = CC_DESIGN_APPROVAL ( #132, ( #97 ) ) ;
#104 = DIRECTION ( 'NONE',  ( 1.000000000000000000, 0.000000000000000000, 0.000000000000000000 ) ) ;
#105 = APPROVAL_STATUS ( 'not_yet_approved' ) ;
#106 = AXIS2_PLACEMENT_3D ( 'NONE', #330, #366, #205 ) ;
#107 = FACE_BOUND ( 'NONE', #4, .T. ) ;
#108 = CARTESIAN_POINT ( 'NONE',  ( -7.000000000000000000, 0.000000000000000000, 5.000000000000000000 ) ) ;
#109 = PERSON_AND_ORGANIZATION_ROLE ( 'creator' ) ;
#110 = CIRCLE ( 'NONE', #122, 4.000000000000000000 ) ;
#111 = DIRECTION ( 'NONE',  ( 0.000000000000000000, 0.000000000000000000, -1.000000000000000000 ) ) ;
#112 = EDGE_CURVE ( 'NONE', #1, #353, #279, .T. ) ;
#113 = DESIGN_CONTEXT ( 'detailed design', #119, 'design' ) ;
#114 = APPROVAL_ROLE ( '' ) ;
#115 = DIRECTION ( 'NONE',  ( 0.000000000000000000, -1.000000000000000000, 0.000000000000000000 ) ) ;
#116 = CYLINDRICAL_SURFACE ( 'NONE', #316, 2.250000000000000000 ) ;
#117 = EDGE_CURVE ( 'NONE', #155, #149, #331, .T. ) ;
#118 = SHAPE_DEFINITION_REPRESENTATION ( #302, #230 ) ;
#119 = APPLICATION_CONTEXT ( 'configuration controlled 3d designs of mechanical parts and assemblies' ) ;
#120 = AXIS2_PLACEMENT_3D ( 'NONE', #233, #180, #121 ) ;
#121 = DIRECTION ( 'NONE',  ( 1.000000000000000000, 0.000000000000000000, -0.000000000000000000 ) ) ;
#122 = AXIS2_PLACEMENT_3D ( 'NONE', #210, #214, #251 ) ;
#123 = ORIENTED_EDGE ( 'NONE', *, *, #74, .F. ) ;
#124 = CARTESIAN_POINT ( 'NONE',  ( 0.000000000000000000, 0.000000000000000000, 5.000000000000000000 ) ) ;
#125 = CARTESIAN_POINT ( 'NONE',  ( 0.000000000000000000, 0.000000000000000000, 5.000000000000000000 ) ) ;
#126 = LOCAL_TIME ( 17, 24, 53.00000000000000000, #78 ) ;
#127 = EDGE_CURVE ( 'NONE', #348, #149, #52, .T. ) ;
#128 = ORIENTED_EDGE ( 'NONE', *, *, #13, .T. ) ;
#129 = VECTOR ( 'NONE', #174, 1000.000000000000000 ) ;
#130 = CYLINDRICAL_SURFACE ( 'NONE', #47, 7.000000000000000000 ) ;
#131 = ORIENTED_EDGE ( 'NONE', *, *, #112, .T. ) ;
#132 = APPROVAL ( #105, 'NEURÈENÝ' ) ;
#133 = DIRECTION ( 'NONE',  ( -0.000000000000000000, -0.000000000000000000, -1.000000000000000000 ) ) ;
#134 = ORIENTED_EDGE ( 'NONE', *, *, #147, .F. ) ;
#135 = ORIENTED_EDGE ( 'NONE', *, *, #93, .T. ) ;
#136 = PERSON_AND_ORGANIZATION ( #98, #90 ) ;
#137 = CARTESIAN_POINT ( 'NONE',  ( 0.000000000000000000, 0.000000000000000000, 0.000000000000000000 ) ) ;
#138 = LINE ( 'NONE', #42, #129 ) ;
#139 = CC_DESIGN_DATE_AND_TIME_ASSIGNMENT ( #248, #37, ( #262 ) ) ;
#140 = AXIS2_PLACEMENT_3D ( 'NONE', #189, #345, #219 ) ;
#141 = COORDINATED_UNIVERSAL_TIME_OFFSET ( 1, 0, .AHEAD. ) ;
#142 = MANIFOLD_SOLID_BREP ( 'Odebrat vysunutím3', #340 ) ;
#143 = ORIENTED_EDGE ( 'NONE', *, *, #147, .T. ) ;
#144 = CC_DESIGN_DATE_AND_TIME_ASSIGNMENT ( #363, #307, ( #192 ) ) ;
#145 = DIRECTION ( 'NONE',  ( 1.000000000000000000, 0.000000000000000000, 0.000000000000000000 ) ) ;
#146 = LOCAL_TIME ( 17, 24, 53.00000000000000000, #141 ) ;
#147 = EDGE_CURVE ( 'NONE', #350, #222, #364, .T. ) ;
#148 = PERSON_AND_ORGANIZATION ( #98, #90 ) ;
#149 = VERTEX_POINT ( 'NONE', #273 ) ;
#150 = CIRCLE ( 'NONE', #270, 4.000000000000000000 ) ;
#151 = CARTESIAN_POINT ( 'NONE',  ( 7.000000000000000000, 8.572527594031473190E-16, 5.000000000000000000 ) ) ;
#152 = FACE_OUTER_BOUND ( 'NONE', #381, .T. ) ;
#153 = DIRECTION ( 'NONE',  ( 1.000000000000000000, 0.000000000000000000, 0.000000000000000000 ) ) ;
#154 = ADVANCED_FACE ( 'NONE', ( #253 ), #212, .F. ) ;
#155 = VERTEX_POINT ( 'NONE', #53 ) ;
#156 = AXIS2_PLACEMENT_3D ( 'NONE', #81, #111, #88 ) ;
#157 = CARTESIAN_POINT ( 'NONE',  ( 2.250000000000000000, 2.755455298081544285E-16, 105.0000000000000142 ) ) ;
#158 = CC_DESIGN_APPROVAL ( #183, ( #192 ) ) ;
#159 = EDGE_LOOP ( 'NONE', ( #271, #164, #128, #317 ) ) ;
#160 = ORIENTED_EDGE ( 'NONE', *, *, #9, .T. ) ;
#161 = CIRCLE ( 'NONE', #358, 7.000000000000000000 ) ;
#162 = CARTESIAN_POINT ( 'NONE',  ( 0.000000000000000000, 0.000000000000000000, 5.000000000000000000 ) ) ;
#163 = DIRECTION ( 'NONE',  ( 0.000000000000000000, 0.000000000000000000, 1.000000000000000000 ) ) ;
#164 = ORIENTED_EDGE ( 'NONE', *, *, #238, .F. ) ;
#165 = AXIS2_PLACEMENT_3D ( 'NONE', #239, #91, #153 ) ;
#166 = APPROVAL_ROLE ( '' ) ;
#167 = DIRECTION ( 'NONE',  ( 0.000000000000000000, 0.000000000000000000, 1.000000000000000000 ) ) ;
#168 = DIRECTION ( 'NONE',  ( 1.000000000000000000, 0.000000000000000000, 0.000000000000000000 ) ) ;
#169 = APPROVAL_STATUS ( 'not_yet_approved' ) ;
#170 = EDGE_CURVE ( 'NONE', #328, #346, #18, .T. ) ;
#171 = DIRECTION ( 'NONE',  ( 0.000000000000000000, 0.000000000000000000, 1.000000000000000000 ) ) ;
#172 = FACE_OUTER_BOUND ( 'NONE', #277, .T. ) ;
#173 = DIRECTION ( 'NONE',  ( -0.000000000000000000, -0.000000000000000000, -1.000000000000000000 ) ) ;
#174 = DIRECTION ( 'NONE',  ( -0.000000000000000000, -0.000000000000000000, -1.000000000000000000 ) ) ;
#175 = CIRCLE ( 'NONE', #365, 4.000000000000000000 ) ;
#176 = UNCERTAINTY_MEASURE_WITH_UNIT (LENGTH_MEASURE( 1.000000000000000082E-05 ), #261, 'distance_accuracy_value', 'NONE');
#177 = PLANE ( 'NONE',  #106 ) ;
#178 = DIRECTION ( 'NONE',  ( 0.000000000000000000, 0.000000000000000000, -1.000000000000000000 ) ) ;
#179 = CALENDAR_DATE ( 2022, 8, 7 ) ;
#180 = DIRECTION ( 'NONE',  ( 0.000000000000000000, 0.000000000000000000, 1.000000000000000000 ) ) ;
#181 = PERSON_AND_ORGANIZATION ( #98, #90 ) ;
#182 = DIRECTION ( 'NONE',  ( -1.000000000000000000, 0.000000000000000000, 0.000000000000000000 ) ) ;
#183 = APPROVAL ( #254, 'NEURÈENÝ' ) ;
#184 = CIRCLE ( 'NONE', #288, 2.250000000000000000 ) ;
#185 = ORIENTED_EDGE ( 'NONE', *, *, #238, .T. ) ;
#186 = CARTESIAN_POINT ( 'NONE',  ( 0.000000000000000000, 0.000000000000000000, 5.500000000000005329 ) ) ;
#187 = DIRECTION ( 'NONE',  ( -1.000000000000000000, 1.224646799147351482E-16, 0.000000000000000000 ) ) ;
#188 = DIRECTION ( 'NONE',  ( -0.000000000000000000, -0.000000000000000000, -1.000000000000000000 ) ) ;
#189 = CARTESIAN_POINT ( 'NONE',  ( 0.000000000000000000, 0.000000000000000000, 0.000000000000000000 ) ) ;
#190 = ORIENTED_EDGE ( 'NONE', *, *, #369, .T. ) ;
#191 = DIRECTION ( 'NONE',  ( 0.000000000000000000, 0.000000000000000000, 1.000000000000000000 ) ) ;
#192 = SECURITY_CLASSIFICATION ( '', '', #208 ) ;
#193 = EDGE_LOOP ( 'NONE', ( #220, #236, #7, #197 ) ) ;
#194 = DIRECTION ( 'NONE',  ( 1.000000000000000000, 0.000000000000000000, 0.000000000000000000 ) ) ;
#195 = CIRCLE ( 'NONE', #27, 7.000000000000000000 ) ;
#196 = CALENDAR_DATE ( 2022, 8, 7 ) ;
#197 = ORIENTED_EDGE ( 'NONE', *, *, #45, .T. ) ;
#198 = TOROIDAL_SURFACE ( 'NONE', #165, 4.500000000000000888, 0.5000000000000000000 ) ;
#199 = ADVANCED_FACE ( 'NONE', ( #308, #310 ), #252, .F. ) ;
#200 = AXIS2_PLACEMENT_3D ( 'NONE', #229, #10, #77 ) ;
#201 = PERSON_AND_ORGANIZATION ( #98, #90 ) ;
#202 = APPLICATION_PROTOCOL_DEFINITION ( 'international standard', 'config_control_design', 1994, #94 ) ;
#203 = CARTESIAN_POINT ( 'NONE',  ( -2.250000000000000000, 0.000000000000000000, 105.0000000000000142 ) ) ;
#204 = ADVANCED_FACE ( 'NONE', ( #231, #209 ), #336, .T. ) ;
#205 = DIRECTION ( 'NONE',  ( 1.000000000000000000, 0.000000000000000000, -0.000000000000000000 ) ) ;
#206 = CC_DESIGN_SECURITY_CLASSIFICATION ( #192, ( #97 ) ) ;
#207 = DIRECTION ( 'NONE',  ( 0.000000000000000000, 0.000000000000000000, -1.000000000000000000 ) ) ;
#208 = SECURITY_CLASSIFICATION_LEVEL ( 'unclassified' ) ;
#209 = FACE_OUTER_BOUND ( 'NONE', #216, .T. ) ;
#210 = CARTESIAN_POINT ( 'NONE',  ( 0.000000000000000000, 0.000000000000000000, 105.0000000000000142 ) ) ;
#211 = CC_DESIGN_PERSON_AND_ORGANIZATION_ASSIGNMENT ( #136, #299, ( #262 ) ) ;
#212 = CYLINDRICAL_SURFACE ( 'NONE', #156, 2.250000000000000000 ) ;
#213 = AXIS2_PLACEMENT_3D ( 'NONE', #137, #167, #48 ) ;
#214 = DIRECTION ( 'NONE',  ( 0.000000000000000000, 0.000000000000000000, 1.000000000000000000 ) ) ;
#215 = CC_DESIGN_PERSON_AND_ORGANIZATION_ASSIGNMENT ( #278, #357, ( #268 ) ) ;
#216 = EDGE_LOOP ( 'NONE', ( #185, #143 ) ) ;
#217 = EDGE_LOOP ( 'NONE', ( #36, #241, #190, #298 ) ) ;
#218 = VECTOR ( 'NONE', #49, 1000.000000000000000 ) ;
#219 = DIRECTION ( 'NONE',  ( 1.000000000000000000, 0.000000000000000000, 0.000000000000000000 ) ) ;
#220 = ORIENTED_EDGE ( 'NONE', *, *, #86, .F. ) ;
#221 = CARTESIAN_POINT ( 'NONE',  ( 7.000000000000000000, 8.572527594031473190E-16, 0.000000000000000000 ) ) ;
#222 = VERTEX_POINT ( 'NONE', #312 ) ;
#223 = EDGE_CURVE ( 'NONE', #155, #29, #372, .T. ) ;
#224 = AXIS2_PLACEMENT_3D ( 'NONE', #124, #22, #235 ) ;
#225 = CALENDAR_DATE ( 2022, 8, 7 ) ;
#226 = AXIS2_PLACEMENT_3D ( 'NONE', #339, #87, #187 ) ;
#227 =( NAMED_UNIT ( * ) SI_UNIT ( $, .STERADIAN. ) SOLID_ANGLE_UNIT ( ) );
#228 = CC_DESIGN_PERSON_AND_ORGANIZATION_ASSIGNMENT ( #55, #109, ( #97 ) ) ;
#229 = CARTESIAN_POINT ( 'NONE',  ( 0.000000000000000000, 0.000000000000000000, 0.000000000000000000 ) ) ;
#230 = ADVANCED_BREP_SHAPE_REPRESENTATION ( '0a48', ( #142, #351 ), #39 ) ;
#231 = FACE_BOUND ( 'NONE', #243, .T. ) ;
#232 = ADVANCED_FACE ( 'NONE', ( #79 ), #116, .F. ) ;
#233 = CARTESIAN_POINT ( 'NONE',  ( 0.000000000000000000, 0.000000000000000000, 105.0000000000000142 ) ) ;
#234 = APPROVAL_DATE_TIME ( #306, #132 ) ;
#235 = DIRECTION ( 'NONE',  ( 1.000000000000000000, 0.000000000000000000, 0.000000000000000000 ) ) ;
#236 = ORIENTED_EDGE ( 'NONE', *, *, #65, .T. ) ;
#237 = CARTESIAN_POINT ( 'NONE',  ( 0.000000000000000000, 0.000000000000000000, 105.0000000000000142 ) ) ;
#238 = EDGE_CURVE ( 'NONE', #222, #350, #110, .T. ) ;
#239 = CARTESIAN_POINT ( 'NONE',  ( 0.000000000000000000, 0.000000000000000000, 5.500000000000005329 ) ) ;
#240 = DIRECTION ( 'NONE',  ( -0.000000000000000000, -0.000000000000000000, -1.000000000000000000 ) ) ;
#241 = ORIENTED_EDGE ( 'NONE', *, *, #93, .F. ) ;
#242 = CARTESIAN_POINT ( 'NONE',  ( 0.000000000000000000, 0.000000000000000000, 5.000000000000000000 ) ) ;
#243 = EDGE_LOOP ( 'NONE', ( #379, #263 ) ) ;
#244 = CC_DESIGN_PERSON_AND_ORGANIZATION_ASSIGNMENT ( #181, #309, ( #97 ) ) ;
#245 = EDGE_LOOP ( 'NONE', ( #72, #63 ) ) ;
#246 = DIRECTION ( 'NONE',  ( 1.000000000000000000, 0.000000000000000000, 0.000000000000000000 ) ) ;
#247 = ORIENTED_EDGE ( 'NONE', *, *, #170, .T. ) ;
#248 = DATE_AND_TIME ( #196, #285 ) ;
#249 = CC_DESIGN_PERSON_AND_ORGANIZATION_ASSIGNMENT ( #148, #17, ( #192 ) ) ;
#250 = DIRECTION ( 'NONE',  ( 1.000000000000000000, 0.000000000000000000, 0.000000000000000000 ) ) ;
#251 = DIRECTION ( 'NONE',  ( 1.000000000000000000, 0.000000000000000000, 0.000000000000000000 ) ) ;
#252 = PLANE ( 'NONE',  #274 ) ;
#253 = FACE_OUTER_BOUND ( 'NONE', #193, .T. ) ;
#254 = APPROVAL_STATUS ( 'not_yet_approved' ) ;
#255 = DIRECTION ( 'NONE',  ( 1.000000000000000000, 0.000000000000000000, 0.000000000000000000 ) ) ;
#256 = EDGE_LOOP ( 'NONE', ( #102, #283, #374, #265 ) ) ;
#257 = EDGE_CURVE ( 'NONE', #346, #359, #373, .T. ) ;
#258 = CARTESIAN_POINT ( 'NONE',  ( 0.000000000000000000, 0.000000000000000000, 5.500000000000005329 ) ) ;
#259 = CARTESIAN_POINT ( 'NONE',  ( 0.000000000000000000, 0.000000000000000000, 5.500000000000005329 ) ) ;
#260 = ORIENTED_EDGE ( 'NONE', *, *, #280, .T. ) ;
#261 =( LENGTH_UNIT ( ) NAMED_UNIT ( * ) SI_UNIT ( .MILLI., .METRE. ) );
#262 = PRODUCT_DEFINITION ( 'NEZNÁMÝ', '', #97, #113 ) ;
#263 = ORIENTED_EDGE ( 'NONE', *, *, #65, .F. ) ;
#264 = DIRECTION ( 'NONE',  ( -1.000000000000000000, 0.000000000000000000, 0.000000000000000000 ) ) ;
#265 = ORIENTED_EDGE ( 'NONE', *, *, #170, .F. ) ;
#266 = CARTESIAN_POINT ( 'NONE',  ( -7.000000000000000000, 0.000000000000000000, 0.000000000000000000 ) ) ;
#267 = ORIENTED_EDGE ( 'NONE', *, *, #257, .T. ) ;
#268 = PRODUCT ( '0a48', '0a48', '', ( #11 ) ) ;
#269 = ADVANCED_FACE ( 'NONE', ( #56 ), #315, .T. ) ;
#270 = AXIS2_PLACEMENT_3D ( 'NONE', #186, #284, #23 ) ;
#271 = ORIENTED_EDGE ( 'NONE', *, *, #51, .F. ) ;
#272 = DIRECTION ( 'NONE',  ( 1.000000000000000000, 0.000000000000000000, 0.000000000000000000 ) ) ;
#273 = CARTESIAN_POINT ( 'NONE',  ( -2.250000000000000000, 0.000000000000000000, 0.000000000000000000 ) ) ;
#274 = AXIS2_PLACEMENT_3D ( 'NONE', #16, #314, #59 ) ;
#275 = CARTESIAN_POINT ( 'NONE',  ( 0.000000000000000000, 0.000000000000000000, 105.0000000000000142 ) ) ;
#276 = AXIS2_PLACEMENT_3D ( 'NONE', #341, #20, #182 ) ;
#277 = EDGE_LOOP ( 'NONE', ( #135, #160 ) ) ;
#278 = PERSON_AND_ORGANIZATION ( #98, #90 ) ;
#279 = CIRCLE ( 'NONE', #213, 7.000000000000000000 ) ;
#280 = EDGE_CURVE ( 'NONE', #292, #1, #371, .T. ) ;
#281 = CARTESIAN_POINT ( 'NONE',  ( 4.500000000000000888, 0.000000000000000000, 5.500000000000005329 ) ) ;
#282 = APPROVAL ( #169, 'NEURÈENÝ' ) ;
#283 = ORIENTED_EDGE ( 'NONE', *, *, #74, .T. ) ;
#284 = DIRECTION ( 'NONE',  ( 0.000000000000000000, 0.000000000000000000, 1.000000000000000000 ) ) ;
#285 = LOCAL_TIME ( 17, 24, 53.00000000000000000, #332 ) ;
#286 = FACE_OUTER_BOUND ( 'NONE', #256, .T. ) ;
#287 = DIRECTION ( 'NONE',  ( 0.000000000000000000, 0.000000000000000000, 1.000000000000000000 ) ) ;
#288 = AXIS2_PLACEMENT_3D ( 'NONE', #275, #12, #255 ) ;
#289 = ORIENTED_EDGE ( 'NONE', *, *, #117, .F. ) ;
#290 = FACE_OUTER_BOUND ( 'NONE', #57, .T. ) ;
#291 = EDGE_CURVE ( 'NONE', #343, #328, #150, .T. ) ;
#292 = VERTEX_POINT ( 'NONE', #151 ) ;
#293 = CIRCLE ( 'NONE', #140, 7.000000000000000000 ) ;
#294 =( NAMED_UNIT ( * ) PLANE_ANGLE_UNIT ( ) SI_UNIT ( $, .RADIAN. ) );
#295 = ORIENTED_EDGE ( 'NONE', *, *, #369, .F. ) ;
#296 = CARTESIAN_POINT ( 'NONE',  ( 4.000000000000000000, 4.898587196589412829E-16, 105.0000000000000142 ) ) ;
#297 = ORIENTED_EDGE ( 'NONE', *, *, #356, .T. ) ;
#298 = ORIENTED_EDGE ( 'NONE', *, *, #305, .T. ) ;
#299 = PERSON_AND_ORGANIZATION_ROLE ( 'creator' ) ;
#300 = APPROVAL_PERSON_ORGANIZATION ( #14, #282, #329 ) ;
#301 = CARTESIAN_POINT ( 'NONE',  ( 2.250000000000000000, 2.755455298081544285E-16, 105.0000000000000142 ) ) ;
#302 = PRODUCT_DEFINITION_SHAPE ( 'NONE', 'NONE',  #262 ) ;
#303 = CARTESIAN_POINT ( 'NONE',  ( 0.000000000000000000, 0.000000000000000000, 105.0000000000000142 ) ) ;
#304 = CARTESIAN_POINT ( 'NONE',  ( -4.000000000000000000, 0.000000000000000000, 105.0000000000000142 ) ) ;
#305 = EDGE_CURVE ( 'NONE', #353, #1, #293, .T. ) ;
#306 = DATE_AND_TIME ( #335, #344 ) ;
#307 = DATE_TIME_ROLE ( 'classification_date' ) ;
#308 = FACE_BOUND ( 'NONE', #352, .T. ) ;
#309 = PERSON_AND_ORGANIZATION_ROLE ( 'design_supplier' ) ;
#310 = FACE_OUTER_BOUND ( 'NONE', #245, .T. ) ;
#311 = TOROIDAL_SURFACE ( 'NONE', #68, 4.500000000000000888, 0.5000000000000000000 ) ;
#312 = CARTESIAN_POINT ( 'NONE',  ( -4.000000000000000000, 0.000000000000000000, 105.0000000000000142 ) ) ;
#313 = ADVANCED_FACE ( 'NONE', ( #286 ), #198, .F. ) ;
#314 = DIRECTION ( 'NONE',  ( 0.000000000000000000, 0.000000000000000000, 1.000000000000000000 ) ) ;
#315 = CYLINDRICAL_SURFACE ( 'NONE', #276, 4.000000000000000000 ) ;
#316 = AXIS2_PLACEMENT_3D ( 'NONE', #50, #178, #368 ) ;
#317 = ORIENTED_EDGE ( 'NONE', *, *, #291, .T. ) ;
#318 = ADVANCED_FACE ( 'NONE', ( #2 ), #95, .T. ) ;
#319 = DIRECTION ( 'NONE',  ( -1.000000000000000000, 0.000000000000000000, 0.000000000000000000 ) ) ;
#320 = ORIENTED_EDGE ( 'NONE', *, *, #40, .T. ) ;
#321 = ORIENTED_EDGE ( 'NONE', *, *, #45, .F. ) ;
#322 = AXIS2_PLACEMENT_3D ( 'NONE', #73, #173, #44 ) ;
#323 = AXIS2_PLACEMENT_3D ( 'NONE', #237, #84, #145 ) ;
#324 = AXIS2_PLACEMENT_3D ( 'NONE', #69, #60, #89 ) ;
#325 = ADVANCED_FACE ( 'NONE', ( #152 ), #130, .T. ) ;
#326 = DIRECTION ( 'NONE',  ( 0.000000000000000000, 0.000000000000000000, 1.000000000000000000 ) ) ;
#327 = CARTESIAN_POINT ( 'NONE',  ( 0.000000000000000000, 0.000000000000000000, 0.000000000000000000 ) ) ;
#328 = VERTEX_POINT ( 'NONE', #61 ) ;
#329 = APPROVAL_ROLE ( '' ) ;
#330 = CARTESIAN_POINT ( 'NONE',  ( 0.000000000000000000, 0.000000000000000000, 5.000000000000000000 ) ) ;
#331 = LINE ( 'NONE', #203, #218 ) ;
#332 = COORDINATED_UNIVERSAL_TIME_OFFSET ( 1, 0, .AHEAD. ) ;
#333 = CARTESIAN_POINT ( 'NONE',  ( 0.000000000000000000, 0.000000000000000000, 5.000000000000000000 ) ) ;
#334 = AXIS2_PLACEMENT_3D ( 'NONE', #333, #41, #168 ) ;
#335 = CALENDAR_DATE ( 2022, 8, 7 ) ;
#336 = PLANE ( 'NONE',  #120 ) ;
#337 = CC_DESIGN_APPROVAL ( #282, ( #262 ) ) ;
#338 = CARTESIAN_POINT ( 'NONE',  ( 7.000000000000000000, 8.572527594031473190E-16, 5.000000000000000000 ) ) ;
#339 = CARTESIAN_POINT ( 'NONE',  ( -4.500000000000000888, 5.510910596163089556E-16, 5.500000000000005329 ) ) ;
#340 = CLOSED_SHELL ( 'NONE', ( #232, #313, #269, #325, #378, #21, #199, #318, #204, #349, #154 ) ) ;
#341 = CARTESIAN_POINT ( 'NONE',  ( 0.000000000000000000, 0.000000000000000000, 105.0000000000000142 ) ) ;
#342 = CARTESIAN_POINT ( 'NONE',  ( -7.000000000000000000, 0.000000000000000000, 5.000000000000000000 ) ) ;
#343 = VERTEX_POINT ( 'NONE', #25 ) ;
#344 = LOCAL_TIME ( 17, 24, 53.00000000000000000, #354 ) ;
#345 = DIRECTION ( 'NONE',  ( 0.000000000000000000, 0.000000000000000000, 1.000000000000000000 ) ) ;
#346 = VERTEX_POINT ( 'NONE', #34 ) ;
#347 = DIRECTION ( 'NONE',  ( 1.000000000000000000, 0.000000000000000000, 0.000000000000000000 ) ) ;
#348 = VERTEX_POINT ( 'NONE', #64 ) ;
#349 = ADVANCED_FACE ( 'NONE', ( #290 ), #311, .F. ) ;
#350 = VERTEX_POINT ( 'NONE', #296 ) ;
#351 = AXIS2_PLACEMENT_3D ( 'NONE', #327, #163, #104 ) ;
#352 = EDGE_LOOP ( 'NONE', ( #321, #31 ) ) ;
#353 = VERTEX_POINT ( 'NONE', #266 ) ;
#354 = COORDINATED_UNIVERSAL_TIME_OFFSET ( 1, 0, .AHEAD. ) ;
#355 = DIRECTION ( 'NONE',  ( -0.000000000000000000, -0.000000000000000000, -1.000000000000000000 ) ) ;
#356 = EDGE_CURVE ( 'NONE', #328, #343, #175, .T. ) ;
#357 = PERSON_AND_ORGANIZATION_ROLE ( 'design_owner' ) ;
#358 = AXIS2_PLACEMENT_3D ( 'NONE', #361, #76, #250 ) ;
#359 = VERTEX_POINT ( 'NONE', #99 ) ;
#360 = PRODUCT_RELATED_PRODUCT_CATEGORY ( 'detail', '', ( #268 ) ) ;
#361 = CARTESIAN_POINT ( 'NONE',  ( 0.000000000000000000, 0.000000000000000000, 5.000000000000000000 ) ) ;
#362 = LINE ( 'NONE', #304, #3 ) ;
#363 = DATE_AND_TIME ( #367, #19 ) ;
#364 = CIRCLE ( 'NONE', #83, 4.000000000000000000 ) ;
#365 = AXIS2_PLACEMENT_3D ( 'NONE', #258, #287, #347 ) ;
#366 = DIRECTION ( 'NONE',  ( 0.000000000000000000, 0.000000000000000000, 1.000000000000000000 ) ) ;
#367 = CALENDAR_DATE ( 2022, 8, 7 ) ;
#368 = DIRECTION ( 'NONE',  ( -1.000000000000000000, 0.000000000000000000, 0.000000000000000000 ) ) ;
#369 = EDGE_CURVE ( 'NONE', #46, #353, #377, .T. ) ;
#370 = APPROVAL_DATE_TIME ( #82, #183 ) ;
#371 = LINE ( 'NONE', #338, #54 ) ;
#372 = CIRCLE ( 'NONE', #323, 2.250000000000000000 ) ;
#373 = CIRCLE ( 'NONE', #224, 4.500000000000000888 ) ;
#374 = ORIENTED_EDGE ( 'NONE', *, *, #257, .F. ) ;
#375 = PERSON_AND_ORGANIZATION ( #98, #90 ) ;
#376 = DIRECTION ( 'NONE',  ( 0.000000000000000000, 0.000000000000000000, -1.000000000000000000 ) ) ;
#377 = LINE ( 'NONE', #342, #24 ) ;
#378 = ADVANCED_FACE ( 'NONE', ( #28 ), #380, .T. ) ;
#379 = ORIENTED_EDGE ( 'NONE', *, *, #223, .F. ) ;
#380 = CYLINDRICAL_SURFACE ( 'NONE', #75, 7.000000000000000000 ) ;
#381 = EDGE_LOOP ( 'NONE', ( #92, #260, #131, #295 ) ) ;
ENDSEC;
END-ISO-10303-21;
