ISO-10303-21;
HEADER;
FILE_DESCRIPTION (( 'STEP AP203' ),
    '1' );
FILE_NAME ('6b47.STEP',
    '2022-07-08T15:41:10',
    ( '' ),
    ( '' ),
    'SwSTEP 2.0',
    'SolidWorks 2019',
    '' );
FILE_SCHEMA (( 'CONFIG_CONTROL_DESIGN' ));
ENDSEC;

DATA;
#1 = EDGE_CURVE ( 'NONE', #182, #237, #366, .T. ) ;
#2 = DIRECTION ( 'NONE',  ( 0.000000000000000000, 0.000000000000000000, -1.000000000000000000 ) ) ;
#3 = ORIENTED_EDGE ( 'NONE', *, *, #277, .T. ) ;
#4 = EDGE_CURVE ( 'NONE', #181, #225, #120, .T. ) ;
#5 = APPROVAL_PERSON_ORGANIZATION ( #369, #363, #13 ) ;
#6 = ORIENTED_EDGE ( 'NONE', *, *, #1, .T. ) ;
#7 = FACE_OUTER_BOUND ( 'NONE', #17, .T. ) ;
#8 = APPLICATION_CONTEXT ( 'configuration controlled 3d designs of mechanical parts and assemblies' ) ;
#9 = CARTESIAN_POINT ( 'NONE',  ( 0.000000000000000000, 0.000000000000000000, 0.000000000000000000 ) ) ;
#10 = ORIENTED_EDGE ( 'NONE', *, *, #186, .F. ) ;
#11 = APPROVAL_DATE_TIME ( #73, #65 ) ;
#12 = CIRCLE ( 'NONE', #364, 0.2999999999999999334 ) ;
#13 = APPROVAL_ROLE ( '' ) ;
#14 = DIRECTION ( 'NONE',  ( -1.000000000000000000, 0.000000000000000000, 0.000000000000000000 ) ) ;
#15 = DIRECTION ( 'NONE',  ( -1.000000000000000000, 0.000000000000000000, 0.000000000000000000 ) ) ;
#16 = CIRCLE ( 'NONE', #43, 2.500000000000000000 ) ;
#17 = EDGE_LOOP ( 'NONE', ( #95, #361, #191, #251 ) ) ;
#18 = VECTOR ( 'NONE', #342, 1000.000000000000000 ) ;
#19 = ORIENTED_EDGE ( 'NONE', *, *, #267, .F. ) ;
#20 = EDGE_CURVE ( 'NONE', #237, #182, #91, .T. ) ;
#21 = CYLINDRICAL_SURFACE ( 'NONE', #57, 2.500000000000000000 ) ;
#22 = VERTEX_POINT ( 'NONE', #299 ) ;
#23 =( NAMED_UNIT ( * ) PLANE_ANGLE_UNIT ( ) SI_UNIT ( $, .RADIAN. ) );
#24 = ORIENTED_EDGE ( 'NONE', *, *, #4, .F. ) ;
#25 = CIRCLE ( 'NONE', #164, 1.600000000000000089 ) ;
#26 = LOCAL_TIME ( 17, 41, 10.00000000000000000, #226 ) ;
#27 =( NAMED_UNIT ( * ) SI_UNIT ( $, .STERADIAN. ) SOLID_ANGLE_UNIT ( ) );
#28 = EDGE_CURVE ( 'NONE', #225, #181, #129, .T. ) ;
#29 = FACE_OUTER_BOUND ( 'NONE', #380, .T. ) ;
#30 = APPLICATION_CONTEXT ( 'configuration controlled 3d designs of mechanical parts and assemblies' ) ;
#31 = DIRECTION ( 'NONE',  ( 0.000000000000000000, 0.000000000000000000, 1.000000000000000000 ) ) ;
#32 = ORIENTED_EDGE ( 'NONE', *, *, #75, .T. ) ;
#33 = TOROIDAL_SURFACE ( 'NONE', #253, 2.799999999999999822, 0.2999999999999999889 ) ;
#34 = DIRECTION ( 'NONE',  ( -0.000000000000000000, -0.000000000000000000, -1.000000000000000000 ) ) ;
#35 = DIRECTION ( 'NONE',  ( 1.000000000000000000, 0.000000000000000000, 0.000000000000000000 ) ) ;
#36 = DIRECTION ( 'NONE',  ( -1.000000000000000000, 1.224646799147353207E-16, 0.000000000000000000 ) ) ;
#37 = VERTEX_POINT ( 'NONE', #302 ) ;
#38 = SECURITY_CLASSIFICATION ( '', '', #234 ) ;
#39 = DIRECTION ( 'NONE',  ( 1.000000000000000000, 0.000000000000000000, 0.000000000000000000 ) ) ;
#40 = PRODUCT_DEFINITION ( 'NEZNÁMÝ', '', #271, #59 ) ;
#41 = ORIENTED_EDGE ( 'NONE', *, *, #96, .T. ) ;
#42 = DATE_AND_TIME ( #373, #26 ) ;
#43 = AXIS2_PLACEMENT_3D ( 'NONE', #183, #126, #88 ) ;
#44 = CARTESIAN_POINT ( 'NONE',  ( -2.500000000000000000, 0.000000000000000000, 503.0000000000000000 ) ) ;
#45 = CALENDAR_DATE ( 2022, 8, 7 ) ;
#46 = EDGE_CURVE ( 'NONE', #240, #343, #16, .T. ) ;
#47 = DIRECTION ( 'NONE',  ( -1.000000000000000000, 0.000000000000000000, 0.000000000000000000 ) ) ;
#48 = ORIENTED_EDGE ( 'NONE', *, *, #168, .F. ) ;
#49 = DIRECTION ( 'NONE',  ( -1.000000000000000000, 0.000000000000000000, 0.000000000000000000 ) ) ;
#50 = EDGE_LOOP ( 'NONE', ( #53, #260, #323, #3 ) ) ;
#51 = DATE_TIME_ROLE ( 'creation_date' ) ;
#52 = DIRECTION ( 'NONE',  ( 0.000000000000000000, 0.000000000000000000, 1.000000000000000000 ) ) ;
#53 = ORIENTED_EDGE ( 'NONE', *, *, #71, .F. ) ;
#54 = ADVANCED_FACE ( 'NONE', ( #381, #358 ), #61, .F. ) ;
#55 = SHAPE_DEFINITION_REPRESENTATION ( #221, #231 ) ;
#56 = DIRECTION ( 'NONE',  ( 1.000000000000000000, 0.000000000000000000, -0.000000000000000000 ) ) ;
#57 = AXIS2_PLACEMENT_3D ( 'NONE', #235, #143, #47 ) ;
#58 = VERTEX_POINT ( 'NONE', #328 ) ;
#59 = DESIGN_CONTEXT ( 'detailed design', #30, 'design' ) ;
#60 = ORIENTED_EDGE ( 'NONE', *, *, #194, .T. ) ;
#61 = PLANE ( 'NONE',  #133 ) ;
#62 = APPLICATION_PROTOCOL_DEFINITION ( 'international standard', 'config_control_design', 1994, #30 ) ;
#63 = DIRECTION ( 'NONE',  ( 0.000000000000000000, 0.000000000000000000, 1.000000000000000000 ) ) ;
#64 = CARTESIAN_POINT ( 'NONE',  ( 0.000000000000000000, 0.000000000000000000, 3.000000000000000000 ) ) ;
#65 = APPROVAL ( #83, 'NEURÈENÝ' ) ;
#66 = DIRECTION ( 'NONE',  ( 1.000000000000000000, 0.000000000000000000, 0.000000000000000000 ) ) ;
#67 = CIRCLE ( 'NONE', #307, 0.2999999999999999334 ) ;
#68 = CARTESIAN_POINT ( 'NONE',  ( -5.000000000000000000, 0.000000000000000000, 3.000000000000000000 ) ) ;
#69 = CARTESIAN_POINT ( 'NONE',  ( -2.799999999999999822, 3.429011037612588783E-16, 3.300000000000025135 ) ) ;
#70 = CARTESIAN_POINT ( 'NONE',  ( 2.500000000000000000, 3.061616997868383141E-16, 3.300000000000025135 ) ) ;
#71 = EDGE_CURVE ( 'NONE', #354, #210, #158, .T. ) ;
#72 = LINE ( 'NONE', #132, #188 ) ;
#73 = DATE_AND_TIME ( #170, #313 ) ;
#74 = EDGE_LOOP ( 'NONE', ( #166, #154 ) ) ;
#75 = EDGE_CURVE ( 'NONE', #22, #354, #25, .T. ) ;
#76 = DIRECTION ( 'NONE',  ( 1.000000000000000000, 0.000000000000000000, 0.000000000000000000 ) ) ;
#77 = ORIENTED_EDGE ( 'NONE', *, *, #214, .T. ) ;
#78 = LOCAL_TIME ( 17, 41, 10.00000000000000000, #113 ) ;
#79 = CALENDAR_DATE ( 2022, 8, 7 ) ;
#80 = CARTESIAN_POINT ( 'NONE',  ( -2.500000000000000000, 0.000000000000000000, 3.300000000000025135 ) ) ;
#81 = ORIENTED_EDGE ( 'NONE', *, *, #141, .T. ) ;
#82 = VERTEX_POINT ( 'NONE', #297 ) ;
#83 = APPROVAL_STATUS ( 'not_yet_approved' ) ;
#84 = FACE_OUTER_BOUND ( 'NONE', #316, .T. ) ;
#85 = DIRECTION ( 'NONE',  ( -0.000000000000000000, -0.000000000000000000, -1.000000000000000000 ) ) ;
#86 = CIRCLE ( 'NONE', #156, 1.600000000000000089 ) ;
#87 = EDGE_LOOP ( 'NONE', ( #312, #81, #60, #114 ) ) ;
#88 = DIRECTION ( 'NONE',  ( 1.000000000000000000, 0.000000000000000000, 0.000000000000000000 ) ) ;
#89 = ADVANCED_FACE ( 'NONE', ( #29 ), #159, .F. ) ;
#90 = DIRECTION ( 'NONE',  ( 1.000000000000000000, 0.000000000000000000, -0.000000000000000000 ) ) ;
#91 = CIRCLE ( 'NONE', #291, 5.000000000000000000 ) ;
#92 = ORGANIZATION ( 'NEURÈENÝ', 'NEURÈENÝ', '' ) ;
#93 = CARTESIAN_POINT ( 'NONE',  ( 0.000000000000000000, 0.000000000000000000, 503.0000000000000000 ) ) ;
#94 = AXIS2_PLACEMENT_3D ( 'NONE', #107, #250, #165 ) ;
#95 = ORIENTED_EDGE ( 'NONE', *, *, #150, .F. ) ;
#96 = EDGE_CURVE ( 'NONE', #58, #240, #243, .T. ) ;
#97 = CARTESIAN_POINT ( 'NONE',  ( 0.000000000000000000, 0.000000000000000000, 3.000000000000000000 ) ) ;
#98 = DIRECTION ( 'NONE',  ( -0.000000000000000000, -0.000000000000000000, -1.000000000000000000 ) ) ;
#99 = PRODUCT ( '6b47', '6b47', '', ( #356 ) ) ;
#100 = DIRECTION ( 'NONE',  ( 0.000000000000000000, 0.000000000000000000, 1.000000000000000000 ) ) ;
#101 = EDGE_CURVE ( 'NONE', #182, #82, #227, .T. ) ;
#102 = EDGE_LOOP ( 'NONE', ( #357, #207 ) ) ;
#103 = UNCERTAINTY_MEASURE_WITH_UNIT (LENGTH_MEASURE( 1.000000000000000082E-05 ), #204, 'distance_accuracy_value', 'NONE');
#104 = CARTESIAN_POINT ( 'NONE',  ( 1.600000000000000089, 1.959434878635765230E-16, 0.000000000000000000 ) ) ;
#105 = LOCAL_TIME ( 17, 41, 10.00000000000000000, #228 ) ;
#106 = PERSON_AND_ORGANIZATION_ROLE ( 'creator' ) ;
#107 = CARTESIAN_POINT ( 'NONE',  ( 0.000000000000000000, 0.000000000000000000, 503.0000000000000000 ) ) ;
#108 = ORIENTED_EDGE ( 'NONE', *, *, #1, .F. ) ;
#109 = CC_DESIGN_PERSON_AND_ORGANIZATION_ASSIGNMENT ( #201, #229, ( #271 ) ) ;
#110 = COORDINATED_UNIVERSAL_TIME_OFFSET ( 1, 0, .AHEAD. ) ;
#111 = CARTESIAN_POINT ( 'NONE',  ( 0.000000000000000000, 0.000000000000000000, 503.0000000000000000 ) ) ;
#112 = ORIENTED_EDGE ( 'NONE', *, *, #241, .F. ) ;
#113 = COORDINATED_UNIVERSAL_TIME_OFFSET ( 1, 0, .AHEAD. ) ;
#114 = ORIENTED_EDGE ( 'NONE', *, *, #101, .F. ) ;
#115 = FACE_BOUND ( 'NONE', #140, .T. ) ;
#116 = ORIENTED_EDGE ( 'NONE', *, *, #298, .F. ) ;
#117 = PERSON_AND_ORGANIZATION_ROLE ( 'design_supplier' ) ;
#118 = EDGE_CURVE ( 'NONE', #343, #240, #335, .T. ) ;
#119 = ORIENTED_EDGE ( 'NONE', *, *, #202, .F. ) ;
#120 = CIRCLE ( 'NONE', #169, 2.799999999999999822 ) ;
#121 = FACE_OUTER_BOUND ( 'NONE', #50, .T. ) ;
#122 = ORIENTED_EDGE ( 'NONE', *, *, #20, .T. ) ;
#123 = CC_DESIGN_SECURITY_CLASSIFICATION ( #38, ( #271 ) ) ;
#124 = AXIS2_PLACEMENT_3D ( 'NONE', #370, #100, #195 ) ;
#125 = DIRECTION ( 'NONE',  ( 1.000000000000000000, 0.000000000000000000, 0.000000000000000000 ) ) ;
#126 = DIRECTION ( 'NONE',  ( 0.000000000000000000, 0.000000000000000000, 1.000000000000000000 ) ) ;
#127 = CC_DESIGN_PERSON_AND_ORGANIZATION_ASSIGNMENT ( #350, #371, ( #38 ) ) ;
#128 = PERSON_AND_ORGANIZATION ( #330, #92 ) ;
#129 = CIRCLE ( 'NONE', #217, 2.799999999999999822 ) ;
#130 = LOCAL_TIME ( 17, 41, 10.00000000000000000, #110 ) ;
#131 = DIRECTION ( 'NONE',  ( -1.000000000000000000, 0.000000000000000000, 0.000000000000000000 ) ) ;
#132 = CARTESIAN_POINT ( 'NONE',  ( 5.000000000000000000, 6.123233995736766282E-16, 3.000000000000000000 ) ) ;
#133 = AXIS2_PLACEMENT_3D ( 'NONE', #293, #215, #90 ) ;
#134 = CC_DESIGN_APPROVAL ( #65, ( #38 ) ) ;
#135 = CARTESIAN_POINT ( 'NONE',  ( 0.000000000000000000, 0.000000000000000000, 3.300000000000025135 ) ) ;
#136 = CIRCLE ( 'NONE', #212, 1.600000000000000089 ) ;
#137 = CC_DESIGN_DATE_AND_TIME_ASSIGNMENT ( #42, #51, ( #40 ) ) ;
#138 = DIRECTION ( 'NONE',  ( -0.000000000000000000, -0.000000000000000000, -1.000000000000000000 ) ) ;
#139 = DIRECTION ( 'NONE',  ( -0.000000000000000000, -0.000000000000000000, -1.000000000000000000 ) ) ;
#140 = EDGE_LOOP ( 'NONE', ( #319, #10 ) ) ;
#141 = EDGE_CURVE ( 'NONE', #237, #263, #72, .T. ) ;
#142 = CARTESIAN_POINT ( 'NONE',  ( 0.000000000000000000, 0.000000000000000000, 503.0000000000000000 ) ) ;
#143 = DIRECTION ( 'NONE',  ( -0.000000000000000000, -0.000000000000000000, -1.000000000000000000 ) ) ;
#144 = APPROVAL_STATUS ( 'not_yet_approved' ) ;
#145 = PLANE ( 'NONE',  #179 ) ;
#146 = VECTOR ( 'NONE', #359, 1000.000000000000000 ) ;
#147 = CARTESIAN_POINT ( 'NONE',  ( 0.000000000000000000, 0.000000000000000000, 3.000000000000000000 ) ) ;
#148 = ORIENTED_EDGE ( 'NONE', *, *, #4, .T. ) ;
#149 = APPROVAL_PERSON_ORGANIZATION ( #296, #189, #196 ) ;
#150 = EDGE_CURVE ( 'NONE', #343, #225, #12, .T. ) ;
#151 = AXIS2_PLACEMENT_3D ( 'NONE', #334, #138, #365 ) ;
#152 = FACE_OUTER_BOUND ( 'NONE', #289, .T. ) ;
#153 = CARTESIAN_POINT ( 'NONE',  ( 0.000000000000000000, 0.000000000000000000, 0.000000000000000000 ) ) ;
#154 = ORIENTED_EDGE ( 'NONE', *, *, #194, .F. ) ;
#155 = MANIFOLD_SOLID_BREP ( 'Odebrat vysunutím3', #327 ) ;
#156 = AXIS2_PLACEMENT_3D ( 'NONE', #9, #368, #220 ) ;
#157 = ORIENTED_EDGE ( 'NONE', *, *, #150, .T. ) ;
#158 = LINE ( 'NONE', #268, #146 ) ;
#159 = CYLINDRICAL_SURFACE ( 'NONE', #176, 1.600000000000000089 ) ;
#160 = EDGE_LOOP ( 'NONE', ( #174, #48 ) ) ;
#161 = AXIS2_PLACEMENT_3D ( 'NONE', #244, #273, #197 ) ;
#162 = CARTESIAN_POINT ( 'NONE',  ( -5.000000000000000000, 0.000000000000000000, 3.000000000000000000 ) ) ;
#163 = DIRECTION ( 'NONE',  ( 0.000000000000000000, -1.000000000000000000, 0.000000000000000000 ) ) ;
#164 = AXIS2_PLACEMENT_3D ( 'NONE', #93, #63, #185 ) ;
#165 = DIRECTION ( 'NONE',  ( 1.000000000000000000, 0.000000000000000000, 0.000000000000000000 ) ) ;
#166 = ORIENTED_EDGE ( 'NONE', *, *, #214, .F. ) ;
#167 = DIRECTION ( 'NONE',  ( 1.000000000000000000, 0.000000000000000000, 0.000000000000000000 ) ) ;
#168 = EDGE_CURVE ( 'NONE', #210, #37, #86, .T. ) ;
#169 = AXIS2_PLACEMENT_3D ( 'NONE', #97, #218, #216 ) ;
#170 = CALENDAR_DATE ( 2022, 8, 7 ) ;
#171 = FACE_OUTER_BOUND ( 'NONE', #374, .T. ) ;
#172 = TOROIDAL_SURFACE ( 'NONE', #242, 2.799999999999999822, 0.2999999999999999889 ) ;
#173 = FACE_OUTER_BOUND ( 'NONE', #198, .T. ) ;
#174 = ORIENTED_EDGE ( 'NONE', *, *, #277, .F. ) ;
#175 = DATE_AND_TIME ( #79, #130 ) ;
#176 = AXIS2_PLACEMENT_3D ( 'NONE', #270, #2, #131 ) ;
#177 = AXIS2_PLACEMENT_3D ( 'NONE', #379, #31, #125 ) ;
#178 = DATE_AND_TIME ( #45, #105 ) ;
#179 = AXIS2_PLACEMENT_3D ( 'NONE', #203, #206, #56 ) ;
#180 = CYLINDRICAL_SURFACE ( 'NONE', #355, 2.500000000000000000 ) ;
#181 = VERTEX_POINT ( 'NONE', #333 ) ;
#182 = VERTEX_POINT ( 'NONE', #68 ) ;
#183 = CARTESIAN_POINT ( 'NONE',  ( 0.000000000000000000, 0.000000000000000000, 3.300000000000025135 ) ) ;
#184 = CARTESIAN_POINT ( 'NONE',  ( 0.000000000000000000, 0.000000000000000000, 3.000000000000000000 ) ) ;
#185 = DIRECTION ( 'NONE',  ( 1.000000000000000000, 0.000000000000000000, 0.000000000000000000 ) ) ;
#186 = EDGE_CURVE ( 'NONE', #354, #22, #275, .T. ) ;
#187 = DIRECTION ( 'NONE',  ( 1.000000000000000000, 0.000000000000000000, 0.000000000000000000 ) ) ;
#188 = VECTOR ( 'NONE', #98, 1000.000000000000000 ) ;
#189 = APPROVAL ( #285, 'NEURÈENÝ' ) ;
#190 = CARTESIAN_POINT ( 'NONE',  ( 0.000000000000000000, 0.000000000000000000, 0.000000000000000000 ) ) ;
#191 = ORIENTED_EDGE ( 'NONE', *, *, #202, .T. ) ;
#192 = CARTESIAN_POINT ( 'NONE',  ( 0.000000000000000000, 0.000000000000000000, 503.0000000000000000 ) ) ;
#193 = AXIS2_PLACEMENT_3D ( 'NONE', #147, #311, #318 ) ;
#194 = EDGE_CURVE ( 'NONE', #263, #82, #200, .T. ) ;
#195 = DIRECTION ( 'NONE',  ( 1.000000000000000000, 0.000000000000000000, 0.000000000000000000 ) ) ;
#196 = APPROVAL_ROLE ( '' ) ;
#197 = DIRECTION ( 'NONE',  ( 1.000000000000000000, 0.000000000000000000, 0.000000000000000000 ) ) ;
#198 = EDGE_LOOP ( 'NONE', ( #6, #122 ) ) ;
#199 = ORIENTED_EDGE ( 'NONE', *, *, #118, .T. ) ;
#200 = CIRCLE ( 'NONE', #209, 5.000000000000000000 ) ;
#201 = PERSON_AND_ORGANIZATION ( #330, #92 ) ;
#202 = EDGE_CURVE ( 'NONE', #240, #181, #67, .T. ) ;
#203 = CARTESIAN_POINT ( 'NONE',  ( 0.000000000000000000, 0.000000000000000000, 503.0000000000000000 ) ) ;
#204 =( LENGTH_UNIT ( ) NAMED_UNIT ( * ) SI_UNIT ( .MILLI., .METRE. ) );
#205 = APPROVAL_ROLE ( '' ) ;
#206 = DIRECTION ( 'NONE',  ( 0.000000000000000000, 0.000000000000000000, 1.000000000000000000 ) ) ;
#207 = ORIENTED_EDGE ( 'NONE', *, *, #249, .T. ) ;
#208 = ADVANCED_FACE ( 'NONE', ( #7 ), #33, .F. ) ;
#209 = AXIS2_PLACEMENT_3D ( 'NONE', #190, #341, #35 ) ;
#210 = VERTEX_POINT ( 'NONE', #104 ) ;
#211 = DIRECTION ( 'NONE',  ( -0.000000000000000000, -0.000000000000000000, -1.000000000000000000 ) ) ;
#212 = AXIS2_PLACEMENT_3D ( 'NONE', #153, #322, #262 ) ;
#213 = PERSON_AND_ORGANIZATION_ROLE ( 'design_owner' ) ;
#214 = EDGE_CURVE ( 'NONE', #82, #263, #346, .T. ) ;
#215 = DIRECTION ( 'NONE',  ( 0.000000000000000000, 0.000000000000000000, 1.000000000000000000 ) ) ;
#216 = DIRECTION ( 'NONE',  ( 1.000000000000000000, 0.000000000000000000, 0.000000000000000000 ) ) ;
#217 = AXIS2_PLACEMENT_3D ( 'NONE', #64, #211, #187 ) ;
#218 = DIRECTION ( 'NONE',  ( -0.000000000000000000, -0.000000000000000000, -1.000000000000000000 ) ) ;
#219 = AXIS2_PLACEMENT_3D ( 'NONE', #353, #85, #49 ) ;
#220 = DIRECTION ( 'NONE',  ( 1.000000000000000000, 0.000000000000000000, 0.000000000000000000 ) ) ;
#221 = PRODUCT_DEFINITION_SHAPE ( 'NONE', 'NONE',  #40 ) ;
#222 = CARTESIAN_POINT ( 'NONE',  ( -2.500000000000000000, 0.000000000000000000, 503.0000000000000000 ) ) ;
#223 = CARTESIAN_POINT ( 'NONE',  ( 2.799999999999999822, 0.000000000000000000, 3.300000000000025135 ) ) ;
#224 = CC_DESIGN_PERSON_AND_ORGANIZATION_ASSIGNMENT ( #375, #106, ( #40 ) ) ;
#225 = VERTEX_POINT ( 'NONE', #248 ) ;
#226 = COORDINATED_UNIVERSAL_TIME_OFFSET ( 1, 0, .AHEAD. ) ;
#227 = LINE ( 'NONE', #162, #303 ) ;
#228 = COORDINATED_UNIVERSAL_TIME_OFFSET ( 1, 0, .AHEAD. ) ;
#229 = PERSON_AND_ORGANIZATION_ROLE ( 'creator' ) ;
#230 = LINE ( 'NONE', #286, #18 ) ;
#231 = ADVANCED_BREP_SHAPE_REPRESENTATION ( '6b47', ( #155, #177 ), #300 ) ;
#232 = CARTESIAN_POINT ( 'NONE',  ( 0.000000000000000000, 0.000000000000000000, 503.0000000000000000 ) ) ;
#233 = VERTEX_POINT ( 'NONE', #222 ) ;
#234 = SECURITY_CLASSIFICATION_LEVEL ( 'unclassified' ) ;
#235 = CARTESIAN_POINT ( 'NONE',  ( 0.000000000000000000, 0.000000000000000000, 503.0000000000000000 ) ) ;
#236 = ADVANCED_FACE ( 'NONE', ( #338 ), #309, .T. ) ;
#237 = VERTEX_POINT ( 'NONE', #336 ) ;
#238 = CARTESIAN_POINT ( 'NONE',  ( 1.600000000000000089, 1.959434878635765230E-16, 503.0000000000000000 ) ) ;
#239 = ORIENTED_EDGE ( 'NONE', *, *, #71, .T. ) ;
#240 = VERTEX_POINT ( 'NONE', #70 ) ;
#241 = EDGE_CURVE ( 'NONE', #233, #58, #246, .T. ) ;
#242 = AXIS2_PLACEMENT_3D ( 'NONE', #345, #52, #76 ) ;
#243 = LINE ( 'NONE', #304, #269 ) ;
#244 = CARTESIAN_POINT ( 'NONE',  ( 0.000000000000000000, 0.000000000000000000, 3.300000000000025135 ) ) ;
#245 = APPROVAL_PERSON_ORGANIZATION ( #254, #65, #205 ) ;
#246 = CIRCLE ( 'NONE', #294, 2.500000000000000000 ) ;
#247 = DIRECTION ( 'NONE',  ( 1.000000000000000000, 0.000000000000000000, 0.000000000000000000 ) ) ;
#248 = CARTESIAN_POINT ( 'NONE',  ( -2.799999999999999822, 3.429011037612589276E-16, 3.000000000000012434 ) ) ;
#249 = EDGE_CURVE ( 'NONE', #58, #233, #282, .T. ) ;
#250 = DIRECTION ( 'NONE',  ( 0.000000000000000000, 0.000000000000000000, 1.000000000000000000 ) ) ;
#251 = ORIENTED_EDGE ( 'NONE', *, *, #28, .F. ) ;
#252 = CC_DESIGN_APPROVAL ( #363, ( #271 ) ) ;
#253 = AXIS2_PLACEMENT_3D ( 'NONE', #135, #276, #247 ) ;
#254 = PERSON_AND_ORGANIZATION ( #330, #92 ) ;
#255 = ORIENTED_EDGE ( 'NONE', *, *, #96, .F. ) ;
#256 = ADVANCED_FACE ( 'NONE', ( #171 ), #21, .T. ) ;
#257 = FACE_BOUND ( 'NONE', #265, .T. ) ;
#258 = ORIENTED_EDGE ( 'NONE', *, *, #28, .T. ) ;
#259 = LINE ( 'NONE', #44, #332 ) ;
#260 = ORIENTED_EDGE ( 'NONE', *, *, #186, .T. ) ;
#261 = APPROVAL_DATE_TIME ( #175, #189 ) ;
#262 = DIRECTION ( 'NONE',  ( 1.000000000000000000, 0.000000000000000000, 0.000000000000000000 ) ) ;
#263 = VERTEX_POINT ( 'NONE', #376 ) ;
#264 = FACE_OUTER_BOUND ( 'NONE', #102, .T. ) ;
#265 = EDGE_LOOP ( 'NONE', ( #148, #258 ) ) ;
#266 = DIRECTION ( 'NONE',  ( 0.000000000000000000, 0.000000000000000000, 1.000000000000000000 ) ) ;
#267 = EDGE_CURVE ( 'NONE', #22, #37, #230, .T. ) ;
#268 = CARTESIAN_POINT ( 'NONE',  ( 1.600000000000000089, 1.959434878635765230E-16, 503.0000000000000000 ) ) ;
#269 = VECTOR ( 'NONE', #34, 1000.000000000000000 ) ;
#270 = CARTESIAN_POINT ( 'NONE',  ( 0.000000000000000000, 0.000000000000000000, 503.0000000000000000 ) ) ;
#271 = PRODUCT_DEFINITION_FORMATION_WITH_SPECIFIED_SOURCE ( 'LIBOVOLNÝ', '', #99, .NOT_KNOWN. ) ;
#272 = CC_DESIGN_DATE_AND_TIME_ASSIGNMENT ( #178, #317, ( #38 ) ) ;
#273 = DIRECTION ( 'NONE',  ( 0.000000000000000000, 0.000000000000000000, 1.000000000000000000 ) ) ;
#274 = DIRECTION ( 'NONE',  ( 0.000000000000000000, 0.000000000000000000, -1.000000000000000000 ) ) ;
#275 = CIRCLE ( 'NONE', #94, 1.600000000000000089 ) ;
#276 = DIRECTION ( 'NONE',  ( 0.000000000000000000, 0.000000000000000000, 1.000000000000000000 ) ) ;
#277 = EDGE_CURVE ( 'NONE', #37, #210, #136, .T. ) ;
#278 = DIRECTION ( 'NONE',  ( 0.000000000000000000, 0.000000000000000000, 1.000000000000000000 ) ) ;
#279 = EDGE_LOOP ( 'NONE', ( #329, #108, #352, #77 ) ) ;
#280 = CALENDAR_DATE ( 2022, 8, 7 ) ;
#281 = DIRECTION ( 'NONE',  ( -0.000000000000000000, -0.000000000000000000, -1.000000000000000000 ) ) ;
#282 = CIRCLE ( 'NONE', #301, 2.500000000000000000 ) ;
#283 = PLANE ( 'NONE',  #193 ) ;
#284 = ORIENTED_EDGE ( 'NONE', *, *, #298, .T. ) ;
#285 = APPROVAL_STATUS ( 'not_yet_approved' ) ;
#286 = CARTESIAN_POINT ( 'NONE',  ( -1.600000000000000089, 0.000000000000000000, 503.0000000000000000 ) ) ;
#287 = AXIS2_PLACEMENT_3D ( 'NONE', #232, #351, #15 ) ;
#288 = ADVANCED_FACE ( 'NONE', ( #257, #173 ), #283, .T. ) ;
#289 = EDGE_LOOP ( 'NONE', ( #314, #157, #24, #119 ) ) ;
#290 = ORIENTED_EDGE ( 'NONE', *, *, #168, .T. ) ;
#291 = AXIS2_PLACEMENT_3D ( 'NONE', #331, #295, #66 ) ;
#292 = PRODUCT_RELATED_PRODUCT_CATEGORY ( 'detail', '', ( #99 ) ) ;
#293 = CARTESIAN_POINT ( 'NONE',  ( 0.000000000000000000, 0.000000000000000000, 0.000000000000000000 ) ) ;
#294 = AXIS2_PLACEMENT_3D ( 'NONE', #192, #308, #39 ) ;
#295 = DIRECTION ( 'NONE',  ( 0.000000000000000000, 0.000000000000000000, 1.000000000000000000 ) ) ;
#296 = PERSON_AND_ORGANIZATION ( #330, #92 ) ;
#297 = CARTESIAN_POINT ( 'NONE',  ( -5.000000000000000000, 0.000000000000000000, 0.000000000000000000 ) ) ;
#298 = EDGE_CURVE ( 'NONE', #233, #343, #259, .T. ) ;
#299 = CARTESIAN_POINT ( 'NONE',  ( -1.600000000000000089, 0.000000000000000000, 503.0000000000000000 ) ) ;
#300 =( GEOMETRIC_REPRESENTATION_CONTEXT ( 3 ) GLOBAL_UNCERTAINTY_ASSIGNED_CONTEXT ( ( #103 ) ) GLOBAL_UNIT_ASSIGNED_CONTEXT ( ( #204, #23, #27 ) ) REPRESENTATION_CONTEXT ( 'NONE', 'WORKASPACE' ) );
#301 = AXIS2_PLACEMENT_3D ( 'NONE', #142, #278, #167 ) ;
#302 = CARTESIAN_POINT ( 'NONE',  ( -1.600000000000000089, 0.000000000000000000, 0.000000000000000000 ) ) ;
#303 = VECTOR ( 'NONE', #139, 1000.000000000000000 ) ;
#304 = CARTESIAN_POINT ( 'NONE',  ( 2.500000000000000000, 3.061616997868383141E-16, 503.0000000000000000 ) ) ;
#305 = CC_DESIGN_PERSON_AND_ORGANIZATION_ASSIGNMENT ( #128, #213, ( #99 ) ) ;
#306 = ORIENTED_EDGE ( 'NONE', *, *, #249, .F. ) ;
#307 = AXIS2_PLACEMENT_3D ( 'NONE', #223, #163, #274 ) ;
#308 = DIRECTION ( 'NONE',  ( 0.000000000000000000, 0.000000000000000000, 1.000000000000000000 ) ) ;
#309 = CYLINDRICAL_SURFACE ( 'NONE', #151, 5.000000000000000000 ) ;
#310 = DATE_AND_TIME ( #280, #78 ) ;
#311 = DIRECTION ( 'NONE',  ( 0.000000000000000000, 0.000000000000000000, 1.000000000000000000 ) ) ;
#312 = ORIENTED_EDGE ( 'NONE', *, *, #20, .F. ) ;
#313 = LOCAL_TIME ( 17, 41, 10.00000000000000000, #321 ) ;
#314 = ORIENTED_EDGE ( 'NONE', *, *, #118, .F. ) ;
#315 = CYLINDRICAL_SURFACE ( 'NONE', #219, 5.000000000000000000 ) ;
#316 = EDGE_LOOP ( 'NONE', ( #255, #112, #284, #199 ) ) ;
#317 = DATE_TIME_ROLE ( 'classification_date' ) ;
#318 = DIRECTION ( 'NONE',  ( 1.000000000000000000, 0.000000000000000000, -0.000000000000000000 ) ) ;
#319 = ORIENTED_EDGE ( 'NONE', *, *, #75, .F. ) ;
#320 = ADVANCED_FACE ( 'NONE', ( #152 ), #172, .F. ) ;
#321 = COORDINATED_UNIVERSAL_TIME_OFFSET ( 1, 0, .AHEAD. ) ;
#322 = DIRECTION ( 'NONE',  ( -0.000000000000000000, -0.000000000000000000, -1.000000000000000000 ) ) ;
#323 = ORIENTED_EDGE ( 'NONE', *, *, #267, .T. ) ;
#324 = APPLICATION_PROTOCOL_DEFINITION ( 'international standard', 'config_control_design', 1994, #8 ) ;
#325 = ADVANCED_FACE ( 'NONE', ( #121 ), #372, .F. ) ;
#326 = DIRECTION ( 'NONE',  ( 1.000000000000000000, 0.000000000000000000, 0.000000000000000000 ) ) ;
#327 = CLOSED_SHELL ( 'NONE', ( #89, #320, #256, #236, #367, #288, #54, #339, #347, #208, #325 ) ) ;
#328 = CARTESIAN_POINT ( 'NONE',  ( 2.500000000000000000, 3.061616997868383141E-16, 503.0000000000000000 ) ) ;
#329 = ORIENTED_EDGE ( 'NONE', *, *, #141, .F. ) ;
#330 = PERSON ( 'NEURÈENÝ', 'NEURÈENÝ', 'NEURÈENÝ', ('NEURÈENÝ'), ('NEURÈENÝ'), ('NEURÈENÝ') ) ;
#331 = CARTESIAN_POINT ( 'NONE',  ( 0.000000000000000000, 0.000000000000000000, 3.000000000000000000 ) ) ;
#332 = VECTOR ( 'NONE', #281, 1000.000000000000000 ) ;
#333 = CARTESIAN_POINT ( 'NONE',  ( 2.799999999999999822, 0.000000000000000000, 3.000000000000012434 ) ) ;
#334 = CARTESIAN_POINT ( 'NONE',  ( 0.000000000000000000, 0.000000000000000000, 3.000000000000000000 ) ) ;
#335 = CIRCLE ( 'NONE', #161, 2.500000000000000000 ) ;
#336 = CARTESIAN_POINT ( 'NONE',  ( 5.000000000000000000, 6.123233995736766282E-16, 3.000000000000000000 ) ) ;
#337 = CC_DESIGN_APPROVAL ( #189, ( #40 ) ) ;
#338 = FACE_OUTER_BOUND ( 'NONE', #87, .T. ) ;
#339 = ADVANCED_FACE ( 'NONE', ( #84 ), #180, .T. ) ;
#340 = PERSON_AND_ORGANIZATION ( #330, #92 ) ;
#341 = DIRECTION ( 'NONE',  ( 0.000000000000000000, 0.000000000000000000, 1.000000000000000000 ) ) ;
#342 = DIRECTION ( 'NONE',  ( 0.000000000000000000, 0.000000000000000000, -1.000000000000000000 ) ) ;
#343 = VERTEX_POINT ( 'NONE', #80 ) ;
#344 = APPROVAL_DATE_TIME ( #310, #363 ) ;
#345 = CARTESIAN_POINT ( 'NONE',  ( 0.000000000000000000, 0.000000000000000000, 3.300000000000025135 ) ) ;
#346 = CIRCLE ( 'NONE', #124, 5.000000000000000000 ) ;
#347 = ADVANCED_FACE ( 'NONE', ( #115, #264 ), #145, .T. ) ;
#348 = FACE_OUTER_BOUND ( 'NONE', #279, .T. ) ;
#349 = ORIENTED_EDGE ( 'NONE', *, *, #46, .T. ) ;
#350 = PERSON_AND_ORGANIZATION ( #330, #92 ) ;
#351 = DIRECTION ( 'NONE',  ( 0.000000000000000000, 0.000000000000000000, -1.000000000000000000 ) ) ;
#352 = ORIENTED_EDGE ( 'NONE', *, *, #101, .T. ) ;
#353 = CARTESIAN_POINT ( 'NONE',  ( 0.000000000000000000, 0.000000000000000000, 3.000000000000000000 ) ) ;
#354 = VERTEX_POINT ( 'NONE', #238 ) ;
#355 = AXIS2_PLACEMENT_3D ( 'NONE', #111, #377, #14 ) ;
#356 = MECHANICAL_CONTEXT ( 'NONE', #8, 'mechanical' ) ;
#357 = ORIENTED_EDGE ( 'NONE', *, *, #241, .T. ) ;
#358 = FACE_OUTER_BOUND ( 'NONE', #74, .T. ) ;
#359 = DIRECTION ( 'NONE',  ( 0.000000000000000000, 0.000000000000000000, -1.000000000000000000 ) ) ;
#360 = CC_DESIGN_PERSON_AND_ORGANIZATION_ASSIGNMENT ( #340, #117, ( #271 ) ) ;
#361 = ORIENTED_EDGE ( 'NONE', *, *, #46, .F. ) ;
#362 = DIRECTION ( 'NONE',  ( 1.224646799147353207E-16, 1.000000000000000000, -0.000000000000000000 ) ) ;
#363 = APPROVAL ( #144, 'NEURÈENÝ' ) ;
#364 = AXIS2_PLACEMENT_3D ( 'NONE', #69, #362, #36 ) ;
#365 = DIRECTION ( 'NONE',  ( -1.000000000000000000, 0.000000000000000000, 0.000000000000000000 ) ) ;
#366 = CIRCLE ( 'NONE', #378, 5.000000000000000000 ) ;
#367 = ADVANCED_FACE ( 'NONE', ( #348 ), #315, .T. ) ;
#368 = DIRECTION ( 'NONE',  ( -0.000000000000000000, -0.000000000000000000, -1.000000000000000000 ) ) ;
#369 = PERSON_AND_ORGANIZATION ( #330, #92 ) ;
#370 = CARTESIAN_POINT ( 'NONE',  ( 0.000000000000000000, 0.000000000000000000, 0.000000000000000000 ) ) ;
#371 = PERSON_AND_ORGANIZATION_ROLE ( 'classification_officer' ) ;
#372 = CYLINDRICAL_SURFACE ( 'NONE', #287, 1.600000000000000089 ) ;
#373 = CALENDAR_DATE ( 2022, 8, 7 ) ;
#374 = EDGE_LOOP ( 'NONE', ( #306, #41, #349, #116 ) ) ;
#375 = PERSON_AND_ORGANIZATION ( #330, #92 ) ;
#376 = CARTESIAN_POINT ( 'NONE',  ( 5.000000000000000000, 6.123233995736766282E-16, 0.000000000000000000 ) ) ;
#377 = DIRECTION ( 'NONE',  ( -0.000000000000000000, -0.000000000000000000, -1.000000000000000000 ) ) ;
#378 = AXIS2_PLACEMENT_3D ( 'NONE', #184, #266, #326 ) ;
#379 = CARTESIAN_POINT ( 'NONE',  ( 0.000000000000000000, 0.000000000000000000, 0.000000000000000000 ) ) ;
#380 = EDGE_LOOP ( 'NONE', ( #32, #239, #290, #19 ) ) ;
#381 = FACE_BOUND ( 'NONE', #160, .T. ) ;
ENDSEC;
END-ISO-10303-21;
