ISO-10303-21;
HEADER;
FILE_DESCRIPTION (( 'STEP AP203' ),
    '1' );
FILE_NAME ('57c8.STEP',
    '2022-07-08T14:49:49',
    ( '' ),
    ( '' ),
    'SwSTEP 2.0',
    'SolidWorks 2019',
    '' );
FILE_SCHEMA (( 'CONFIG_CONTROL_DESIGN' ));
ENDSEC;

DATA;
#1 = DIRECTION ( 'NONE',  ( 1.000000000000000000, 0.000000000000000000, 0.000000000000000000 ) ) ;
#2 = EDGE_CURVE ( 'NONE', #301, #210, #130, .T. ) ;
#3 = EDGE_LOOP ( 'NONE', ( #171, #15, #142, #349 ) ) ;
#4 = AXIS2_PLACEMENT_3D ( 'NONE', #58, #177, #29 ) ;
#5 = CYLINDRICAL_SURFACE ( 'NONE', #55, 3.100000000000000089 ) ;
#6 = VECTOR ( 'NONE', #38, 1000.000000000000000 ) ;
#7 = FACE_OUTER_BOUND ( 'NONE', #49, .T. ) ;
#8 = DIRECTION ( 'NONE',  ( 0.000000000000000000, 0.000000000000000000, 1.000000000000000000 ) ) ;
#9 = ORIENTED_EDGE ( 'NONE', *, *, #127, .F. ) ;
#10 = ORIENTED_EDGE ( 'NONE', *, *, #245, .F. ) ;
#11 = CIRCLE ( 'NONE', #90, 3.100000000000000089 ) ;
#12 = DIRECTION ( 'NONE',  ( 0.000000000000000000, 0.000000000000000000, 1.000000000000000000 ) ) ;
#13 = CARTESIAN_POINT ( 'NONE',  ( 0.000000000000000000, 0.000000000000000000, 5.000000000000000000 ) ) ;
#14 = ADVANCED_FACE ( 'NONE', ( #327, #202 ), #56, .F. ) ;
#15 = ORIENTED_EDGE ( 'NONE', *, *, #51, .F. ) ;
#16 = APPROVAL ( #100, 'NEURÈENÝ' ) ;
#17 = ORIENTED_EDGE ( 'NONE', *, *, #2, .F. ) ;
#18 = DATE_TIME_ROLE ( 'classification_date' ) ;
#19 = DIRECTION ( 'NONE',  ( -0.000000000000000000, -0.000000000000000000, -1.000000000000000000 ) ) ;
#20 = ORIENTED_EDGE ( 'NONE', *, *, #25, .F. ) ;
#21 = LOCAL_TIME ( 16, 49, 49.00000000000000000, #167 ) ;
#22 =( NAMED_UNIT ( * ) SI_UNIT ( $, .STERADIAN. ) SOLID_ANGLE_UNIT ( ) );
#23 = ORIENTED_EDGE ( 'NONE', *, *, #120, .F. ) ;
#24 = APPROVAL_PERSON_ORGANIZATION ( #313, #215, #63 ) ;
#25 = EDGE_CURVE ( 'NONE', #248, #301, #277, .T. ) ;
#26 = DIRECTION ( 'NONE',  ( 1.000000000000000000, 0.000000000000000000, 0.000000000000000000 ) ) ;
#27 = DIRECTION ( 'NONE',  ( 1.000000000000000000, 0.000000000000000000, -0.000000000000000000 ) ) ;
#28 = DIRECTION ( 'NONE',  ( -0.000000000000000000, -0.000000000000000000, -1.000000000000000000 ) ) ;
#29 = DIRECTION ( 'NONE',  ( 1.000000000000000000, 0.000000000000000000, 0.000000000000000000 ) ) ;
#30 = CIRCLE ( 'NONE', #252, 8.000000000000000000 ) ;
#31 = ADVANCED_FACE ( 'NONE', ( #50 ), #296, .F. ) ;
#32 = CARTESIAN_POINT ( 'NONE',  ( 8.000000000000000000, 9.797174393178825657E-16, 5.000000000000000000 ) ) ;
#33 = EDGE_LOOP ( 'NONE', ( #352, #309 ) ) ;
#34 = FACE_OUTER_BOUND ( 'NONE', #290, .T. ) ;
#35 = EDGE_CURVE ( 'NONE', #279, #374, #200, .T. ) ;
#36 = AXIS2_PLACEMENT_3D ( 'NONE', #318, #40, #310 ) ;
#37 = CALENDAR_DATE ( 2022, 8, 7 ) ;
#38 = DIRECTION ( 'NONE',  ( -0.000000000000000000, -0.000000000000000000, -1.000000000000000000 ) ) ;
#39 = CC_DESIGN_DATE_AND_TIME_ASSIGNMENT ( #316, #18, ( #329 ) ) ;
#40 = DIRECTION ( 'NONE',  ( -0.000000000000000000, -0.000000000000000000, -1.000000000000000000 ) ) ;
#41 = EDGE_LOOP ( 'NONE', ( #10, #227, #351, #161 ) ) ;
#42 = CIRCLE ( 'NONE', #368, 5.000000000000000000 ) ;
#43 = DIRECTION ( 'NONE',  ( 1.000000000000000000, 0.000000000000000000, 0.000000000000000000 ) ) ;
#44 = VERTEX_POINT ( 'NONE', #174 ) ;
#45 = ORIENTED_EDGE ( 'NONE', *, *, #91, .T. ) ;
#46 = PERSON_AND_ORGANIZATION ( #342, #147 ) ;
#47 = DIRECTION ( 'NONE',  ( 1.000000000000000000, 0.000000000000000000, -0.000000000000000000 ) ) ;
#48 = ORIENTED_EDGE ( 'NONE', *, *, #264, .F. ) ;
#49 = EDGE_LOOP ( 'NONE', ( #169, #156, #45, #115 ) ) ;
#50 = FACE_OUTER_BOUND ( 'NONE', #286, .T. ) ;
#51 = EDGE_CURVE ( 'NONE', #44, #341, #30, .T. ) ;
#52 = APPLICATION_PROTOCOL_DEFINITION ( 'international standard', 'config_control_design', 1994, #356 ) ;
#53 = PERSON_AND_ORGANIZATION ( #342, #147 ) ;
#54 = CARTESIAN_POINT ( 'NONE',  ( 0.000000000000000000, 0.000000000000000000, 5.000000000000000000 ) ) ;
#55 = AXIS2_PLACEMENT_3D ( 'NONE', #241, #69, #168 ) ;
#56 = PLANE ( 'NONE',  #138 ) ;
#57 = DIRECTION ( 'NONE',  ( 1.000000000000000000, 0.000000000000000000, 0.000000000000000000 ) ) ;
#58 = CARTESIAN_POINT ( 'NONE',  ( 0.000000000000000000, 0.000000000000000000, 280.0000000000000000 ) ) ;
#59 = PLANE ( 'NONE',  #75 ) ;
#60 = EDGE_CURVE ( 'NONE', #74, #206, #175, .T. ) ;
#61 = LINE ( 'NONE', #274, #287 ) ;
#62 = CARTESIAN_POINT ( 'NONE',  ( 0.000000000000000000, 0.000000000000000000, 5.500000000000005329 ) ) ;
#63 = APPROVAL_ROLE ( '' ) ;
#64 = VECTOR ( 'NONE', #208, 1000.000000000000000 ) ;
#65 = PERSON_AND_ORGANIZATION ( #342, #147 ) ;
#66 = LINE ( 'NONE', #253, #203 ) ;
#67 = EDGE_LOOP ( 'NONE', ( #269, #315, #320, #256 ) ) ;
#68 = DATE_AND_TIME ( #345, #21 ) ;
#69 = DIRECTION ( 'NONE',  ( 0.000000000000000000, 0.000000000000000000, -1.000000000000000000 ) ) ;
#70 = ORIENTED_EDGE ( 'NONE', *, *, #325, .T. ) ;
#71 = EDGE_CURVE ( 'NONE', #210, #230, #353, .T. ) ;
#72 = CC_DESIGN_APPROVAL ( #215, ( #329 ) ) ;
#73 = DIRECTION ( 'NONE',  ( -1.000000000000000000, 0.000000000000000000, 0.000000000000000000 ) ) ;
#74 = VERTEX_POINT ( 'NONE', #82 ) ;
#75 = AXIS2_PLACEMENT_3D ( 'NONE', #181, #302, #152 ) ;
#76 = LINE ( 'NONE', #350, #6 ) ;
#77 = PRODUCT_DEFINITION ( 'NEZNÁMÝ', '', #284, #278 ) ;
#78 = CARTESIAN_POINT ( 'NONE',  ( -5.000000000000000000, 0.000000000000000000, 5.500000000000005329 ) ) ;
#79 = EDGE_LOOP ( 'NONE', ( #242, #70 ) ) ;
#80 = EDGE_LOOP ( 'NONE', ( #9, #106 ) ) ;
#81 = CC_DESIGN_APPROVAL ( #295, ( #77 ) ) ;
#82 = CARTESIAN_POINT ( 'NONE',  ( 8.000000000000000000, 9.797174393178825657E-16, 0.000000000000000000 ) ) ;
#83 = APPLICATION_PROTOCOL_DEFINITION ( 'international standard', 'config_control_design', 1994, #249 ) ;
#84 = DIRECTION ( 'NONE',  ( 0.000000000000000000, 0.000000000000000000, -1.000000000000000000 ) ) ;
#85 = CARTESIAN_POINT ( 'NONE',  ( 0.000000000000000000, 0.000000000000000000, 5.500000000000005329 ) ) ;
#86 = DIRECTION ( 'NONE',  ( 0.000000000000000000, 0.000000000000000000, 1.000000000000000000 ) ) ;
#87 = CARTESIAN_POINT ( 'NONE',  ( -5.000000000000000000, 0.000000000000000000, 280.0000000000000000 ) ) ;
#88 = CARTESIAN_POINT ( 'NONE',  ( 0.000000000000000000, 0.000000000000000000, 0.000000000000000000 ) ) ;
#89 = ORIENTED_EDGE ( 'NONE', *, *, #212, .T. ) ;
#90 = AXIS2_PLACEMENT_3D ( 'NONE', #348, #19, #229 ) ;
#91 = EDGE_CURVE ( 'NONE', #301, #248, #288, .T. ) ;
#92 = ADVANCED_FACE ( 'NONE', ( #381, #335 ), #59, .T. ) ;
#93 = EDGE_CURVE ( 'NONE', #206, #74, #272, .T. ) ;
#94 = DIRECTION ( 'NONE',  ( -1.000000000000000000, 0.000000000000000000, 0.000000000000000000 ) ) ;
#95 = PERSON_AND_ORGANIZATION_ROLE ( 'classification_officer' ) ;
#96 = CYLINDRICAL_SURFACE ( 'NONE', #234, 5.000000000000000000 ) ;
#97 = LOCAL_TIME ( 16, 49, 49.00000000000000000, #343 ) ;
#98 = FACE_OUTER_BOUND ( 'NONE', #41, .T. ) ;
#99 = ORIENTED_EDGE ( 'NONE', *, *, #102, .F. ) ;
#100 = APPROVAL_STATUS ( 'not_yet_approved' ) ;
#101 = FACE_OUTER_BOUND ( 'NONE', #67, .T. ) ;
#102 = EDGE_CURVE ( 'NONE', #230, #210, #157, .T. ) ;
#103 = EDGE_LOOP ( 'NONE', ( #347, #289 ) ) ;
#104 = COORDINATED_UNIVERSAL_TIME_OFFSET ( 1, 0, .AHEAD. ) ;
#105 = DIRECTION ( 'NONE',  ( 1.000000000000000000, 0.000000000000000000, 0.000000000000000000 ) ) ;
#106 = ORIENTED_EDGE ( 'NONE', *, *, #212, .F. ) ;
#107 = APPROVAL_DATE_TIME ( #139, #16 ) ;
#108 = AXIS2_PLACEMENT_3D ( 'NONE', #344, #221, #73 ) ;
#109 = ORIENTED_EDGE ( 'NONE', *, *, #120, .T. ) ;
#110 = ADVANCED_FACE ( 'NONE', ( #34 ), #153, .F. ) ;
#111 = CARTESIAN_POINT ( 'NONE',  ( -5.000000000000000000, 0.000000000000000000, 280.0000000000000000 ) ) ;
#112 = EDGE_LOOP ( 'NONE', ( #303, #259, #283, #99 ) ) ;
#113 = CC_DESIGN_PERSON_AND_ORGANIZATION_ASSIGNMENT ( #225, #95, ( #329 ) ) ;
#114 = MECHANICAL_CONTEXT ( 'NONE', #356, 'mechanical' ) ;
#115 = ORIENTED_EDGE ( 'NONE', *, *, #126, .F. ) ;
#116 = DIRECTION ( 'NONE',  ( 0.000000000000000000, 0.000000000000000000, 1.000000000000000000 ) ) ;
#117 = CC_DESIGN_APPROVAL ( #16, ( #284 ) ) ;
#118 = DIRECTION ( 'NONE',  ( 1.000000000000000000, 0.000000000000000000, 0.000000000000000000 ) ) ;
#119 = DIRECTION ( 'NONE',  ( 1.000000000000000000, 0.000000000000000000, 0.000000000000000000 ) ) ;
#120 = EDGE_CURVE ( 'NONE', #180, #186, #61, .T. ) ;
#121 = MANIFOLD_SOLID_BREP ( 'Odebrat vysunutím3', #363 ) ;
#122 = AXIS2_PLACEMENT_3D ( 'NONE', #243, #240, #359 ) ;
#123 = EDGE_CURVE ( 'NONE', #341, #74, #300, .T. ) ;
#124 = DIRECTION ( 'NONE',  ( -1.000000000000000000, 0.000000000000000000, 0.000000000000000000 ) ) ;
#125 = DIRECTION ( 'NONE',  ( -0.000000000000000000, -0.000000000000000000, -1.000000000000000000 ) ) ;
#126 = EDGE_CURVE ( 'NONE', #279, #248, #179, .T. ) ;
#127 = EDGE_CURVE ( 'NONE', #180, #355, #162, .T. ) ;
#128 = CARTESIAN_POINT ( 'NONE',  ( 0.000000000000000000, 0.000000000000000000, 280.0000000000000000 ) ) ;
#129 = DIRECTION ( 'NONE',  ( 1.000000000000000000, 0.000000000000000000, 0.000000000000000000 ) ) ;
#130 = CIRCLE ( 'NONE', #199, 0.5000000000000004441 ) ;
#131 = CC_DESIGN_PERSON_AND_ORGANIZATION_ASSIGNMENT ( #165, #219, ( #77 ) ) ;
#132 = CARTESIAN_POINT ( 'NONE',  ( 0.000000000000000000, 0.000000000000000000, 5.000000000000000000 ) ) ;
#133 = DIRECTION ( 'NONE',  ( -0.000000000000000000, -0.000000000000000000, -1.000000000000000000 ) ) ;
#134 = ADVANCED_BREP_SHAPE_REPRESENTATION ( '57c8', ( #121, #338 ), #312 ) ;
#135 = SECURITY_CLASSIFICATION_LEVEL ( 'unclassified' ) ;
#136 = AXIS2_PLACEMENT_3D ( 'NONE', #184, #28, #124 ) ;
#137 = CARTESIAN_POINT ( 'NONE',  ( 5.000000000000000000, 6.123233995736766282E-16, 280.0000000000000000 ) ) ;
#138 = AXIS2_PLACEMENT_3D ( 'NONE', #291, #198, #27 ) ;
#139 = DATE_AND_TIME ( #375, #97 ) ;
#140 = DIRECTION ( 'NONE',  ( 0.000000000000000000, 0.000000000000000000, -1.000000000000000000 ) ) ;
#141 = ADVANCED_FACE ( 'NONE', ( #7 ), #96, .T. ) ;
#142 = ORIENTED_EDGE ( 'NONE', *, *, #319, .T. ) ;
#143 = CIRCLE ( 'NONE', #4, 3.100000000000000089 ) ;
#144 = DIRECTION ( 'NONE',  ( -0.000000000000000000, -0.000000000000000000, -1.000000000000000000 ) ) ;
#145 = ORIENTED_EDGE ( 'NONE', *, *, #314, .F. ) ;
#146 = CARTESIAN_POINT ( 'NONE',  ( 0.000000000000000000, 0.000000000000000000, 5.000000000000000000 ) ) ;
#147 = ORGANIZATION ( 'NEURÈENÝ', 'NEURÈENÝ', '' ) ;
#148 = DIRECTION ( 'NONE',  ( 0.000000000000000000, 0.000000000000000000, 1.000000000000000000 ) ) ;
#149 = CARTESIAN_POINT ( 'NONE',  ( 0.000000000000000000, 0.000000000000000000, 280.0000000000000000 ) ) ;
#150 = CARTESIAN_POINT ( 'NONE',  ( 0.000000000000000000, 0.000000000000000000, 0.000000000000000000 ) ) ;
#151 = CC_DESIGN_PERSON_AND_ORGANIZATION_ASSIGNMENT ( #231, #266, ( #370 ) ) ;
#152 = DIRECTION ( 'NONE',  ( 1.000000000000000000, 0.000000000000000000, -0.000000000000000000 ) ) ;
#153 = TOROIDAL_SURFACE ( 'NONE', #357, 5.500000000000000000, 0.5000000000000000000 ) ;
#154 = CARTESIAN_POINT ( 'NONE',  ( -5.500000000000000000, 6.735557395310442023E-16, 5.000000000000002665 ) ) ;
#155 = CYLINDRICAL_SURFACE ( 'NONE', #136, 8.000000000000000000 ) ;
#156 = ORIENTED_EDGE ( 'NONE', *, *, #372, .T. ) ;
#157 = CIRCLE ( 'NONE', #233, 5.500000000000000000 ) ;
#158 = AXIS2_PLACEMENT_3D ( 'NONE', #150, #86, #119 ) ;
#159 = PERSON_AND_ORGANIZATION_ROLE ( 'design_supplier' ) ;
#160 = CARTESIAN_POINT ( 'NONE',  ( 8.000000000000000000, 9.797174393178825657E-16, 5.000000000000000000 ) ) ;
#161 = ORIENTED_EDGE ( 'NONE', *, *, #319, .F. ) ;
#162 = CIRCLE ( 'NONE', #380, 3.100000000000000089 ) ;
#163 = APPROVAL_ROLE ( '' ) ;
#164 = CARTESIAN_POINT ( 'NONE',  ( 0.000000000000000000, 0.000000000000000000, 5.000000000000000000 ) ) ;
#165 = PERSON_AND_ORGANIZATION ( #342, #147 ) ;
#166 =( LENGTH_UNIT ( ) NAMED_UNIT ( * ) SI_UNIT ( .MILLI., .METRE. ) );
#167 = COORDINATED_UNIVERSAL_TIME_OFFSET ( 1, 0, .AHEAD. ) ;
#168 = DIRECTION ( 'NONE',  ( -1.000000000000000000, 0.000000000000000000, 0.000000000000000000 ) ) ;
#169 = ORIENTED_EDGE ( 'NONE', *, *, #325, .F. ) ;
#170 = APPROVAL_PERSON_ORGANIZATION ( #46, #16, #373 ) ;
#171 = ORIENTED_EDGE ( 'NONE', *, *, #123, .F. ) ;
#172 = DIRECTION ( 'NONE',  ( -1.000000000000000000, 0.000000000000000000, 0.000000000000000000 ) ) ;
#173 = ORIENTED_EDGE ( 'NONE', *, *, #317, .T. ) ;
#174 = CARTESIAN_POINT ( 'NONE',  ( -8.000000000000000000, 0.000000000000000000, 5.000000000000000000 ) ) ;
#175 = CIRCLE ( 'NONE', #158, 8.000000000000000000 ) ;
#176 = DIRECTION ( 'NONE',  ( 0.000000000000000000, 0.000000000000000000, -1.000000000000000000 ) ) ;
#177 = DIRECTION ( 'NONE',  ( 0.000000000000000000, 0.000000000000000000, 1.000000000000000000 ) ) ;
#178 = AXIS2_PLACEMENT_3D ( 'NONE', #340, #194, #43 ) ;
#179 = LINE ( 'NONE', #87, #321 ) ;
#180 = VERTEX_POINT ( 'NONE', #271 ) ;
#181 = CARTESIAN_POINT ( 'NONE',  ( 0.000000000000000000, 0.000000000000000000, 280.0000000000000000 ) ) ;
#182 = VECTOR ( 'NONE', #133, 1000.000000000000000 ) ;
#183 = PERSON_AND_ORGANIZATION_ROLE ( 'creator' ) ;
#184 = CARTESIAN_POINT ( 'NONE',  ( 0.000000000000000000, 0.000000000000000000, 5.000000000000000000 ) ) ;
#185 = CALENDAR_DATE ( 2022, 8, 7 ) ;
#186 = VERTEX_POINT ( 'NONE', #214 ) ;
#187 = ADVANCED_FACE ( 'NONE', ( #337 ), #155, .T. ) ;
#188 = EDGE_CURVE ( 'NONE', #248, #230, #224, .T. ) ;
#189 = CARTESIAN_POINT ( 'NONE',  ( 3.100000000000000089, 3.796405077356794918E-16, 0.000000000000000000 ) ) ;
#190 = LOCAL_TIME ( 16, 49, 49.00000000000000000, #104 ) ;
#191 = COORDINATED_UNIVERSAL_TIME_OFFSET ( 1, 0, .AHEAD. ) ;
#192 = CYLINDRICAL_SURFACE ( 'NONE', #251, 8.000000000000000000 ) ;
#193 = AXIS2_PLACEMENT_3D ( 'NONE', #294, #322, #57 ) ;
#194 = DIRECTION ( 'NONE',  ( 0.000000000000000000, 0.000000000000000000, 1.000000000000000000 ) ) ;
#195 = ORIENTED_EDGE ( 'NONE', *, *, #188, .T. ) ;
#196 = ORIENTED_EDGE ( 'NONE', *, *, #102, .T. ) ;
#197 = APPROVAL_PERSON_ORGANIZATION ( #53, #295, #163 ) ;
#198 = DIRECTION ( 'NONE',  ( 0.000000000000000000, 0.000000000000000000, 1.000000000000000000 ) ) ;
#199 = AXIS2_PLACEMENT_3D ( 'NONE', #358, #235, #84 ) ;
#200 = CIRCLE ( 'NONE', #369, 5.000000000000000000 ) ;
#201 =( NAMED_UNIT ( * ) PLANE_ANGLE_UNIT ( ) SI_UNIT ( $, .RADIAN. ) );
#202 = FACE_OUTER_BOUND ( 'NONE', #33, .T. ) ;
#203 = VECTOR ( 'NONE', #140, 1000.000000000000000 ) ;
#204 = CARTESIAN_POINT ( 'NONE',  ( 0.000000000000000000, 0.000000000000000000, 280.0000000000000000 ) ) ;
#205 = UNCERTAINTY_MEASURE_WITH_UNIT (LENGTH_MEASURE( 1.000000000000000082E-05 ), #166, 'distance_accuracy_value', 'NONE');
#206 = VERTEX_POINT ( 'NONE', #207 ) ;
#207 = CARTESIAN_POINT ( 'NONE',  ( -8.000000000000000000, 0.000000000000000000, 0.000000000000000000 ) ) ;
#208 = DIRECTION ( 'NONE',  ( -0.000000000000000000, -0.000000000000000000, -1.000000000000000000 ) ) ;
#209 = LOCAL_TIME ( 16, 49, 49.00000000000000000, #191 ) ;
#210 = VERTEX_POINT ( 'NONE', #328 ) ;
#211 = DIRECTION ( 'NONE',  ( 1.000000000000000000, 0.000000000000000000, 0.000000000000000000 ) ) ;
#212 = EDGE_CURVE ( 'NONE', #355, #180, #143, .T. ) ;
#213 = COORDINATED_UNIVERSAL_TIME_OFFSET ( 1, 0, .AHEAD. ) ;
#214 = CARTESIAN_POINT ( 'NONE',  ( -3.100000000000000089, 0.000000000000000000, 0.000000000000000000 ) ) ;
#215 = APPROVAL ( #280, 'NEURÈENÝ' ) ;
#216 = DATE_TIME_ROLE ( 'creation_date' ) ;
#217 = CARTESIAN_POINT ( 'NONE',  ( 0.000000000000000000, 0.000000000000000000, 5.000000000000000000 ) ) ;
#218 = AXIS2_PLACEMENT_3D ( 'NONE', #149, #176, #172 ) ;
#219 = PERSON_AND_ORGANIZATION_ROLE ( 'creator' ) ;
#220 = CYLINDRICAL_SURFACE ( 'NONE', #108, 5.000000000000000000 ) ;
#221 = DIRECTION ( 'NONE',  ( -0.000000000000000000, -0.000000000000000000, -1.000000000000000000 ) ) ;
#222 = ORIENTED_EDGE ( 'NONE', *, *, #264, .T. ) ;
#223 = CC_DESIGN_DATE_AND_TIME_ASSIGNMENT ( #68, #216, ( #77 ) ) ;
#224 = CIRCLE ( 'NONE', #122, 0.5000000000000004441 ) ;
#225 = PERSON_AND_ORGANIZATION ( #342, #147 ) ;
#226 = FACE_BOUND ( 'NONE', #362, .T. ) ;
#227 = ORIENTED_EDGE ( 'NONE', *, *, #123, .T. ) ;
#228 = PRODUCT_DEFINITION_SHAPE ( 'NONE', 'NONE',  #77 ) ;
#229 = DIRECTION ( 'NONE',  ( 1.000000000000000000, 0.000000000000000000, 0.000000000000000000 ) ) ;
#230 = VERTEX_POINT ( 'NONE', #154 ) ;
#231 = PERSON_AND_ORGANIZATION ( #342, #147 ) ;
#232 = ADVANCED_FACE ( 'NONE', ( #273 ), #5, .F. ) ;
#233 = AXIS2_PLACEMENT_3D ( 'NONE', #132, #125, #361 ) ;
#234 = AXIS2_PLACEMENT_3D ( 'NONE', #128, #364, #94 ) ;
#235 = DIRECTION ( 'NONE',  ( 0.000000000000000000, -1.000000000000000000, 0.000000000000000000 ) ) ;
#236 = AXIS2_PLACEMENT_3D ( 'NONE', #85, #148, #268 ) ;
#237 = ADVANCED_FACE ( 'NONE', ( #226, #258 ), #376, .T. ) ;
#238 = EDGE_LOOP ( 'NONE', ( #48, #89, #109, #173 ) ) ;
#239 = AXIS2_PLACEMENT_3D ( 'NONE', #88, #8, #332 ) ;
#240 = DIRECTION ( 'NONE',  ( 1.224646799147353207E-16, 1.000000000000000000, -0.000000000000000000 ) ) ;
#241 = CARTESIAN_POINT ( 'NONE',  ( 0.000000000000000000, 0.000000000000000000, 280.0000000000000000 ) ) ;
#242 = ORIENTED_EDGE ( 'NONE', *, *, #35, .T. ) ;
#243 = CARTESIAN_POINT ( 'NONE',  ( -5.500000000000000000, 6.735557395310442023E-16, 5.500000000000005329 ) ) ;
#244 = LOCAL_TIME ( 16, 49, 49.00000000000000000, #213 ) ;
#245 = EDGE_CURVE ( 'NONE', #341, #44, #265, .T. ) ;
#246 = AXIS2_PLACEMENT_3D ( 'NONE', #54, #379, #1 ) ;
#247 = DIRECTION ( 'NONE',  ( 0.000000000000000000, 0.000000000000000000, -1.000000000000000000 ) ) ;
#248 = VERTEX_POINT ( 'NONE', #78 ) ;
#249 = APPLICATION_CONTEXT ( 'configuration controlled 3d designs of mechanical parts and assemblies' ) ;
#250 = EDGE_LOOP ( 'NONE', ( #333, #145 ) ) ;
#251 = AXIS2_PLACEMENT_3D ( 'NONE', #164, #144, #260 ) ;
#252 = AXIS2_PLACEMENT_3D ( 'NONE', #146, #324, #263 ) ;
#253 = CARTESIAN_POINT ( 'NONE',  ( 3.100000000000000089, 3.796405077356794918E-16, 280.0000000000000000 ) ) ;
#254 = ORIENTED_EDGE ( 'NONE', *, *, #71, .F. ) ;
#255 = CARTESIAN_POINT ( 'NONE',  ( 5.000000000000000000, 6.123233995736766282E-16, 280.0000000000000000 ) ) ;
#256 = ORIENTED_EDGE ( 'NONE', *, *, #25, .T. ) ;
#257 = DATE_AND_TIME ( #305, #209 ) ;
#258 = FACE_OUTER_BOUND ( 'NONE', #103, .T. ) ;
#259 = ORIENTED_EDGE ( 'NONE', *, *, #91, .F. ) ;
#260 = DIRECTION ( 'NONE',  ( -1.000000000000000000, 0.000000000000000000, 0.000000000000000000 ) ) ;
#261 = ORIENTED_EDGE ( 'NONE', *, *, #127, .T. ) ;
#262 = CARTESIAN_POINT ( 'NONE',  ( 0.000000000000000000, 0.000000000000000000, 0.000000000000000000 ) ) ;
#263 = DIRECTION ( 'NONE',  ( 1.000000000000000000, 0.000000000000000000, 0.000000000000000000 ) ) ;
#264 = EDGE_CURVE ( 'NONE', #355, #323, #66, .T. ) ;
#265 = CIRCLE ( 'NONE', #270, 8.000000000000000000 ) ;
#266 = PERSON_AND_ORGANIZATION_ROLE ( 'design_owner' ) ;
#267 = ADVANCED_FACE ( 'NONE', ( #367 ), #276, .F. ) ;
#268 = DIRECTION ( 'NONE',  ( 1.000000000000000000, 0.000000000000000000, 0.000000000000000000 ) ) ;
#269 = ORIENTED_EDGE ( 'NONE', *, *, #372, .F. ) ;
#270 = AXIS2_PLACEMENT_3D ( 'NONE', #217, #308, #105 ) ;
#271 = CARTESIAN_POINT ( 'NONE',  ( -3.100000000000000089, 0.000000000000000000, 280.0000000000000000 ) ) ;
#272 = CIRCLE ( 'NONE', #239, 8.000000000000000000 ) ;
#273 = FACE_OUTER_BOUND ( 'NONE', #238, .T. ) ;
#274 = CARTESIAN_POINT ( 'NONE',  ( -3.100000000000000089, 0.000000000000000000, 280.0000000000000000 ) ) ;
#275 = DIRECTION ( 'NONE',  ( -0.000000000000000000, -0.000000000000000000, -1.000000000000000000 ) ) ;
#276 = TOROIDAL_SURFACE ( 'NONE', #178, 5.500000000000000000, 0.5000000000000000000 ) ;
#277 = CIRCLE ( 'NONE', #193, 5.000000000000000000 ) ;
#278 = DESIGN_CONTEXT ( 'detailed design', #249, 'design' ) ;
#279 = VERTEX_POINT ( 'NONE', #111 ) ;
#280 = APPROVAL_STATUS ( 'not_yet_approved' ) ;
#281 = CARTESIAN_POINT ( 'NONE',  ( 3.100000000000000089, 3.796405077356794918E-16, 280.0000000000000000 ) ) ;
#282 = CARTESIAN_POINT ( 'NONE',  ( 0.000000000000000000, 0.000000000000000000, 280.0000000000000000 ) ) ;
#283 = ORIENTED_EDGE ( 'NONE', *, *, #2, .T. ) ;
#284 = PRODUCT_DEFINITION_FORMATION_WITH_SPECIFIED_SOURCE ( 'LIBOVOLNÝ', '', #370, .NOT_KNOWN. ) ;
#285 = LINE ( 'NONE', #255, #182 ) ;
#286 = EDGE_LOOP ( 'NONE', ( #261, #222, #311, #23 ) ) ;
#287 = VECTOR ( 'NONE', #247, 1000.000000000000000 ) ;
#288 = CIRCLE ( 'NONE', #236, 5.000000000000000000 ) ;
#289 = ORIENTED_EDGE ( 'NONE', *, *, #245, .T. ) ;
#290 = EDGE_LOOP ( 'NONE', ( #20, #195, #254, #17 ) ) ;
#291 = CARTESIAN_POINT ( 'NONE',  ( 0.000000000000000000, 0.000000000000000000, 0.000000000000000000 ) ) ;
#292 = CC_DESIGN_SECURITY_CLASSIFICATION ( #329, ( #284 ) ) ;
#293 = APPROVAL_STATUS ( 'not_yet_approved' ) ;
#294 = CARTESIAN_POINT ( 'NONE',  ( 0.000000000000000000, 0.000000000000000000, 5.500000000000005329 ) ) ;
#295 = APPROVAL ( #293, 'NEURÈENÝ' ) ;
#296 = CYLINDRICAL_SURFACE ( 'NONE', #218, 3.100000000000000089 ) ;
#297 = ORIENTED_EDGE ( 'NONE', *, *, #71, .T. ) ;
#298 = CC_DESIGN_PERSON_AND_ORGANIZATION_ASSIGNMENT ( #65, #159, ( #284 ) ) ;
#299 = CIRCLE ( 'NONE', #36, 3.100000000000000089 ) ;
#300 = LINE ( 'NONE', #32, #64 ) ;
#301 = VERTEX_POINT ( 'NONE', #306 ) ;
#302 = DIRECTION ( 'NONE',  ( 0.000000000000000000, 0.000000000000000000, 1.000000000000000000 ) ) ;
#303 = ORIENTED_EDGE ( 'NONE', *, *, #188, .F. ) ;
#304 = CARTESIAN_POINT ( 'NONE',  ( 0.000000000000000000, 0.000000000000000000, 280.0000000000000000 ) ) ;
#305 = CALENDAR_DATE ( 2022, 8, 7 ) ;
#306 = CARTESIAN_POINT ( 'NONE',  ( 5.000000000000000000, 6.123233995736766282E-16, 5.500000000000005329 ) ) ;
#307 = DATE_AND_TIME ( #185, #244 ) ;
#308 = DIRECTION ( 'NONE',  ( 0.000000000000000000, 0.000000000000000000, 1.000000000000000000 ) ) ;
#309 = ORIENTED_EDGE ( 'NONE', *, *, #60, .F. ) ;
#310 = DIRECTION ( 'NONE',  ( 1.000000000000000000, 0.000000000000000000, 0.000000000000000000 ) ) ;
#311 = ORIENTED_EDGE ( 'NONE', *, *, #314, .T. ) ;
#312 =( GEOMETRIC_REPRESENTATION_CONTEXT ( 3 ) GLOBAL_UNCERTAINTY_ASSIGNED_CONTEXT ( ( #205 ) ) GLOBAL_UNIT_ASSIGNED_CONTEXT ( ( #166, #201, #22 ) ) REPRESENTATION_CONTEXT ( 'NONE', 'WORKASPACE' ) );
#313 = PERSON_AND_ORGANIZATION ( #342, #147 ) ;
#314 = EDGE_CURVE ( 'NONE', #323, #186, #299, .T. ) ;
#315 = ORIENTED_EDGE ( 'NONE', *, *, #35, .F. ) ;
#316 = DATE_AND_TIME ( #37, #190 ) ;
#317 = EDGE_CURVE ( 'NONE', #186, #323, #11, .T. ) ;
#318 = CARTESIAN_POINT ( 'NONE',  ( 0.000000000000000000, 0.000000000000000000, 0.000000000000000000 ) ) ;
#319 = EDGE_CURVE ( 'NONE', #44, #206, #76, .T. ) ;
#320 = ORIENTED_EDGE ( 'NONE', *, *, #126, .T. ) ;
#321 = VECTOR ( 'NONE', #275, 1000.000000000000000 ) ;
#322 = DIRECTION ( 'NONE',  ( 0.000000000000000000, 0.000000000000000000, 1.000000000000000000 ) ) ;
#323 = VERTEX_POINT ( 'NONE', #189 ) ;
#324 = DIRECTION ( 'NONE',  ( 0.000000000000000000, 0.000000000000000000, 1.000000000000000000 ) ) ;
#325 = EDGE_CURVE ( 'NONE', #374, #279, #42, .T. ) ;
#326 = PRODUCT_RELATED_PRODUCT_CATEGORY ( 'detail', '', ( #370 ) ) ;
#327 = FACE_BOUND ( 'NONE', #250, .T. ) ;
#328 = CARTESIAN_POINT ( 'NONE',  ( 5.500000000000000000, 0.000000000000000000, 5.000000000000002665 ) ) ;
#329 = SECURITY_CLASSIFICATION ( '', '', #135 ) ;
#330 = DIRECTION ( 'NONE',  ( 0.000000000000000000, 0.000000000000000000, 1.000000000000000000 ) ) ;
#331 = ADVANCED_FACE ( 'NONE', ( #98 ), #192, .T. ) ;
#332 = DIRECTION ( 'NONE',  ( 1.000000000000000000, 0.000000000000000000, 0.000000000000000000 ) ) ;
#333 = ORIENTED_EDGE ( 'NONE', *, *, #317, .F. ) ;
#334 = CC_DESIGN_PERSON_AND_ORGANIZATION_ASSIGNMENT ( #365, #183, ( #284 ) ) ;
#335 = FACE_OUTER_BOUND ( 'NONE', #79, .T. ) ;
#336 = APPROVAL_DATE_TIME ( #307, #215 ) ;
#337 = FACE_OUTER_BOUND ( 'NONE', #3, .T. ) ;
#338 = AXIS2_PLACEMENT_3D ( 'NONE', #262, #116, #118 ) ;
#339 = APPROVAL_DATE_TIME ( #257, #295 ) ;
#340 = CARTESIAN_POINT ( 'NONE',  ( 0.000000000000000000, 0.000000000000000000, 5.500000000000005329 ) ) ;
#341 = VERTEX_POINT ( 'NONE', #160 ) ;
#342 = PERSON ( 'NEURÈENÝ', 'NEURÈENÝ', 'NEURÈENÝ', ('NEURÈENÝ'), ('NEURÈENÝ'), ('NEURÈENÝ') ) ;
#343 = COORDINATED_UNIVERSAL_TIME_OFFSET ( 1, 0, .AHEAD. ) ;
#344 = CARTESIAN_POINT ( 'NONE',  ( 0.000000000000000000, 0.000000000000000000, 280.0000000000000000 ) ) ;
#345 = CALENDAR_DATE ( 2022, 8, 7 ) ;
#346 = DIRECTION ( 'NONE',  ( 1.000000000000000000, 0.000000000000000000, 0.000000000000000000 ) ) ;
#347 = ORIENTED_EDGE ( 'NONE', *, *, #51, .T. ) ;
#348 = CARTESIAN_POINT ( 'NONE',  ( 0.000000000000000000, 0.000000000000000000, 0.000000000000000000 ) ) ;
#349 = ORIENTED_EDGE ( 'NONE', *, *, #93, .T. ) ;
#350 = CARTESIAN_POINT ( 'NONE',  ( -8.000000000000000000, 0.000000000000000000, 5.000000000000000000 ) ) ;
#351 = ORIENTED_EDGE ( 'NONE', *, *, #60, .T. ) ;
#352 = ORIENTED_EDGE ( 'NONE', *, *, #93, .F. ) ;
#353 = CIRCLE ( 'NONE', #246, 5.500000000000000000 ) ;
#354 = DIRECTION ( 'NONE',  ( 0.000000000000000000, 0.000000000000000000, 1.000000000000000000 ) ) ;
#355 = VERTEX_POINT ( 'NONE', #281 ) ;
#356 = APPLICATION_CONTEXT ( 'configuration controlled 3d designs of mechanical parts and assemblies' ) ;
#357 = AXIS2_PLACEMENT_3D ( 'NONE', #62, #330, #211 ) ;
#358 = CARTESIAN_POINT ( 'NONE',  ( 5.500000000000000000, 0.000000000000000000, 5.500000000000005329 ) ) ;
#359 = DIRECTION ( 'NONE',  ( -1.000000000000000000, 1.224646799147351482E-16, 0.000000000000000000 ) ) ;
#360 = AXIS2_PLACEMENT_3D ( 'NONE', #13, #377, #47 ) ;
#361 = DIRECTION ( 'NONE',  ( 1.000000000000000000, 0.000000000000000000, 0.000000000000000000 ) ) ;
#362 = EDGE_LOOP ( 'NONE', ( #297, #196 ) ) ;
#363 = CLOSED_SHELL ( 'NONE', ( #31, #110, #141, #331, #187, #237, #14, #378, #92, #267, #232 ) ) ;
#364 = DIRECTION ( 'NONE',  ( -0.000000000000000000, -0.000000000000000000, -1.000000000000000000 ) ) ;
#365 = PERSON_AND_ORGANIZATION ( #342, #147 ) ;
#366 = DIRECTION ( 'NONE',  ( 0.000000000000000000, 0.000000000000000000, 1.000000000000000000 ) ) ;
#367 = FACE_OUTER_BOUND ( 'NONE', #112, .T. ) ;
#368 = AXIS2_PLACEMENT_3D ( 'NONE', #282, #12, #346 ) ;
#369 = AXIS2_PLACEMENT_3D ( 'NONE', #204, #354, #26 ) ;
#370 = PRODUCT ( '57c8', '57c8', '', ( #114 ) ) ;
#371 = SHAPE_DEFINITION_REPRESENTATION ( #228, #134 ) ;
#372 = EDGE_CURVE ( 'NONE', #374, #301, #285, .T. ) ;
#373 = APPROVAL_ROLE ( '' ) ;
#374 = VERTEX_POINT ( 'NONE', #137 ) ;
#375 = CALENDAR_DATE ( 2022, 8, 7 ) ;
#376 = PLANE ( 'NONE',  #360 ) ;
#377 = DIRECTION ( 'NONE',  ( 0.000000000000000000, 0.000000000000000000, 1.000000000000000000 ) ) ;
#378 = ADVANCED_FACE ( 'NONE', ( #101 ), #220, .T. ) ;
#379 = DIRECTION ( 'NONE',  ( -0.000000000000000000, -0.000000000000000000, -1.000000000000000000 ) ) ;
#380 = AXIS2_PLACEMENT_3D ( 'NONE', #304, #366, #129 ) ;
#381 = FACE_BOUND ( 'NONE', #80, .T. ) ;
ENDSEC;
END-ISO-10303-21;
