ISO-10303-21;
HEADER;
FILE_DESCRIPTION (( 'STEP AP203' ),
    '1' );
FILE_NAME ('cbd5.STEP',
    '2022-07-08T15:19:32',
    ( '' ),
    ( '' ),
    'SwSTEP 2.0',
    'SolidWorks 2019',
    '' );
FILE_SCHEMA (( 'CONFIG_CONTROL_DESIGN' ));
ENDSEC;

DATA;
#1 = AXIS2_PLACEMENT_3D ( 'NONE', #267, #379, #118 ) ;
#2 = CARTESIAN_POINT ( 'NONE',  ( -2.500000000000000000, 0.000000000000000000, 0.000000000000000000 ) ) ;
#3 = ORIENTED_EDGE ( 'NONE', *, *, #210, .T. ) ;
#4 =( NAMED_UNIT ( * ) SI_UNIT ( $, .STERADIAN. ) SOLID_ANGLE_UNIT ( ) );
#5 = ADVANCED_FACE ( 'NONE', ( #31 ), #75, .F. ) ;
#6 = DIRECTION ( 'NONE',  ( 1.000000000000000000, 0.000000000000000000, 0.000000000000000000 ) ) ;
#7 = DIRECTION ( 'NONE',  ( -0.000000000000000000, -0.000000000000000000, -1.000000000000000000 ) ) ;
#8 = VERTEX_POINT ( 'NONE', #353 ) ;
#9 = CARTESIAN_POINT ( 'NONE',  ( 0.000000000000000000, 0.000000000000000000, 5.000000000000000000 ) ) ;
#10 = AXIS2_PLACEMENT_3D ( 'NONE', #76, #358, #331 ) ;
#11 = ORIENTED_EDGE ( 'NONE', *, *, #100, .F. ) ;
#12 = CARTESIAN_POINT ( 'NONE',  ( 2.500000000000000000, 3.061616997868383141E-16, 0.000000000000000000 ) ) ;
#13 = DIRECTION ( 'NONE',  ( 0.000000000000000000, 0.000000000000000000, 1.000000000000000000 ) ) ;
#14 = CARTESIAN_POINT ( 'NONE',  ( 4.500000000000000888, 0.000000000000000000, 5.500000000000005329 ) ) ;
#15 = APPROVAL_ROLE ( '' ) ;
#16 = DIRECTION ( 'NONE',  ( 1.000000000000000000, 0.000000000000000000, -0.000000000000000000 ) ) ;
#17 = CIRCLE ( 'NONE', #85, 4.000000000000000000 ) ;
#18 = EDGE_CURVE ( 'NONE', #207, #340, #288, .T. ) ;
#19 = PERSON_AND_ORGANIZATION ( #323, #164 ) ;
#20 = CYLINDRICAL_SURFACE ( 'NONE', #60, 4.000000000000000000 ) ;
#21 = CC_DESIGN_DATE_AND_TIME_ASSIGNMENT ( #296, #89, ( #53 ) ) ;
#22 = PERSON_AND_ORGANIZATION_ROLE ( 'design_owner' ) ;
#23 = CARTESIAN_POINT ( 'NONE',  ( -7.000000000000000000, 0.000000000000000000, 5.000000000000000000 ) ) ;
#24 = EDGE_CURVE ( 'NONE', #187, #327, #38, .T. ) ;
#25 = CARTESIAN_POINT ( 'NONE',  ( -2.500000000000000000, 0.000000000000000000, 355.0000000000000000 ) ) ;
#26 = CIRCLE ( 'NONE', #136, 7.000000000000000000 ) ;
#27 = LOCAL_TIME ( 17, 19, 32.00000000000000000, #354 ) ;
#28 = ORIENTED_EDGE ( 'NONE', *, *, #86, .T. ) ;
#29 = DIRECTION ( 'NONE',  ( -0.000000000000000000, -0.000000000000000000, -1.000000000000000000 ) ) ;
#30 = CARTESIAN_POINT ( 'NONE',  ( 0.000000000000000000, 0.000000000000000000, 355.0000000000000000 ) ) ;
#31 = FACE_OUTER_BOUND ( 'NONE', #155, .T. ) ;
#32 = AXIS2_PLACEMENT_3D ( 'NONE', #198, #13, #49 ) ;
#33 = APPROVAL_ROLE ( '' ) ;
#34 = LINE ( 'NONE', #328, #68 ) ;
#35 = ORIENTED_EDGE ( 'NONE', *, *, #56, .F. ) ;
#36 = CARTESIAN_POINT ( 'NONE',  ( -4.000000000000000000, 0.000000000000000000, 355.0000000000000000 ) ) ;
#37 = ORIENTED_EDGE ( 'NONE', *, *, #18, .F. ) ;
#38 = CIRCLE ( 'NONE', #135, 4.500000000000000888 ) ;
#39 = EDGE_CURVE ( 'NONE', #271, #184, #344, .T. ) ;
#40 = PLANE ( 'NONE',  #346 ) ;
#41 = VECTOR ( 'NONE', #103, 1000.000000000000000 ) ;
#42 = UNCERTAINTY_MEASURE_WITH_UNIT (LENGTH_MEASURE( 1.000000000000000082E-05 ), #46, 'distance_accuracy_value', 'NONE');
#43 = AXIS2_PLACEMENT_3D ( 'NONE', #244, #72, #98 ) ;
#44 = CC_DESIGN_PERSON_AND_ORGANIZATION_ASSIGNMENT ( #378, #268, ( #255 ) ) ;
#45 = LOCAL_TIME ( 17, 19, 32.00000000000000000, #108 ) ;
#46 =( LENGTH_UNIT ( ) NAMED_UNIT ( * ) SI_UNIT ( .MILLI., .METRE. ) );
#47 = DIRECTION ( 'NONE',  ( -1.000000000000000000, 0.000000000000000000, 0.000000000000000000 ) ) ;
#48 = APPLICATION_PROTOCOL_DEFINITION ( 'international standard', 'config_control_design', 1994, #281 ) ;
#49 = DIRECTION ( 'NONE',  ( 1.000000000000000000, 0.000000000000000000, 0.000000000000000000 ) ) ;
#50 = EDGE_CURVE ( 'NONE', #207, #366, #156, .T. ) ;
#51 = LINE ( 'NONE', #25, #175 ) ;
#52 = FACE_OUTER_BOUND ( 'NONE', #217, .T. ) ;
#53 = SECURITY_CLASSIFICATION ( '', '', #380 ) ;
#54 = FACE_OUTER_BOUND ( 'NONE', #153, .T. ) ;
#55 = ORIENTED_EDGE ( 'NONE', *, *, #316, .F. ) ;
#56 = EDGE_CURVE ( 'NONE', #69, #187, #57, .T. ) ;
#57 = CIRCLE ( 'NONE', #179, 0.5000000000000004441 ) ;
#58 = DIRECTION ( 'NONE',  ( -0.000000000000000000, -0.000000000000000000, -1.000000000000000000 ) ) ;
#59 = ORIENTED_EDGE ( 'NONE', *, *, #210, .F. ) ;
#60 = AXIS2_PLACEMENT_3D ( 'NONE', #80, #254, #110 ) ;
#61 = ORIENTED_EDGE ( 'NONE', *, *, #333, .T. ) ;
#62 = CARTESIAN_POINT ( 'NONE',  ( 0.000000000000000000, 0.000000000000000000, 5.000000000000000000 ) ) ;
#63 = EDGE_CURVE ( 'NONE', #69, #276, #285, .T. ) ;
#64 = SHAPE_DEFINITION_REPRESENTATION ( #286, #295 ) ;
#65 = ORIENTED_EDGE ( 'NONE', *, *, #100, .T. ) ;
#66 = CARTESIAN_POINT ( 'NONE',  ( 0.000000000000000000, 0.000000000000000000, 355.0000000000000000 ) ) ;
#67 = DIRECTION ( 'NONE',  ( -0.000000000000000000, -0.000000000000000000, -1.000000000000000000 ) ) ;
#68 = VECTOR ( 'NONE', #58, 1000.000000000000000 ) ;
#69 = VERTEX_POINT ( 'NONE', #192 ) ;
#70 = FACE_OUTER_BOUND ( 'NONE', #301, .T. ) ;
#71 = EDGE_LOOP ( 'NONE', ( #360, #143 ) ) ;
#72 = DIRECTION ( 'NONE',  ( 0.000000000000000000, 0.000000000000000000, 1.000000000000000000 ) ) ;
#73 = ORIENTED_EDGE ( 'NONE', *, *, #292, .F. ) ;
#74 = APPLICATION_PROTOCOL_DEFINITION ( 'international standard', 'config_control_design', 1994, #347 ) ;
#75 = TOROIDAL_SURFACE ( 'NONE', #88, 4.500000000000000888, 0.5000000000000000000 ) ;
#76 = CARTESIAN_POINT ( 'NONE',  ( 0.000000000000000000, 0.000000000000000000, 0.000000000000000000 ) ) ;
#77 = CIRCLE ( 'NONE', #157, 2.500000000000000000 ) ;
#78 = PERSON_AND_ORGANIZATION ( #323, #164 ) ;
#79 = ADVANCED_FACE ( 'NONE', ( #242 ), #107, .F. ) ;
#80 = CARTESIAN_POINT ( 'NONE',  ( 0.000000000000000000, 0.000000000000000000, 355.0000000000000000 ) ) ;
#81 = CARTESIAN_POINT ( 'NONE',  ( 0.000000000000000000, 0.000000000000000000, 5.000000000000000000 ) ) ;
#82 = PERSON_AND_ORGANIZATION ( #323, #164 ) ;
#83 = APPROVAL_DATE_TIME ( #183, #230 ) ;
#84 = DIRECTION ( 'NONE',  ( -0.000000000000000000, -0.000000000000000000, -1.000000000000000000 ) ) ;
#85 = AXIS2_PLACEMENT_3D ( 'NONE', #258, #375, #235 ) ;
#86 = EDGE_CURVE ( 'NONE', #366, #274, #105, .T. ) ;
#87 = DIRECTION ( 'NONE',  ( 0.000000000000000000, 0.000000000000000000, 1.000000000000000000 ) ) ;
#88 = AXIS2_PLACEMENT_3D ( 'NONE', #349, #146, #263 ) ;
#89 = DATE_TIME_ROLE ( 'classification_date' ) ;
#90 = EDGE_CURVE ( 'NONE', #279, #303, #212, .T. ) ;
#91 = CARTESIAN_POINT ( 'NONE',  ( 0.000000000000000000, 0.000000000000000000, 355.0000000000000000 ) ) ;
#92 = APPROVAL_PERSON_ORGANIZATION ( #237, #128, #205 ) ;
#93 = ORIENTED_EDGE ( 'NONE', *, *, #133, .T. ) ;
#94 = APPROVAL_DATE_TIME ( #195, #128 ) ;
#95 = DIRECTION ( 'NONE',  ( 0.000000000000000000, 0.000000000000000000, 1.000000000000000000 ) ) ;
#96 = CYLINDRICAL_SURFACE ( 'NONE', #196, 7.000000000000000000 ) ;
#97 = ORIENTED_EDGE ( 'NONE', *, *, #24, .F. ) ;
#98 = DIRECTION ( 'NONE',  ( 1.000000000000000000, 0.000000000000000000, 0.000000000000000000 ) ) ;
#99 = VECTOR ( 'NONE', #203, 1000.000000000000000 ) ;
#100 = EDGE_CURVE ( 'NONE', #245, #8, #350, .T. ) ;
#101 = TOROIDAL_SURFACE ( 'NONE', #265, 4.500000000000000888, 0.5000000000000000000 ) ;
#102 = EDGE_LOOP ( 'NONE', ( #239, #37 ) ) ;
#103 = DIRECTION ( 'NONE',  ( 0.000000000000000000, 0.000000000000000000, -1.000000000000000000 ) ) ;
#104 = ORIENTED_EDGE ( 'NONE', *, *, #292, .T. ) ;
#105 = CIRCLE ( 'NONE', #10, 2.500000000000000000 ) ;
#106 = ADVANCED_FACE ( 'NONE', ( #70 ), #101, .F. ) ;
#107 = CYLINDRICAL_SURFACE ( 'NONE', #204, 2.500000000000000000 ) ;
#108 = COORDINATED_UNIVERSAL_TIME_OFFSET ( 1, 0, .AHEAD. ) ;
#109 = CARTESIAN_POINT ( 'NONE',  ( 4.000000000000000000, 4.898587196589412829E-16, 355.0000000000000000 ) ) ;
#110 = DIRECTION ( 'NONE',  ( -1.000000000000000000, 0.000000000000000000, 0.000000000000000000 ) ) ;
#111 = DIRECTION ( 'NONE',  ( 0.000000000000000000, -1.000000000000000000, 0.000000000000000000 ) ) ;
#112 = ADVANCED_FACE ( 'NONE', ( #160 ), #96, .T. ) ;
#113 = ORIENTED_EDGE ( 'NONE', *, *, #294, .F. ) ;
#114 = EDGE_CURVE ( 'NONE', #8, #245, #26, .T. ) ;
#115 = CARTESIAN_POINT ( 'NONE',  ( 0.000000000000000000, 0.000000000000000000, 5.500000000000005329 ) ) ;
#116 = PRODUCT_DEFINITION ( 'NEZNÁMÝ', '', #255, #308 ) ;
#117 = PERSON_AND_ORGANIZATION ( #323, #164 ) ;
#118 = DIRECTION ( 'NONE',  ( 1.000000000000000000, 0.000000000000000000, 0.000000000000000000 ) ) ;
#119 = CARTESIAN_POINT ( 'NONE',  ( 0.000000000000000000, 0.000000000000000000, 0.000000000000000000 ) ) ;
#120 = AXIS2_PLACEMENT_3D ( 'NONE', #280, #277, #218 ) ;
#121 = ORIENTED_EDGE ( 'NONE', *, *, #186, .T. ) ;
#122 = DIRECTION ( 'NONE',  ( -0.000000000000000000, -0.000000000000000000, -1.000000000000000000 ) ) ;
#123 = EDGE_LOOP ( 'NONE', ( #65, #126 ) ) ;
#124 = AXIS2_PLACEMENT_3D ( 'NONE', #159, #7, #253 ) ;
#125 = ORIENTED_EDGE ( 'NONE', *, *, #294, .T. ) ;
#126 = ORIENTED_EDGE ( 'NONE', *, *, #114, .T. ) ;
#127 = ADVANCED_FACE ( 'NONE', ( #305 ), #226, .T. ) ;
#128 = APPROVAL ( #238, 'NEURÈENÝ' ) ;
#129 = CIRCLE ( 'NONE', #240, 4.000000000000000000 ) ;
#130 = EDGE_LOOP ( 'NONE', ( #236, #121 ) ) ;
#131 = DIRECTION ( 'NONE',  ( 1.000000000000000000, 0.000000000000000000, -0.000000000000000000 ) ) ;
#132 = DIRECTION ( 'NONE',  ( 0.000000000000000000, 0.000000000000000000, 1.000000000000000000 ) ) ;
#133 = EDGE_CURVE ( 'NONE', #340, #274, #51, .T. ) ;
#134 = DIRECTION ( 'NONE',  ( 0.000000000000000000, 0.000000000000000000, -1.000000000000000000 ) ) ;
#135 = AXIS2_PLACEMENT_3D ( 'NONE', #148, #216, #185 ) ;
#136 = AXIS2_PLACEMENT_3D ( 'NONE', #310, #132, #189 ) ;
#137 = CALENDAR_DATE ( 2022, 8, 7 ) ;
#138 = LINE ( 'NONE', #23, #99 ) ;
#139 = DIRECTION ( 'NONE',  ( 1.000000000000000000, 0.000000000000000000, -0.000000000000000000 ) ) ;
#140 = FACE_OUTER_BOUND ( 'NONE', #123, .T. ) ;
#141 = MECHANICAL_CONTEXT ( 'NONE', #347, 'mechanical' ) ;
#142 = CARTESIAN_POINT ( 'NONE',  ( 2.500000000000000000, 3.061616997868383141E-16, 355.0000000000000000 ) ) ;
#143 = ORIENTED_EDGE ( 'NONE', *, *, #24, .T. ) ;
#144 = CALENDAR_DATE ( 2022, 8, 7 ) ;
#145 = DIRECTION ( 'NONE',  ( -1.000000000000000000, 0.000000000000000000, 0.000000000000000000 ) ) ;
#146 = DIRECTION ( 'NONE',  ( 0.000000000000000000, 0.000000000000000000, 1.000000000000000000 ) ) ;
#147 = CARTESIAN_POINT ( 'NONE',  ( -7.000000000000000000, 0.000000000000000000, 0.000000000000000000 ) ) ;
#148 = CARTESIAN_POINT ( 'NONE',  ( 0.000000000000000000, 0.000000000000000000, 5.000000000000000000 ) ) ;
#149 = EDGE_LOOP ( 'NONE', ( #182, #248, #125, #225 ) ) ;
#150 = APPROVAL_STATUS ( 'not_yet_approved' ) ;
#151 = CYLINDRICAL_SURFACE ( 'NONE', #322, 4.000000000000000000 ) ;
#152 = ORIENTED_EDGE ( 'NONE', *, *, #282, .F. ) ;
#153 = EDGE_LOOP ( 'NONE', ( #55, #364, #61, #190 ) ) ;
#154 = DIRECTION ( 'NONE',  ( 0.000000000000000000, 0.000000000000000000, 1.000000000000000000 ) ) ;
#155 = EDGE_LOOP ( 'NONE', ( #35, #113, #3, #97 ) ) ;
#156 = LINE ( 'NONE', #365, #41 ) ;
#157 = AXIS2_PLACEMENT_3D ( 'NONE', #355, #266, #326 ) ;
#158 = EDGE_CURVE ( 'NONE', #245, #303, #138, .T. ) ;
#159 = CARTESIAN_POINT ( 'NONE',  ( 0.000000000000000000, 0.000000000000000000, 5.000000000000000000 ) ) ;
#160 = FACE_OUTER_BOUND ( 'NONE', #302, .T. ) ;
#161 = CC_DESIGN_PERSON_AND_ORGANIZATION_ASSIGNMENT ( #78, #22, ( #320 ) ) ;
#162 = AXIS2_PLACEMENT_3D ( 'NONE', #91, #95, #329 ) ;
#163 = ORIENTED_EDGE ( 'NONE', *, *, #50, .T. ) ;
#164 = ORGANIZATION ( 'NEURÈENÝ', 'NEURÈENÝ', '' ) ;
#165 =( NAMED_UNIT ( * ) PLANE_ANGLE_UNIT ( ) SI_UNIT ( $, .RADIAN. ) );
#166 = CARTESIAN_POINT ( 'NONE',  ( 0.000000000000000000, 0.000000000000000000, 355.0000000000000000 ) ) ;
#167 = PERSON_AND_ORGANIZATION ( #323, #164 ) ;
#168 = DIRECTION ( 'NONE',  ( 0.000000000000000000, 0.000000000000000000, -1.000000000000000000 ) ) ;
#169 = DATE_TIME_ROLE ( 'creation_date' ) ;
#170 = LOCAL_TIME ( 17, 19, 32.00000000000000000, #376 ) ;
#171 = DIRECTION ( 'NONE',  ( 0.000000000000000000, 0.000000000000000000, -1.000000000000000000 ) ) ;
#172 = ORIENTED_EDGE ( 'NONE', *, *, #312, .F. ) ;
#173 = CLOSED_SHELL ( 'NONE', ( #79, #106, #233, #112, #127, #174, #188, #262, #345, #5, #359 ) ) ;
#174 = ADVANCED_FACE ( 'NONE', ( #370, #140 ), #319, .T. ) ;
#175 = VECTOR ( 'NONE', #168, 1000.000000000000000 ) ;
#176 = CARTESIAN_POINT ( 'NONE',  ( 7.000000000000000000, 8.572527594031473190E-16, 0.000000000000000000 ) ) ;
#177 = DIRECTION ( 'NONE',  ( 1.000000000000000000, 0.000000000000000000, 0.000000000000000000 ) ) ;
#178 = ORIENTED_EDGE ( 'NONE', *, *, #90, .F. ) ;
#179 = AXIS2_PLACEMENT_3D ( 'NONE', #275, #224, #339 ) ;
#180 = DIRECTION ( 'NONE',  ( 1.000000000000000000, 0.000000000000000000, 0.000000000000000000 ) ) ;
#181 = AXIS2_PLACEMENT_3D ( 'NONE', #334, #134, #191 ) ;
#182 = ORIENTED_EDGE ( 'NONE', *, *, #186, .F. ) ;
#183 = DATE_AND_TIME ( #321, #170 ) ;
#184 = VERTEX_POINT ( 'NONE', #109 ) ;
#185 = DIRECTION ( 'NONE',  ( 1.000000000000000000, 0.000000000000000000, 0.000000000000000000 ) ) ;
#186 = EDGE_CURVE ( 'NONE', #184, #271, #17, .T. ) ;
#187 = VERTEX_POINT ( 'NONE', #342 ) ;
#188 = ADVANCED_FACE ( 'NONE', ( #229, #52 ), #287, .F. ) ;
#189 = DIRECTION ( 'NONE',  ( 1.000000000000000000, 0.000000000000000000, 0.000000000000000000 ) ) ;
#190 = ORIENTED_EDGE ( 'NONE', *, *, #63, .T. ) ;
#191 = DIRECTION ( 'NONE',  ( -1.000000000000000000, 0.000000000000000000, 0.000000000000000000 ) ) ;
#192 = CARTESIAN_POINT ( 'NONE',  ( -4.000000000000000000, 0.000000000000000000, 5.500000000000005329 ) ) ;
#193 = ORIENTED_EDGE ( 'NONE', *, *, #114, .F. ) ;
#194 = DIRECTION ( 'NONE',  ( 0.000000000000000000, 0.000000000000000000, 1.000000000000000000 ) ) ;
#195 = DATE_AND_TIME ( #209, #27 ) ;
#196 = AXIS2_PLACEMENT_3D ( 'NONE', #9, #67, #47 ) ;
#197 = APPROVAL ( #313, 'NEURÈENÝ' ) ;
#198 = CARTESIAN_POINT ( 'NONE',  ( 0.000000000000000000, 0.000000000000000000, 5.000000000000000000 ) ) ;
#199 = DATE_AND_TIME ( #228, #45 ) ;
#200 = DIRECTION ( 'NONE',  ( 0.000000000000000000, 0.000000000000000000, 1.000000000000000000 ) ) ;
#201 = PERSON_AND_ORGANIZATION_ROLE ( 'creator' ) ;
#202 = EDGE_CURVE ( 'NONE', #340, #207, #335, .T. ) ;
#203 = DIRECTION ( 'NONE',  ( -0.000000000000000000, -0.000000000000000000, -1.000000000000000000 ) ) ;
#204 = AXIS2_PLACEMENT_3D ( 'NONE', #166, #338, #341 ) ;
#205 = APPROVAL_ROLE ( '' ) ;
#206 = CC_DESIGN_APPROVAL ( #197, ( #116 ) ) ;
#207 = VERTEX_POINT ( 'NONE', #142 ) ;
#208 = EDGE_LOOP ( 'NONE', ( #172, #223 ) ) ;
#209 = CALENDAR_DATE ( 2022, 8, 7 ) ;
#210 = EDGE_CURVE ( 'NONE', #276, #327, #311, .T. ) ;
#211 = ORIENTED_EDGE ( 'NONE', *, *, #90, .T. ) ;
#212 = CIRCLE ( 'NONE', #43, 7.000000000000000000 ) ;
#213 = CARTESIAN_POINT ( 'NONE',  ( -4.000000000000000000, 0.000000000000000000, 355.0000000000000000 ) ) ;
#214 = LOCAL_TIME ( 17, 19, 32.00000000000000000, #372 ) ;
#215 = EDGE_LOOP ( 'NONE', ( #330, #163, #28, #309 ) ) ;
#216 = DIRECTION ( 'NONE',  ( -0.000000000000000000, -0.000000000000000000, -1.000000000000000000 ) ) ;
#217 = EDGE_LOOP ( 'NONE', ( #357, #178 ) ) ;
#218 = DIRECTION ( 'NONE',  ( 1.000000000000000000, 0.000000000000000000, 0.000000000000000000 ) ) ;
#219 = ORIENTED_EDGE ( 'NONE', *, *, #312, .T. ) ;
#220 = FACE_BOUND ( 'NONE', #102, .T. ) ;
#221 = CIRCLE ( 'NONE', #246, 7.000000000000000000 ) ;
#222 = CC_DESIGN_APPROVAL ( #128, ( #53 ) ) ;
#223 = ORIENTED_EDGE ( 'NONE', *, *, #86, .F. ) ;
#224 = DIRECTION ( 'NONE',  ( 1.224646799147353207E-16, 1.000000000000000000, -0.000000000000000000 ) ) ;
#225 = ORIENTED_EDGE ( 'NONE', *, *, #333, .F. ) ;
#226 = CYLINDRICAL_SURFACE ( 'NONE', #124, 7.000000000000000000 ) ;
#227 = AXIS2_PLACEMENT_3D ( 'NONE', #14, #111, #171 ) ;
#228 = CALENDAR_DATE ( 2022, 8, 7 ) ;
#229 = FACE_BOUND ( 'NONE', #208, .T. ) ;
#230 = APPROVAL ( #150, 'NEURÈENÝ' ) ;
#231 = CARTESIAN_POINT ( 'NONE',  ( 0.000000000000000000, 0.000000000000000000, 0.000000000000000000 ) ) ;
#232 = VECTOR ( 'NONE', #122, 1000.000000000000000 ) ;
#233 = ADVANCED_FACE ( 'NONE', ( #249 ), #20, .T. ) ;
#234 = CARTESIAN_POINT ( 'NONE',  ( 0.000000000000000000, 0.000000000000000000, 355.0000000000000000 ) ) ;
#235 = DIRECTION ( 'NONE',  ( 1.000000000000000000, 0.000000000000000000, 0.000000000000000000 ) ) ;
#236 = ORIENTED_EDGE ( 'NONE', *, *, #39, .T. ) ;
#237 = PERSON_AND_ORGANIZATION ( #323, #164 ) ;
#238 = APPROVAL_STATUS ( 'not_yet_approved' ) ;
#239 = ORIENTED_EDGE ( 'NONE', *, *, #202, .F. ) ;
#240 = AXIS2_PLACEMENT_3D ( 'NONE', #115, #154, #177 ) ;
#241 = ORIENTED_EDGE ( 'NONE', *, *, #63, .F. ) ;
#242 = FACE_OUTER_BOUND ( 'NONE', #215, .T. ) ;
#243 = FACE_OUTER_BOUND ( 'NONE', #306, .T. ) ;
#244 = CARTESIAN_POINT ( 'NONE',  ( 0.000000000000000000, 0.000000000000000000, 0.000000000000000000 ) ) ;
#245 = VERTEX_POINT ( 'NONE', #317 ) ;
#246 = AXIS2_PLACEMENT_3D ( 'NONE', #119, #87, #180 ) ;
#247 = ORIENTED_EDGE ( 'NONE', *, *, #158, .T. ) ;
#248 = ORIENTED_EDGE ( 'NONE', *, *, #316, .T. ) ;
#249 = FACE_OUTER_BOUND ( 'NONE', #149, .T. ) ;
#250 = AXIS2_PLACEMENT_3D ( 'NONE', #231, #256, #315 ) ;
#251 = CC_DESIGN_SECURITY_CLASSIFICATION ( #53, ( #255 ) ) ;
#252 = DATE_AND_TIME ( #137, #214 ) ;
#253 = DIRECTION ( 'NONE',  ( -1.000000000000000000, 0.000000000000000000, 0.000000000000000000 ) ) ;
#254 = DIRECTION ( 'NONE',  ( -0.000000000000000000, -0.000000000000000000, -1.000000000000000000 ) ) ;
#255 = PRODUCT_DEFINITION_FORMATION_WITH_SPECIFIED_SOURCE ( 'LIBOVOLNÝ', '', #320, .NOT_KNOWN. ) ;
#256 = DIRECTION ( 'NONE',  ( 0.000000000000000000, 0.000000000000000000, 1.000000000000000000 ) ) ;
#257 = CC_DESIGN_PERSON_AND_ORGANIZATION_ASSIGNMENT ( #82, #201, ( #116 ) ) ;
#258 = CARTESIAN_POINT ( 'NONE',  ( 0.000000000000000000, 0.000000000000000000, 355.0000000000000000 ) ) ;
#259 = ORIENTED_EDGE ( 'NONE', *, *, #158, .F. ) ;
#260 = CARTESIAN_POINT ( 'NONE',  ( 7.000000000000000000, 8.572527594031473190E-16, 5.000000000000000000 ) ) ;
#261 = DIRECTION ( 'NONE',  ( 1.000000000000000000, 0.000000000000000000, 0.000000000000000000 ) ) ;
#262 = ADVANCED_FACE ( 'NONE', ( #54 ), #151, .T. ) ;
#263 = DIRECTION ( 'NONE',  ( 1.000000000000000000, 0.000000000000000000, 0.000000000000000000 ) ) ;
#264 = EDGE_CURVE ( 'NONE', #303, #279, #221, .T. ) ;
#265 = AXIS2_PLACEMENT_3D ( 'NONE', #307, #194, #6 ) ;
#266 = DIRECTION ( 'NONE',  ( -0.000000000000000000, -0.000000000000000000, -1.000000000000000000 ) ) ;
#267 = CARTESIAN_POINT ( 'NONE',  ( 0.000000000000000000, 0.000000000000000000, 355.0000000000000000 ) ) ;
#268 = PERSON_AND_ORGANIZATION_ROLE ( 'creator' ) ;
#269 = CARTESIAN_POINT ( 'NONE',  ( 4.500000000000000888, 0.000000000000000000, 5.000000000000002665 ) ) ;
#270 = ORIENTED_EDGE ( 'NONE', *, *, #56, .T. ) ;
#271 = VERTEX_POINT ( 'NONE', #36 ) ;
#272 = FACE_OUTER_BOUND ( 'NONE', #130, .T. ) ;
#273 = AXIS2_PLACEMENT_3D ( 'NONE', #343, #373, #139 ) ;
#274 = VERTEX_POINT ( 'NONE', #2 ) ;
#275 = CARTESIAN_POINT ( 'NONE',  ( -4.500000000000000888, 5.510910596163089556E-16, 5.500000000000005329 ) ) ;
#276 = VERTEX_POINT ( 'NONE', #293 ) ;
#277 = DIRECTION ( 'NONE',  ( 0.000000000000000000, 0.000000000000000000, 1.000000000000000000 ) ) ;
#278 = CC_DESIGN_PERSON_AND_ORGANIZATION_ASSIGNMENT ( #117, #325, ( #53 ) ) ;
#279 = VERTEX_POINT ( 'NONE', #176 ) ;
#280 = CARTESIAN_POINT ( 'NONE',  ( 0.000000000000000000, 0.000000000000000000, 5.500000000000005329 ) ) ;
#281 = APPLICATION_CONTEXT ( 'configuration controlled 3d designs of mechanical parts and assemblies' ) ;
#282 = EDGE_CURVE ( 'NONE', #327, #187, #298, .T. ) ;
#283 = AXIS2_PLACEMENT_3D ( 'NONE', #81, #367, #16 ) ;
#284 = MANIFOLD_SOLID_BREP ( 'Odebrat vysunutím3', #173 ) ;
#285 = CIRCLE ( 'NONE', #120, 4.000000000000000000 ) ;
#286 = PRODUCT_DEFINITION_SHAPE ( 'NONE', 'NONE',  #116 ) ;
#287 = PLANE ( 'NONE',  #273 ) ;
#288 = CIRCLE ( 'NONE', #162, 2.500000000000000000 ) ;
#289 = AXIS2_PLACEMENT_3D ( 'NONE', #62, #324, #261 ) ;
#290 = PERSON_AND_ORGANIZATION ( #323, #164 ) ;
#291 = COORDINATED_UNIVERSAL_TIME_OFFSET ( 1, 0, .AHEAD. ) ;
#292 = EDGE_CURVE ( 'NONE', #8, #279, #299, .T. ) ;
#293 = CARTESIAN_POINT ( 'NONE',  ( 4.000000000000000000, 4.898587196589412829E-16, 5.500000000000005329 ) ) ;
#294 = EDGE_CURVE ( 'NONE', #276, #69, #129, .T. ) ;
#295 = ADVANCED_BREP_SHAPE_REPRESENTATION ( 'cbd5', ( #284, #250 ), #368 ) ;
#296 = DATE_AND_TIME ( #144, #304 ) ;
#297 = CC_DESIGN_DATE_AND_TIME_ASSIGNMENT ( #199, #169, ( #116 ) ) ;
#298 = CIRCLE ( 'NONE', #289, 4.500000000000000888 ) ;
#299 = LINE ( 'NONE', #260, #314 ) ;
#300 = ORIENTED_EDGE ( 'NONE', *, *, #264, .T. ) ;
#301 = EDGE_LOOP ( 'NONE', ( #241, #270, #152, #59 ) ) ;
#302 = EDGE_LOOP ( 'NONE', ( #193, #104, #211, #259 ) ) ;
#303 = VERTEX_POINT ( 'NONE', #147 ) ;
#304 = LOCAL_TIME ( 17, 19, 32.00000000000000000, #291 ) ;
#305 = FACE_OUTER_BOUND ( 'NONE', #361, .T. ) ;
#306 = EDGE_LOOP ( 'NONE', ( #318, #332, #93, #219 ) ) ;
#307 = CARTESIAN_POINT ( 'NONE',  ( 0.000000000000000000, 0.000000000000000000, 5.500000000000005329 ) ) ;
#308 = DESIGN_CONTEXT ( 'detailed design', #281, 'design' ) ;
#309 = ORIENTED_EDGE ( 'NONE', *, *, #133, .F. ) ;
#310 = CARTESIAN_POINT ( 'NONE',  ( 0.000000000000000000, 0.000000000000000000, 5.000000000000000000 ) ) ;
#311 = CIRCLE ( 'NONE', #227, 0.5000000000000004441 ) ;
#312 = EDGE_CURVE ( 'NONE', #274, #366, #77, .T. ) ;
#313 = APPROVAL_STATUS ( 'not_yet_approved' ) ;
#314 = VECTOR ( 'NONE', #29, 1000.000000000000000 ) ;
#315 = DIRECTION ( 'NONE',  ( 1.000000000000000000, 0.000000000000000000, 0.000000000000000000 ) ) ;
#316 = EDGE_CURVE ( 'NONE', #184, #276, #34, .T. ) ;
#317 = CARTESIAN_POINT ( 'NONE',  ( -7.000000000000000000, 0.000000000000000000, 5.000000000000000000 ) ) ;
#318 = ORIENTED_EDGE ( 'NONE', *, *, #50, .F. ) ;
#319 = PLANE ( 'NONE',  #283 ) ;
#320 = PRODUCT ( 'cbd5', 'cbd5', '', ( #141 ) ) ;
#321 = CALENDAR_DATE ( 2022, 8, 7 ) ;
#322 = AXIS2_PLACEMENT_3D ( 'NONE', #30, #84, #145 ) ;
#323 = PERSON ( 'NEURÈENÝ', 'NEURÈENÝ', 'NEURÈENÝ', ('NEURÈENÝ'), ('NEURÈENÝ'), ('NEURÈENÝ') ) ;
#324 = DIRECTION ( 'NONE',  ( -0.000000000000000000, -0.000000000000000000, -1.000000000000000000 ) ) ;
#325 = PERSON_AND_ORGANIZATION_ROLE ( 'classification_officer' ) ;
#326 = DIRECTION ( 'NONE',  ( 1.000000000000000000, 0.000000000000000000, 0.000000000000000000 ) ) ;
#327 = VERTEX_POINT ( 'NONE', #269 ) ;
#328 = CARTESIAN_POINT ( 'NONE',  ( 4.000000000000000000, 4.898587196589412829E-16, 355.0000000000000000 ) ) ;
#329 = DIRECTION ( 'NONE',  ( 1.000000000000000000, 0.000000000000000000, 0.000000000000000000 ) ) ;
#330 = ORIENTED_EDGE ( 'NONE', *, *, #202, .T. ) ;
#331 = DIRECTION ( 'NONE',  ( 1.000000000000000000, 0.000000000000000000, 0.000000000000000000 ) ) ;
#332 = ORIENTED_EDGE ( 'NONE', *, *, #18, .T. ) ;
#333 = EDGE_CURVE ( 'NONE', #271, #69, #381, .T. ) ;
#334 = CARTESIAN_POINT ( 'NONE',  ( 0.000000000000000000, 0.000000000000000000, 355.0000000000000000 ) ) ;
#335 = CIRCLE ( 'NONE', #362, 2.500000000000000000 ) ;
#336 = APPROVAL_PERSON_ORGANIZATION ( #19, #230, #33 ) ;
#337 = CYLINDRICAL_SURFACE ( 'NONE', #181, 2.500000000000000000 ) ;
#338 = DIRECTION ( 'NONE',  ( 0.000000000000000000, 0.000000000000000000, -1.000000000000000000 ) ) ;
#339 = DIRECTION ( 'NONE',  ( -1.000000000000000000, 1.224646799147351482E-16, 0.000000000000000000 ) ) ;
#340 = VERTEX_POINT ( 'NONE', #356 ) ;
#341 = DIRECTION ( 'NONE',  ( -1.000000000000000000, 0.000000000000000000, 0.000000000000000000 ) ) ;
#342 = CARTESIAN_POINT ( 'NONE',  ( -4.500000000000000888, 5.510910596163088569E-16, 5.000000000000002665 ) ) ;
#343 = CARTESIAN_POINT ( 'NONE',  ( 0.000000000000000000, 0.000000000000000000, 0.000000000000000000 ) ) ;
#344 = CIRCLE ( 'NONE', #1, 4.000000000000000000 ) ;
#345 = ADVANCED_FACE ( 'NONE', ( #220, #272 ), #40, .T. ) ;
#346 = AXIS2_PLACEMENT_3D ( 'NONE', #66, #363, #131 ) ;
#347 = APPLICATION_CONTEXT ( 'configuration controlled 3d designs of mechanical parts and assemblies' ) ;
#348 = DIRECTION ( 'NONE',  ( 1.000000000000000000, 0.000000000000000000, 0.000000000000000000 ) ) ;
#349 = CARTESIAN_POINT ( 'NONE',  ( 0.000000000000000000, 0.000000000000000000, 5.500000000000005329 ) ) ;
#350 = CIRCLE ( 'NONE', #32, 7.000000000000000000 ) ;
#351 = CC_DESIGN_PERSON_AND_ORGANIZATION_ASSIGNMENT ( #290, #352, ( #255 ) ) ;
#352 = PERSON_AND_ORGANIZATION_ROLE ( 'design_supplier' ) ;
#353 = CARTESIAN_POINT ( 'NONE',  ( 7.000000000000000000, 8.572527594031473190E-16, 5.000000000000000000 ) ) ;
#354 = COORDINATED_UNIVERSAL_TIME_OFFSET ( 1, 0, .AHEAD. ) ;
#355 = CARTESIAN_POINT ( 'NONE',  ( 0.000000000000000000, 0.000000000000000000, 0.000000000000000000 ) ) ;
#356 = CARTESIAN_POINT ( 'NONE',  ( -2.500000000000000000, 0.000000000000000000, 355.0000000000000000 ) ) ;
#357 = ORIENTED_EDGE ( 'NONE', *, *, #264, .F. ) ;
#358 = DIRECTION ( 'NONE',  ( -0.000000000000000000, -0.000000000000000000, -1.000000000000000000 ) ) ;
#359 = ADVANCED_FACE ( 'NONE', ( #243 ), #337, .F. ) ;
#360 = ORIENTED_EDGE ( 'NONE', *, *, #282, .T. ) ;
#361 = EDGE_LOOP ( 'NONE', ( #73, #11, #247, #300 ) ) ;
#362 = AXIS2_PLACEMENT_3D ( 'NONE', #234, #200, #348 ) ;
#363 = DIRECTION ( 'NONE',  ( 0.000000000000000000, 0.000000000000000000, 1.000000000000000000 ) ) ;
#364 = ORIENTED_EDGE ( 'NONE', *, *, #39, .F. ) ;
#365 = CARTESIAN_POINT ( 'NONE',  ( 2.500000000000000000, 3.061616997868383141E-16, 355.0000000000000000 ) ) ;
#366 = VERTEX_POINT ( 'NONE', #12 ) ;
#367 = DIRECTION ( 'NONE',  ( 0.000000000000000000, 0.000000000000000000, 1.000000000000000000 ) ) ;
#368 =( GEOMETRIC_REPRESENTATION_CONTEXT ( 3 ) GLOBAL_UNCERTAINTY_ASSIGNED_CONTEXT ( ( #42 ) ) GLOBAL_UNIT_ASSIGNED_CONTEXT ( ( #46, #165, #4 ) ) REPRESENTATION_CONTEXT ( 'NONE', 'WORKASPACE' ) );
#369 = APPROVAL_DATE_TIME ( #252, #197 ) ;
#370 = FACE_BOUND ( 'NONE', #71, .T. ) ;
#371 = PRODUCT_RELATED_PRODUCT_CATEGORY ( 'detail', '', ( #320 ) ) ;
#372 = COORDINATED_UNIVERSAL_TIME_OFFSET ( 1, 0, .AHEAD. ) ;
#373 = DIRECTION ( 'NONE',  ( 0.000000000000000000, 0.000000000000000000, 1.000000000000000000 ) ) ;
#374 = APPROVAL_PERSON_ORGANIZATION ( #167, #197, #15 ) ;
#375 = DIRECTION ( 'NONE',  ( 0.000000000000000000, 0.000000000000000000, 1.000000000000000000 ) ) ;
#376 = COORDINATED_UNIVERSAL_TIME_OFFSET ( 1, 0, .AHEAD. ) ;
#377 = CC_DESIGN_APPROVAL ( #230, ( #255 ) ) ;
#378 = PERSON_AND_ORGANIZATION ( #323, #164 ) ;
#379 = DIRECTION ( 'NONE',  ( 0.000000000000000000, 0.000000000000000000, 1.000000000000000000 ) ) ;
#380 = SECURITY_CLASSIFICATION_LEVEL ( 'unclassified' ) ;
#381 = LINE ( 'NONE', #213, #232 ) ;
ENDSEC;
END-ISO-10303-21;
