ISO-10303-21;
HEADER;
FILE_DESCRIPTION (( 'STEP AP203' ),
    '1' );
FILE_NAME ('6a35.STEP',
    '2022-07-08T15:31:09',
    ( '' ),
    ( '' ),
    'SwSTEP 2.0',
    'SolidWorks 2019',
    '' );
FILE_SCHEMA (( 'CONFIG_CONTROL_DESIGN' ));
ENDSEC;

DATA;
#1 = ORIENTED_EDGE ( 'NONE', *, *, #208, .F. ) ;
#2 = COORDINATED_UNIVERSAL_TIME_OFFSET ( 1, 0, .AHEAD. ) ;
#3 = ORIENTED_EDGE ( 'NONE', *, *, #301, .F. ) ;
#4 = COORDINATED_UNIVERSAL_TIME_OFFSET ( 1, 0, .AHEAD. ) ;
#5 = VERTEX_POINT ( 'NONE', #8 ) ;
#6 = CIRCLE ( 'NONE', #45, 4.000000000000000000 ) ;
#7 = VECTOR ( 'NONE', #270, 1000.000000000000000 ) ;
#8 = CARTESIAN_POINT ( 'NONE',  ( -2.000000000000000000, 0.000000000000000000, 0.000000000000000000 ) ) ;
#9 = EDGE_CURVE ( 'NONE', #40, #22, #229, .T. ) ;
#10 = DIRECTION ( 'NONE',  ( 1.000000000000000000, 0.000000000000000000, 0.000000000000000000 ) ) ;
#11 = DIRECTION ( 'NONE',  ( -0.000000000000000000, -0.000000000000000000, -1.000000000000000000 ) ) ;
#12 = AXIS2_PLACEMENT_3D ( 'NONE', #185, #182, #68 ) ;
#13 = FACE_OUTER_BOUND ( 'NONE', #280, .T. ) ;
#14 = LINE ( 'NONE', #15, #7 ) ;
#15 = CARTESIAN_POINT ( 'NONE',  ( -7.000000000000000000, 0.000000000000000000, 5.000000000000000000 ) ) ;
#16 = ADVANCED_FACE ( 'NONE', ( #196 ), #289, .T. ) ;
#17 = CIRCLE ( 'NONE', #93, 4.000000000000000000 ) ;
#18 = FACE_OUTER_BOUND ( 'NONE', #38, .T. ) ;
#19 = VERTEX_POINT ( 'NONE', #255 ) ;
#20 = DIRECTION ( 'NONE',  ( 0.000000000000000000, 0.000000000000000000, -1.000000000000000000 ) ) ;
#21 = DIRECTION ( 'NONE',  ( 0.000000000000000000, 0.000000000000000000, 1.000000000000000000 ) ) ;
#22 = VERTEX_POINT ( 'NONE', #198 ) ;
#23 = ADVANCED_FACE ( 'NONE', ( #322 ), #60, .T. ) ;
#24 = CARTESIAN_POINT ( 'NONE',  ( 0.000000000000000000, 0.000000000000000000, 5.000000000000000000 ) ) ;
#25 = AXIS2_PLACEMENT_3D ( 'NONE', #315, #73, #52 ) ;
#26 = CARTESIAN_POINT ( 'NONE',  ( 0.000000000000000000, 0.000000000000000000, 0.000000000000000000 ) ) ;
#27 = PRODUCT_DEFINITION ( 'NEZNÁMÝ', '', #86, #286 ) ;
#28 = EDGE_LOOP ( 'NONE', ( #252, #377, #48, #82 ) ) ;
#29 = ORIENTED_EDGE ( 'NONE', *, *, #356, .T. ) ;
#30 = APPROVAL_DATE_TIME ( #169, #256 ) ;
#31 = AXIS2_PLACEMENT_3D ( 'NONE', #158, #96, #264 ) ;
#32 = DIRECTION ( 'NONE',  ( -0.000000000000000000, -0.000000000000000000, -1.000000000000000000 ) ) ;
#33 = EDGE_CURVE ( 'NONE', #100, #225, #35, .T. ) ;
#34 = APPROVAL_ROLE ( '' ) ;
#35 = LINE ( 'NONE', #352, #323 ) ;
#36 = PRODUCT_RELATED_PRODUCT_CATEGORY ( 'detail', '', ( #181 ) ) ;
#37 = APPLICATION_PROTOCOL_DEFINITION ( 'international standard', 'config_control_design', 1994, #282 ) ;
#38 = EDGE_LOOP ( 'NONE', ( #261, #294, #146, #79 ) ) ;
#39 = APPROVAL_STATUS ( 'not_yet_approved' ) ;
#40 = VERTEX_POINT ( 'NONE', #202 ) ;
#41 = AXIS2_PLACEMENT_3D ( 'NONE', #219, #284, #243 ) ;
#42 = FACE_OUTER_BOUND ( 'NONE', #170, .T. ) ;
#43 = LINE ( 'NONE', #180, #131 ) ;
#44 = DIRECTION ( 'NONE',  ( 0.000000000000000000, 0.000000000000000000, 1.000000000000000000 ) ) ;
#45 = AXIS2_PLACEMENT_3D ( 'NONE', #328, #44, #154 ) ;
#46 = FACE_OUTER_BOUND ( 'NONE', #84, .T. ) ;
#47 = CARTESIAN_POINT ( 'NONE',  ( 0.000000000000000000, 0.000000000000000000, 5.000000000000000000 ) ) ;
#48 = ORIENTED_EDGE ( 'NONE', *, *, #101, .T. ) ;
#49 = DIRECTION ( 'NONE',  ( 1.000000000000000000, 0.000000000000000000, 0.000000000000000000 ) ) ;
#50 = CARTESIAN_POINT ( 'NONE',  ( 0.000000000000000000, 0.000000000000000000, 305.0000000000000000 ) ) ;
#51 = AXIS2_PLACEMENT_3D ( 'NONE', #95, #152, #359 ) ;
#52 = DIRECTION ( 'NONE',  ( -1.000000000000000000, 1.224646799147351482E-16, 0.000000000000000000 ) ) ;
#53 = UNCERTAINTY_MEASURE_WITH_UNIT (LENGTH_MEASURE( 1.000000000000000082E-05 ), #370, 'distance_accuracy_value', 'NONE');
#54 = APPROVAL_STATUS ( 'not_yet_approved' ) ;
#55 = ORIENTED_EDGE ( 'NONE', *, *, #9, .F. ) ;
#56 = PERSON_AND_ORGANIZATION ( #378, #339 ) ;
#57 = ORIENTED_EDGE ( 'NONE', *, *, #145, .F. ) ;
#58 = APPROVAL_DATE_TIME ( #83, #111 ) ;
#59 = CIRCLE ( 'NONE', #25, 0.5000000000000004441 ) ;
#60 = CYLINDRICAL_SURFACE ( 'NONE', #155, 7.000000000000000000 ) ;
#61 = ORIENTED_EDGE ( 'NONE', *, *, #244, .F. ) ;
#62 = PERSON_AND_ORGANIZATION ( #378, #339 ) ;
#63 = EDGE_LOOP ( 'NONE', ( #313, #144, #326, #76 ) ) ;
#64 = DIRECTION ( 'NONE',  ( 1.000000000000000000, 0.000000000000000000, 0.000000000000000000 ) ) ;
#65 = AXIS2_PLACEMENT_3D ( 'NONE', #50, #166, #135 ) ;
#66 = CARTESIAN_POINT ( 'NONE',  ( 2.000000000000000000, 2.449293598294706414E-16, 0.000000000000000000 ) ) ;
#67 = EDGE_CURVE ( 'NONE', #89, #114, #372, .T. ) ;
#68 = DIRECTION ( 'NONE',  ( 1.000000000000000000, 0.000000000000000000, 0.000000000000000000 ) ) ;
#69 = DIRECTION ( 'NONE',  ( -0.000000000000000000, -0.000000000000000000, -1.000000000000000000 ) ) ;
#70 = LOCAL_TIME ( 17, 31, 9.000000000000000000, #354 ) ;
#71 = DIRECTION ( 'NONE',  ( -0.000000000000000000, -0.000000000000000000, -1.000000000000000000 ) ) ;
#72 = DIRECTION ( 'NONE',  ( 1.000000000000000000, 0.000000000000000000, 0.000000000000000000 ) ) ;
#73 = DIRECTION ( 'NONE',  ( 1.224646799147353207E-16, 1.000000000000000000, -0.000000000000000000 ) ) ;
#74 = AXIS2_PLACEMENT_3D ( 'NONE', #47, #275, #72 ) ;
#75 =( NAMED_UNIT ( * ) PLANE_ANGLE_UNIT ( ) SI_UNIT ( $, .RADIAN. ) );
#76 = ORIENTED_EDGE ( 'NONE', *, *, #171, .F. ) ;
#77 = CYLINDRICAL_SURFACE ( 'NONE', #380, 2.000000000000000000 ) ;
#78 = DIRECTION ( 'NONE',  ( 1.000000000000000000, 0.000000000000000000, 0.000000000000000000 ) ) ;
#79 = ORIENTED_EDGE ( 'NONE', *, *, #297, .T. ) ;
#80 = CIRCLE ( 'NONE', #361, 2.000000000000000000 ) ;
#81 = CALENDAR_DATE ( 2022, 8, 7 ) ;
#82 = ORIENTED_EDGE ( 'NONE', *, *, #199, .T. ) ;
#83 = DATE_AND_TIME ( #347, #324 ) ;
#84 = EDGE_LOOP ( 'NONE', ( #311, #29, #278, #112 ) ) ;
#85 = PERSON_AND_ORGANIZATION ( #378, #339 ) ;
#86 = PRODUCT_DEFINITION_FORMATION_WITH_SPECIFIED_SOURCE ( 'LIBOVOLNÝ', '', #181, .NOT_KNOWN. ) ;
#87 = DIRECTION ( 'NONE',  ( -0.000000000000000000, -0.000000000000000000, -1.000000000000000000 ) ) ;
#88 = DATE_TIME_ROLE ( 'creation_date' ) ;
#89 = VERTEX_POINT ( 'NONE', #330 ) ;
#90 = CARTESIAN_POINT ( 'NONE',  ( 4.000000000000000000, 4.898587196589412829E-16, 305.0000000000000000 ) ) ;
#91 = ADVANCED_FACE ( 'NONE', ( #238, #298 ), #211, .T. ) ;
#92 = DIRECTION ( 'NONE',  ( 1.000000000000000000, 0.000000000000000000, -0.000000000000000000 ) ) ;
#93 = AXIS2_PLACEMENT_3D ( 'NONE', #138, #272, #78 ) ;
#94 = DIRECTION ( 'NONE',  ( 1.000000000000000000, 0.000000000000000000, -0.000000000000000000 ) ) ;
#95 = CARTESIAN_POINT ( 'NONE',  ( 0.000000000000000000, 0.000000000000000000, 305.0000000000000000 ) ) ;
#96 = DIRECTION ( 'NONE',  ( -0.000000000000000000, -0.000000000000000000, -1.000000000000000000 ) ) ;
#97 = AXIS2_PLACEMENT_3D ( 'NONE', #206, #69, #129 ) ;
#98 = CARTESIAN_POINT ( 'NONE',  ( -2.000000000000000000, 0.000000000000000000, 305.0000000000000000 ) ) ;
#99 = CARTESIAN_POINT ( 'NONE',  ( 0.000000000000000000, 0.000000000000000000, 5.000000000000000000 ) ) ;
#100 = VERTEX_POINT ( 'NONE', #304 ) ;
#101 = EDGE_CURVE ( 'NONE', #150, #103, #14, .T. ) ;
#102 = CYLINDRICAL_SURFACE ( 'NONE', #262, 4.000000000000000000 ) ;
#103 = VERTEX_POINT ( 'NONE', #233 ) ;
#104 = APPROVAL_PERSON_ORGANIZATION ( #222, #111, #319 ) ;
#105 = EDGE_LOOP ( 'NONE', ( #308, #204 ) ) ;
#106 = CARTESIAN_POINT ( 'NONE',  ( 0.000000000000000000, 0.000000000000000000, 305.0000000000000000 ) ) ;
#107 = ADVANCED_FACE ( 'NONE', ( #46 ), #165, .F. ) ;
#108 = AXIS2_PLACEMENT_3D ( 'NONE', #122, #237, #64 ) ;
#109 = PERSON_AND_ORGANIZATION_ROLE ( 'design_supplier' ) ;
#110 = EDGE_LOOP ( 'NONE', ( #55, #250, #162, #276 ) ) ;
#111 = APPROVAL ( #39, 'NEURÈENÝ' ) ;
#112 = ORIENTED_EDGE ( 'NONE', *, *, #309, .F. ) ;
#113 = PERSON_AND_ORGANIZATION ( #378, #339 ) ;
#114 = VERTEX_POINT ( 'NONE', #234 ) ;
#115 = PERSON_AND_ORGANIZATION ( #378, #339 ) ;
#116 = CIRCLE ( 'NONE', #108, 7.000000000000000000 ) ;
#117 = EDGE_LOOP ( 'NONE', ( #295, #139, #245, #1 ) ) ;
#118 = LOCAL_TIME ( 17, 31, 9.000000000000000000, #379 ) ;
#119 = EDGE_LOOP ( 'NONE', ( #3, #369 ) ) ;
#120 = PRODUCT_DEFINITION_SHAPE ( 'NONE', 'NONE',  #27 ) ;
#121 = DIRECTION ( 'NONE',  ( 0.000000000000000000, 0.000000000000000000, 1.000000000000000000 ) ) ;
#122 = CARTESIAN_POINT ( 'NONE',  ( 0.000000000000000000, 0.000000000000000000, 0.000000000000000000 ) ) ;
#123 = CLOSED_SHELL ( 'NONE', ( #358, #107, #258, #16, #23, #343, #210, #271, #91, #214, #331 ) ) ;
#124 = AXIS2_PLACEMENT_3D ( 'NONE', #26, #335, #279 ) ;
#125 = CC_DESIGN_PERSON_AND_ORGANIZATION_ASSIGNMENT ( #56, #109, ( #86 ) ) ;
#126 = DIRECTION ( 'NONE',  ( 0.000000000000000000, 0.000000000000000000, -1.000000000000000000 ) ) ;
#127 = DIRECTION ( 'NONE',  ( 0.000000000000000000, 0.000000000000000000, -1.000000000000000000 ) ) ;
#128 = EDGE_CURVE ( 'NONE', #178, #5, #80, .T. ) ;
#129 = DIRECTION ( 'NONE',  ( 1.000000000000000000, 0.000000000000000000, 0.000000000000000000 ) ) ;
#130 = APPROVAL ( #54, 'NEURÈENÝ' ) ;
#131 = VECTOR ( 'NONE', #71, 1000.000000000000000 ) ;
#132 = LOCAL_TIME ( 17, 31, 9.000000000000000000, #2 ) ;
#133 = CYLINDRICAL_SURFACE ( 'NONE', #41, 4.000000000000000000 ) ;
#134 = ORIENTED_EDGE ( 'NONE', *, *, #309, .T. ) ;
#135 = DIRECTION ( 'NONE',  ( -1.000000000000000000, 0.000000000000000000, 0.000000000000000000 ) ) ;
#136 = AXIS2_PLACEMENT_3D ( 'NONE', #99, #21, #164 ) ;
#137 = CARTESIAN_POINT ( 'NONE',  ( -4.000000000000000000, 0.000000000000000000, 5.500000000000005329 ) ) ;
#138 = CARTESIAN_POINT ( 'NONE',  ( 0.000000000000000000, 0.000000000000000000, 5.500000000000005329 ) ) ;
#139 = ORIENTED_EDGE ( 'NONE', *, *, #9, .T. ) ;
#140 = EDGE_LOOP ( 'NONE', ( #355, #223 ) ) ;
#141 = DIRECTION ( 'NONE',  ( -1.000000000000000000, 0.000000000000000000, 0.000000000000000000 ) ) ;
#142 = EDGE_CURVE ( 'NONE', #40, #19, #253, .T. ) ;
#143 = APPROVAL_DATE_TIME ( #260, #130 ) ;
#144 = ORIENTED_EDGE ( 'NONE', *, *, #151, .T. ) ;
#145 = EDGE_CURVE ( 'NONE', #114, #89, #374, .T. ) ;
#146 = ORIENTED_EDGE ( 'NONE', *, *, #171, .T. ) ;
#147 = DATE_TIME_ROLE ( 'classification_date' ) ;
#148 = TOROIDAL_SURFACE ( 'NONE', #345, 4.500000000000000888, 0.5000000000000000000 ) ;
#149 = APPROVAL_PERSON_ORGANIZATION ( #85, #256, #251 ) ;
#150 = VERTEX_POINT ( 'NONE', #207 ) ;
#151 = EDGE_CURVE ( 'NONE', #346, #178, #303, .T. ) ;
#152 = DIRECTION ( 'NONE',  ( 0.000000000000000000, 0.000000000000000000, 1.000000000000000000 ) ) ;
#153 = DIRECTION ( 'NONE',  ( 0.000000000000000000, 0.000000000000000000, 1.000000000000000000 ) ) ;
#154 = DIRECTION ( 'NONE',  ( 1.000000000000000000, 0.000000000000000000, 0.000000000000000000 ) ) ;
#155 = AXIS2_PLACEMENT_3D ( 'NONE', #176, #174, #292 ) ;
#156 = LOCAL_TIME ( 17, 31, 9.000000000000000000, #4 ) ;
#157 = CARTESIAN_POINT ( 'NONE',  ( 2.000000000000000000, 2.449293598294706414E-16, 305.0000000000000000 ) ) ;
#158 = CARTESIAN_POINT ( 'NONE',  ( 0.000000000000000000, 0.000000000000000000, 5.000000000000000000 ) ) ;
#159 = FACE_OUTER_BOUND ( 'NONE', #110, .T. ) ;
#160 =( GEOMETRIC_REPRESENTATION_CONTEXT ( 3 ) GLOBAL_UNCERTAINTY_ASSIGNED_CONTEXT ( ( #53 ) ) GLOBAL_UNIT_ASSIGNED_CONTEXT ( ( #370, #75, #312 ) ) REPRESENTATION_CONTEXT ( 'NONE', 'WORKASPACE' ) );
#161 = CARTESIAN_POINT ( 'NONE',  ( 0.000000000000000000, 0.000000000000000000, 305.0000000000000000 ) ) ;
#162 = ORIENTED_EDGE ( 'NONE', *, *, #208, .T. ) ;
#163 = CC_DESIGN_PERSON_AND_ORGANIZATION_ASSIGNMENT ( #113, #287, ( #86 ) ) ;
#164 = DIRECTION ( 'NONE',  ( 1.000000000000000000, 0.000000000000000000, -0.000000000000000000 ) ) ;
#165 = TOROIDAL_SURFACE ( 'NONE', #296, 4.500000000000000888, 0.5000000000000000000 ) ;
#166 = DIRECTION ( 'NONE',  ( 0.000000000000000000, 0.000000000000000000, -1.000000000000000000 ) ) ;
#167 = PERSON_AND_ORGANIZATION_ROLE ( 'creator' ) ;
#168 = EDGE_LOOP ( 'NONE', ( #227, #242 ) ) ;
#169 = DATE_AND_TIME ( #224, #118 ) ;
#170 = EDGE_LOOP ( 'NONE', ( #348, #350 ) ) ;
#171 = EDGE_CURVE ( 'NONE', #320, #5, #236, .T. ) ;
#172 = AXIS2_PLACEMENT_3D ( 'NONE', #24, #241, #341 ) ;
#173 = CC_DESIGN_APPROVAL ( #130, ( #86 ) ) ;
#174 = DIRECTION ( 'NONE',  ( -0.000000000000000000, -0.000000000000000000, -1.000000000000000000 ) ) ;
#175 = CALENDAR_DATE ( 2022, 8, 7 ) ;
#176 = CARTESIAN_POINT ( 'NONE',  ( 0.000000000000000000, 0.000000000000000000, 5.000000000000000000 ) ) ;
#177 = PERSON_AND_ORGANIZATION_ROLE ( 'classification_officer' ) ;
#178 = VERTEX_POINT ( 'NONE', #66 ) ;
#179 = CIRCLE ( 'NONE', #218, 2.000000000000000000 ) ;
#180 = CARTESIAN_POINT ( 'NONE',  ( -4.000000000000000000, 0.000000000000000000, 305.0000000000000000 ) ) ;
#181 = PRODUCT ( '6a35', '6a35', '', ( #349 ) ) ;
#182 = DIRECTION ( 'NONE',  ( 0.000000000000000000, 0.000000000000000000, 1.000000000000000000 ) ) ;
#183 = CC_DESIGN_PERSON_AND_ORGANIZATION_ASSIGNMENT ( #62, #197, ( #181 ) ) ;
#184 = CARTESIAN_POINT ( 'NONE',  ( 7.000000000000000000, 8.572527594031473190E-16, 0.000000000000000000 ) ) ;
#185 = CARTESIAN_POINT ( 'NONE',  ( 0.000000000000000000, 0.000000000000000000, 0.000000000000000000 ) ) ;
#186 = DIRECTION ( 'NONE',  ( 0.000000000000000000, 0.000000000000000000, 1.000000000000000000 ) ) ;
#187 = FACE_OUTER_BOUND ( 'NONE', #117, .T. ) ;
#188 = CARTESIAN_POINT ( 'NONE',  ( 0.000000000000000000, 0.000000000000000000, 305.0000000000000000 ) ) ;
#189 = AXIS2_PLACEMENT_3D ( 'NONE', #161, #220, #277 ) ;
#190 = DIRECTION ( 'NONE',  ( 0.000000000000000000, 0.000000000000000000, -1.000000000000000000 ) ) ;
#191 = EDGE_CURVE ( 'NONE', #225, #103, #273, .T. ) ;
#192 = DIRECTION ( 'NONE',  ( 1.000000000000000000, 0.000000000000000000, 0.000000000000000000 ) ) ;
#193 = CYLINDRICAL_SURFACE ( 'NONE', #65, 2.000000000000000000 ) ;
#194 = APPROVAL_STATUS ( 'not_yet_approved' ) ;
#195 = SECURITY_CLASSIFICATION_LEVEL ( 'unclassified' ) ;
#196 = FACE_OUTER_BOUND ( 'NONE', #259, .T. ) ;
#197 = PERSON_AND_ORGANIZATION_ROLE ( 'design_owner' ) ;
#198 = CARTESIAN_POINT ( 'NONE',  ( 4.000000000000000000, 4.898587196589412829E-16, 5.500000000000005329 ) ) ;
#199 = EDGE_CURVE ( 'NONE', #103, #225, #116, .T. ) ;
#200 = VECTOR ( 'NONE', #127, 1000.000000000000000 ) ;
#201 = DATE_AND_TIME ( #175, #156 ) ;
#202 = CARTESIAN_POINT ( 'NONE',  ( 4.000000000000000000, 4.898587196589412829E-16, 305.0000000000000000 ) ) ;
#203 = PERSON_AND_ORGANIZATION ( #378, #339 ) ;
#204 = ORIENTED_EDGE ( 'NONE', *, *, #142, .T. ) ;
#205 = CARTESIAN_POINT ( 'NONE',  ( 0.000000000000000000, 0.000000000000000000, 5.000000000000000000 ) ) ;
#206 = CARTESIAN_POINT ( 'NONE',  ( 0.000000000000000000, 0.000000000000000000, 5.000000000000000000 ) ) ;
#207 = CARTESIAN_POINT ( 'NONE',  ( -7.000000000000000000, 0.000000000000000000, 5.000000000000000000 ) ) ;
#208 = EDGE_CURVE ( 'NONE', #19, #263, #43, .T. ) ;
#209 = CARTESIAN_POINT ( 'NONE',  ( 0.000000000000000000, 0.000000000000000000, 0.000000000000000000 ) ) ;
#210 = ADVANCED_FACE ( 'NONE', ( #363, #42 ), #269, .F. ) ;
#211 = PLANE ( 'NONE',  #333 ) ;
#212 = AXIS2_PLACEMENT_3D ( 'NONE', #267, #310, #49 ) ;
#213 = CIRCLE ( 'NONE', #212, 4.000000000000000000 ) ;
#214 = ADVANCED_FACE ( 'NONE', ( #13 ), #148, .F. ) ;
#215 = CARTESIAN_POINT ( 'NONE',  ( -2.000000000000000000, 0.000000000000000000, 305.0000000000000000 ) ) ;
#216 = CARTESIAN_POINT ( 'NONE',  ( 2.000000000000000000, 2.449293598294706414E-16, 305.0000000000000000 ) ) ;
#217 = EDGE_LOOP ( 'NONE', ( #231, #381 ) ) ;
#218 = AXIS2_PLACEMENT_3D ( 'NONE', #376, #375, #192 ) ;
#219 = CARTESIAN_POINT ( 'NONE',  ( 0.000000000000000000, 0.000000000000000000, 305.0000000000000000 ) ) ;
#220 = DIRECTION ( 'NONE',  ( 0.000000000000000000, 0.000000000000000000, 1.000000000000000000 ) ) ;
#221 = APPLICATION_CONTEXT ( 'configuration controlled 3d designs of mechanical parts and assemblies' ) ;
#222 = PERSON_AND_ORGANIZATION ( #378, #339 ) ;
#223 = ORIENTED_EDGE ( 'NONE', *, *, #128, .F. ) ;
#224 = CALENDAR_DATE ( 2022, 8, 7 ) ;
#225 = VERTEX_POINT ( 'NONE', #184 ) ;
#226 = CARTESIAN_POINT ( 'NONE',  ( 0.000000000000000000, 0.000000000000000000, 0.000000000000000000 ) ) ;
#227 = ORIENTED_EDGE ( 'NONE', *, *, #67, .T. ) ;
#228 = CALENDAR_DATE ( 2022, 8, 7 ) ;
#229 = LINE ( 'NONE', #90, #337 ) ;
#230 = CC_DESIGN_APPROVAL ( #111, ( #27 ) ) ;
#231 = ORIENTED_EDGE ( 'NONE', *, *, #299, .T. ) ;
#232 = ORIENTED_EDGE ( 'NONE', *, *, #240, .F. ) ;
#233 = CARTESIAN_POINT ( 'NONE',  ( -7.000000000000000000, 0.000000000000000000, 0.000000000000000000 ) ) ;
#234 = CARTESIAN_POINT ( 'NONE',  ( -4.500000000000000888, 5.510910596163088569E-16, 5.000000000000002665 ) ) ;
#235 = EDGE_CURVE ( 'NONE', #19, #40, #6, .T. ) ;
#236 = LINE ( 'NONE', #98, #200 ) ;
#237 = DIRECTION ( 'NONE',  ( 0.000000000000000000, 0.000000000000000000, 1.000000000000000000 ) ) ;
#238 = FACE_BOUND ( 'NONE', #119, .T. ) ;
#239 = CIRCLE ( 'NONE', #172, 7.000000000000000000 ) ;
#240 = EDGE_CURVE ( 'NONE', #22, #263, #213, .T. ) ;
#241 = DIRECTION ( 'NONE',  ( 0.000000000000000000, 0.000000000000000000, 1.000000000000000000 ) ) ;
#242 = ORIENTED_EDGE ( 'NONE', *, *, #145, .T. ) ;
#243 = DIRECTION ( 'NONE',  ( -1.000000000000000000, 0.000000000000000000, 0.000000000000000000 ) ) ;
#244 = EDGE_CURVE ( 'NONE', #100, #150, #246, .T. ) ;
#245 = ORIENTED_EDGE ( 'NONE', *, *, #240, .T. ) ;
#246 = CIRCLE ( 'NONE', #74, 7.000000000000000000 ) ;
#247 = SECURITY_CLASSIFICATION ( '', '', #195 ) ;
#248 = DIRECTION ( 'NONE',  ( -1.000000000000000000, 0.000000000000000000, 0.000000000000000000 ) ) ;
#249 = DIRECTION ( 'NONE',  ( -0.000000000000000000, -0.000000000000000000, -1.000000000000000000 ) ) ;
#250 = ORIENTED_EDGE ( 'NONE', *, *, #235, .F. ) ;
#251 = APPROVAL_ROLE ( '' ) ;
#252 = ORIENTED_EDGE ( 'NONE', *, *, #33, .F. ) ;
#253 = CIRCLE ( 'NONE', #51, 4.000000000000000000 ) ;
#254 = SHAPE_DEFINITION_REPRESENTATION ( #120, #327 ) ;
#255 = CARTESIAN_POINT ( 'NONE',  ( -4.000000000000000000, 0.000000000000000000, 305.0000000000000000 ) ) ;
#256 = APPROVAL ( #194, 'NEURÈENÝ' ) ;
#257 = DIRECTION ( 'NONE',  ( 0.000000000000000000, 0.000000000000000000, 1.000000000000000000 ) ) ;
#258 = ADVANCED_FACE ( 'NONE', ( #187 ), #133, .T. ) ;
#259 = EDGE_LOOP ( 'NONE', ( #61, #325, #340, #371 ) ) ;
#260 = DATE_AND_TIME ( #81, #70 ) ;
#261 = ORIENTED_EDGE ( 'NONE', *, *, #151, .F. ) ;
#262 = AXIS2_PLACEMENT_3D ( 'NONE', #106, #249, #248 ) ;
#263 = VERTEX_POINT ( 'NONE', #137 ) ;
#264 = DIRECTION ( 'NONE',  ( 1.000000000000000000, 0.000000000000000000, 0.000000000000000000 ) ) ;
#265 = CARTESIAN_POINT ( 'NONE',  ( 0.000000000000000000, 0.000000000000000000, 5.500000000000005329 ) ) ;
#266 = AXIS2_PLACEMENT_3D ( 'NONE', #205, #32, #141 ) ;
#267 = CARTESIAN_POINT ( 'NONE',  ( 0.000000000000000000, 0.000000000000000000, 5.500000000000005329 ) ) ;
#268 = CC_DESIGN_DATE_AND_TIME_ASSIGNMENT ( #201, #88, ( #27 ) ) ;
#269 = PLANE ( 'NONE',  #366 ) ;
#270 = DIRECTION ( 'NONE',  ( -0.000000000000000000, -0.000000000000000000, -1.000000000000000000 ) ) ;
#271 = ADVANCED_FACE ( 'NONE', ( #159 ), #102, .T. ) ;
#272 = DIRECTION ( 'NONE',  ( 0.000000000000000000, 0.000000000000000000, 1.000000000000000000 ) ) ;
#273 = CIRCLE ( 'NONE', #12, 7.000000000000000000 ) ;
#274 = CC_DESIGN_APPROVAL ( #256, ( #247 ) ) ;
#275 = DIRECTION ( 'NONE',  ( 0.000000000000000000, 0.000000000000000000, 1.000000000000000000 ) ) ;
#276 = ORIENTED_EDGE ( 'NONE', *, *, #314, .T. ) ;
#277 = DIRECTION ( 'NONE',  ( 1.000000000000000000, 0.000000000000000000, 0.000000000000000000 ) ) ;
#278 = ORIENTED_EDGE ( 'NONE', *, *, #67, .F. ) ;
#279 = DIRECTION ( 'NONE',  ( 1.000000000000000000, 0.000000000000000000, 0.000000000000000000 ) ) ;
#280 = EDGE_LOOP ( 'NONE', ( #288, #232, #134, #57 ) ) ;
#281 = CIRCLE ( 'NONE', #316, 0.5000000000000004441 ) ;
#282 = APPLICATION_CONTEXT ( 'configuration controlled 3d designs of mechanical parts and assemblies' ) ;
#283 = CC_DESIGN_PERSON_AND_ORGANIZATION_ASSIGNMENT ( #203, #177, ( #247 ) ) ;
#284 = DIRECTION ( 'NONE',  ( -0.000000000000000000, -0.000000000000000000, -1.000000000000000000 ) ) ;
#285 = EDGE_CURVE ( 'NONE', #346, #320, #329, .T. ) ;
#286 = DESIGN_CONTEXT ( 'detailed design', #282, 'design' ) ;
#287 = PERSON_AND_ORGANIZATION_ROLE ( 'creator' ) ;
#288 = ORIENTED_EDGE ( 'NONE', *, *, #356, .F. ) ;
#289 = CYLINDRICAL_SURFACE ( 'NONE', #266, 7.000000000000000000 ) ;
#290 = CC_DESIGN_DATE_AND_TIME_ASSIGNMENT ( #351, #147, ( #247 ) ) ;
#291 = AXIS2_PLACEMENT_3D ( 'NONE', #226, #257, #318 ) ;
#292 = DIRECTION ( 'NONE',  ( -1.000000000000000000, 0.000000000000000000, 0.000000000000000000 ) ) ;
#293 = APPLICATION_PROTOCOL_DEFINITION ( 'international standard', 'config_control_design', 1994, #221 ) ;
#294 = ORIENTED_EDGE ( 'NONE', *, *, #285, .T. ) ;
#295 = ORIENTED_EDGE ( 'NONE', *, *, #142, .F. ) ;
#296 = AXIS2_PLACEMENT_3D ( 'NONE', #265, #332, #10 ) ;
#297 = EDGE_CURVE ( 'NONE', #5, #178, #307, .T. ) ;
#298 = FACE_OUTER_BOUND ( 'NONE', #105, .T. ) ;
#299 = EDGE_CURVE ( 'NONE', #150, #100, #239, .T. ) ;
#300 = DIRECTION ( 'NONE',  ( 1.000000000000000000, 0.000000000000000000, 0.000000000000000000 ) ) ;
#301 = EDGE_CURVE ( 'NONE', #320, #346, #179, .T. ) ;
#302 = APPROVAL_PERSON_ORGANIZATION ( #321, #130, #34 ) ;
#303 = LINE ( 'NONE', #157, #353 ) ;
#304 = CARTESIAN_POINT ( 'NONE',  ( 7.000000000000000000, 8.572527594031473190E-16, 5.000000000000000000 ) ) ;
#305 = DIRECTION ( 'NONE',  ( 0.000000000000000000, -1.000000000000000000, 0.000000000000000000 ) ) ;
#306 = DIRECTION ( 'NONE',  ( -1.000000000000000000, 0.000000000000000000, 0.000000000000000000 ) ) ;
#307 = CIRCLE ( 'NONE', #124, 2.000000000000000000 ) ;
#308 = ORIENTED_EDGE ( 'NONE', *, *, #235, .T. ) ;
#309 = EDGE_CURVE ( 'NONE', #22, #89, #281, .T. ) ;
#310 = DIRECTION ( 'NONE',  ( 0.000000000000000000, 0.000000000000000000, 1.000000000000000000 ) ) ;
#311 = ORIENTED_EDGE ( 'NONE', *, *, #314, .F. ) ;
#312 =( NAMED_UNIT ( * ) SI_UNIT ( $, .STERADIAN. ) SOLID_ANGLE_UNIT ( ) );
#313 = ORIENTED_EDGE ( 'NONE', *, *, #301, .T. ) ;
#314 = EDGE_CURVE ( 'NONE', #263, #22, #17, .T. ) ;
#315 = CARTESIAN_POINT ( 'NONE',  ( -4.500000000000000888, 5.510910596163089556E-16, 5.500000000000005329 ) ) ;
#316 = AXIS2_PLACEMENT_3D ( 'NONE', #342, #305, #20 ) ;
#317 = CC_DESIGN_SECURITY_CLASSIFICATION ( #247, ( #86 ) ) ;
#318 = DIRECTION ( 'NONE',  ( 1.000000000000000000, 0.000000000000000000, 0.000000000000000000 ) ) ;
#319 = APPROVAL_ROLE ( '' ) ;
#320 = VERTEX_POINT ( 'NONE', #215 ) ;
#321 = PERSON_AND_ORGANIZATION ( #378, #339 ) ;
#322 = FACE_OUTER_BOUND ( 'NONE', #28, .T. ) ;
#323 = VECTOR ( 'NONE', #87, 1000.000000000000000 ) ;
#324 = LOCAL_TIME ( 17, 31, 9.000000000000000000, #344 ) ;
#325 = ORIENTED_EDGE ( 'NONE', *, *, #33, .T. ) ;
#326 = ORIENTED_EDGE ( 'NONE', *, *, #128, .T. ) ;
#327 = ADVANCED_BREP_SHAPE_REPRESENTATION ( '6a35', ( #360, #291 ), #160 ) ;
#328 = CARTESIAN_POINT ( 'NONE',  ( 0.000000000000000000, 0.000000000000000000, 305.0000000000000000 ) ) ;
#329 = CIRCLE ( 'NONE', #189, 2.000000000000000000 ) ;
#330 = CARTESIAN_POINT ( 'NONE',  ( 4.500000000000000888, 0.000000000000000000, 5.000000000000002665 ) ) ;
#331 = ADVANCED_FACE ( 'NONE', ( #18 ), #193, .F. ) ;
#332 = DIRECTION ( 'NONE',  ( 0.000000000000000000, 0.000000000000000000, 1.000000000000000000 ) ) ;
#333 = AXIS2_PLACEMENT_3D ( 'NONE', #367, #121, #92 ) ;
#334 = DIRECTION ( 'NONE',  ( 1.000000000000000000, 0.000000000000000000, 0.000000000000000000 ) ) ;
#335 = DIRECTION ( 'NONE',  ( -0.000000000000000000, -0.000000000000000000, -1.000000000000000000 ) ) ;
#336 = FACE_OUTER_BOUND ( 'NONE', #63, .T. ) ;
#337 = VECTOR ( 'NONE', #357, 1000.000000000000000 ) ;
#338 = PLANE ( 'NONE',  #136 ) ;
#339 = ORGANIZATION ( 'NEURÈENÝ', 'NEURÈENÝ', '' ) ;
#340 = ORIENTED_EDGE ( 'NONE', *, *, #191, .T. ) ;
#341 = DIRECTION ( 'NONE',  ( 1.000000000000000000, 0.000000000000000000, 0.000000000000000000 ) ) ;
#342 = CARTESIAN_POINT ( 'NONE',  ( 4.500000000000000888, 0.000000000000000000, 5.500000000000005329 ) ) ;
#343 = ADVANCED_FACE ( 'NONE', ( #368, #373 ), #338, .T. ) ;
#344 = COORDINATED_UNIVERSAL_TIME_OFFSET ( 1, 0, .AHEAD. ) ;
#345 = AXIS2_PLACEMENT_3D ( 'NONE', #365, #186, #300 ) ;
#346 = VERTEX_POINT ( 'NONE', #216 ) ;
#347 = CALENDAR_DATE ( 2022, 8, 7 ) ;
#348 = ORIENTED_EDGE ( 'NONE', *, *, #199, .F. ) ;
#349 = MECHANICAL_CONTEXT ( 'NONE', #221, 'mechanical' ) ;
#350 = ORIENTED_EDGE ( 'NONE', *, *, #191, .F. ) ;
#351 = DATE_AND_TIME ( #228, #132 ) ;
#352 = CARTESIAN_POINT ( 'NONE',  ( 7.000000000000000000, 8.572527594031473190E-16, 5.000000000000000000 ) ) ;
#353 = VECTOR ( 'NONE', #126, 1000.000000000000000 ) ;
#354 = COORDINATED_UNIVERSAL_TIME_OFFSET ( 1, 0, .AHEAD. ) ;
#355 = ORIENTED_EDGE ( 'NONE', *, *, #297, .F. ) ;
#356 = EDGE_CURVE ( 'NONE', #263, #114, #59, .T. ) ;
#357 = DIRECTION ( 'NONE',  ( -0.000000000000000000, -0.000000000000000000, -1.000000000000000000 ) ) ;
#358 = ADVANCED_FACE ( 'NONE', ( #336 ), #77, .F. ) ;
#359 = DIRECTION ( 'NONE',  ( 1.000000000000000000, 0.000000000000000000, 0.000000000000000000 ) ) ;
#360 = MANIFOLD_SOLID_BREP ( 'Odebrat vysunutím3', #123 ) ;
#361 = AXIS2_PLACEMENT_3D ( 'NONE', #364, #11, #334 ) ;
#362 = CC_DESIGN_PERSON_AND_ORGANIZATION_ASSIGNMENT ( #115, #167, ( #27 ) ) ;
#363 = FACE_BOUND ( 'NONE', #140, .T. ) ;
#364 = CARTESIAN_POINT ( 'NONE',  ( 0.000000000000000000, 0.000000000000000000, 0.000000000000000000 ) ) ;
#365 = CARTESIAN_POINT ( 'NONE',  ( 0.000000000000000000, 0.000000000000000000, 5.500000000000005329 ) ) ;
#366 = AXIS2_PLACEMENT_3D ( 'NONE', #209, #153, #94 ) ;
#367 = CARTESIAN_POINT ( 'NONE',  ( 0.000000000000000000, 0.000000000000000000, 305.0000000000000000 ) ) ;
#368 = FACE_BOUND ( 'NONE', #168, .T. ) ;
#369 = ORIENTED_EDGE ( 'NONE', *, *, #285, .F. ) ;
#370 =( LENGTH_UNIT ( ) NAMED_UNIT ( * ) SI_UNIT ( .MILLI., .METRE. ) );
#371 = ORIENTED_EDGE ( 'NONE', *, *, #101, .F. ) ;
#372 = CIRCLE ( 'NONE', #31, 4.500000000000000888 ) ;
#373 = FACE_OUTER_BOUND ( 'NONE', #217, .T. ) ;
#374 = CIRCLE ( 'NONE', #97, 4.500000000000000888 ) ;
#375 = DIRECTION ( 'NONE',  ( 0.000000000000000000, 0.000000000000000000, 1.000000000000000000 ) ) ;
#376 = CARTESIAN_POINT ( 'NONE',  ( 0.000000000000000000, 0.000000000000000000, 305.0000000000000000 ) ) ;
#377 = ORIENTED_EDGE ( 'NONE', *, *, #299, .F. ) ;
#378 = PERSON ( 'NEURÈENÝ', 'NEURÈENÝ', 'NEURÈENÝ', ('NEURÈENÝ'), ('NEURÈENÝ'), ('NEURÈENÝ') ) ;
#379 = COORDINATED_UNIVERSAL_TIME_OFFSET ( 1, 0, .AHEAD. ) ;
#380 = AXIS2_PLACEMENT_3D ( 'NONE', #188, #190, #306 ) ;
#381 = ORIENTED_EDGE ( 'NONE', *, *, #244, .T. ) ;
ENDSEC;
END-ISO-10303-21;
