ISO-10303-21;
HEADER;
FILE_DESCRIPTION (( 'STEP AP203' ),
    '1' );
FILE_NAME ('5615.STEP',
    '2022-07-08T14:55:43',
    ( '' ),
    ( '' ),
    'SwSTEP 2.0',
    'SolidWorks 2019',
    '' );
FILE_SCHEMA (( 'CONFIG_CONTROL_DESIGN' ));
ENDSEC;

DATA;
#1 = CARTESIAN_POINT ( 'NONE',  ( -3.000000000000000444, 0.000000000000000000, 805.0000000000000000 ) ) ;
#2 = EDGE_CURVE ( 'NONE', #124, #203, #331, .T. ) ;
#3 = APPROVAL ( #126, 'NEURÈENÝ' ) ;
#4 = CARTESIAN_POINT ( 'NONE',  ( 5.000000000000000000, 6.123233995736766282E-16, 5.499999999999949374 ) ) ;
#5 = ORIENTED_EDGE ( 'NONE', *, *, #73, .F. ) ;
#6 = DATE_TIME_ROLE ( 'creation_date' ) ;
#7 = CYLINDRICAL_SURFACE ( 'NONE', #315, 5.000000000000000000 ) ;
#8 = APPROVAL_ROLE ( '' ) ;
#9 = VERTEX_POINT ( 'NONE', #335 ) ;
#10 = CARTESIAN_POINT ( 'NONE',  ( 0.000000000000000000, 0.000000000000000000, 0.000000000000000000 ) ) ;
#11 = FACE_OUTER_BOUND ( 'NONE', #59, .T. ) ;
#12 = ORIENTED_EDGE ( 'NONE', *, *, #240, .F. ) ;
#13 = EDGE_LOOP ( 'NONE', ( #94, #120, #301, #243 ) ) ;
#14 = DATE_TIME_ROLE ( 'classification_date' ) ;
#15 = FACE_OUTER_BOUND ( 'NONE', #13, .T. ) ;
#16 = EDGE_LOOP ( 'NONE', ( #330, #182 ) ) ;
#17 = ADVANCED_FACE ( 'NONE', ( #11 ), #156, .F. ) ;
#18 = CARTESIAN_POINT ( 'NONE',  ( 0.000000000000000000, 0.000000000000000000, 0.000000000000000000 ) ) ;
#19 = CARTESIAN_POINT ( 'NONE',  ( 0.000000000000000000, 0.000000000000000000, 5.499999999999949374 ) ) ;
#20 = TOROIDAL_SURFACE ( 'NONE', #90, 5.500000000000000000, 0.5000000000000000000 ) ;
#21 = CARTESIAN_POINT ( 'NONE',  ( 5.500000000000000000, 0.000000000000000000, 5.499999999999949374 ) ) ;
#22 = CARTESIAN_POINT ( 'NONE',  ( 0.000000000000000000, 0.000000000000000000, 805.0000000000000000 ) ) ;
#23 = CYLINDRICAL_SURFACE ( 'NONE', #229, 8.000000000000000000 ) ;
#24 = DIRECTION ( 'NONE',  ( 0.000000000000000000, 0.000000000000000000, -1.000000000000000000 ) ) ;
#25 = AXIS2_PLACEMENT_3D ( 'NONE', #10, #238, #121 ) ;
#26 = DIRECTION ( 'NONE',  ( 0.000000000000000000, 0.000000000000000000, 1.000000000000000000 ) ) ;
#27 = CARTESIAN_POINT ( 'NONE',  ( -5.500000000000000000, 6.735557395310442023E-16, 5.499999999999949374 ) ) ;
#28 = EDGE_CURVE ( 'NONE', #358, #203, #185, .T. ) ;
#29 = EDGE_LOOP ( 'NONE', ( #130, #366 ) ) ;
#30 = APPROVAL_PERSON_ORGANIZATION ( #227, #179, #8 ) ;
#31 = CIRCLE ( 'NONE', #323, 0.5000000000000004441 ) ;
#32 = CARTESIAN_POINT ( 'NONE',  ( 0.000000000000000000, 0.000000000000000000, 5.499999999999949374 ) ) ;
#33 = ORIENTED_EDGE ( 'NONE', *, *, #298, .F. ) ;
#34 = CARTESIAN_POINT ( 'NONE',  ( 0.000000000000000000, 0.000000000000000000, 805.0000000000000000 ) ) ;
#35 = ORIENTED_EDGE ( 'NONE', *, *, #95, .T. ) ;
#36 = AXIS2_PLACEMENT_3D ( 'NONE', #293, #173, #118 ) ;
#37 = AXIS2_PLACEMENT_3D ( 'NONE', #214, #225, #97 ) ;
#38 = APPLICATION_CONTEXT ( 'configuration controlled 3d designs of mechanical parts and assemblies' ) ;
#39 = VERTEX_POINT ( 'NONE', #278 ) ;
#40 = PERSON_AND_ORGANIZATION ( #117, #321 ) ;
#41 = ADVANCED_FACE ( 'NONE', ( #86 ), #216, .F. ) ;
#42 = CARTESIAN_POINT ( 'NONE',  ( 0.000000000000000000, 0.000000000000000000, 0.000000000000000000 ) ) ;
#43 = DATE_AND_TIME ( #46, #89 ) ;
#44 = DIRECTION ( 'NONE',  ( 1.000000000000000000, 0.000000000000000000, 0.000000000000000000 ) ) ;
#45 = AXIS2_PLACEMENT_3D ( 'NONE', #54, #115, #111 ) ;
#46 = CALENDAR_DATE ( 2022, 8, 7 ) ;
#47 = DIRECTION ( 'NONE',  ( 1.000000000000000000, 0.000000000000000000, -0.000000000000000000 ) ) ;
#48 = ORIENTED_EDGE ( 'NONE', *, *, #207, .F. ) ;
#49 = VERTEX_POINT ( 'NONE', #112 ) ;
#50 = AXIS2_PLACEMENT_3D ( 'NONE', #18, #304, #311 ) ;
#51 = PERSON_AND_ORGANIZATION ( #117, #321 ) ;
#52 = FACE_OUTER_BOUND ( 'NONE', #306, .T. ) ;
#53 = CARTESIAN_POINT ( 'NONE',  ( 3.000000000000000444, 3.673940397442060361E-16, 805.0000000000000000 ) ) ;
#54 = CARTESIAN_POINT ( 'NONE',  ( 0.000000000000000000, 0.000000000000000000, 805.0000000000000000 ) ) ;
#55 = AXIS2_PLACEMENT_3D ( 'NONE', #21, #276, #376 ) ;
#56 = LINE ( 'NONE', #282, #201 ) ;
#57 = DIRECTION ( 'NONE',  ( -1.000000000000000000, 0.000000000000000000, 0.000000000000000000 ) ) ;
#58 = CYLINDRICAL_SURFACE ( 'NONE', #367, 5.000000000000000000 ) ;
#59 = EDGE_LOOP ( 'NONE', ( #98, #290, #247, #64 ) ) ;
#60 = CARTESIAN_POINT ( 'NONE',  ( -8.000000000000000000, 0.000000000000000000, 5.000000000000000000 ) ) ;
#61 = PERSON_AND_ORGANIZATION ( #117, #321 ) ;
#62 = VECTOR ( 'NONE', #87, 1000.000000000000000 ) ;
#63 = DIRECTION ( 'NONE',  ( -1.000000000000000000, 0.000000000000000000, 0.000000000000000000 ) ) ;
#64 = ORIENTED_EDGE ( 'NONE', *, *, #291, .T. ) ;
#65 = EDGE_CURVE ( 'NONE', #80, #124, #275, .T. ) ;
#66 = DIRECTION ( 'NONE',  ( 0.000000000000000000, 0.000000000000000000, 1.000000000000000000 ) ) ;
#67 = EDGE_LOOP ( 'NONE', ( #324, #48, #131, #33 ) ) ;
#68 = APPLICATION_PROTOCOL_DEFINITION ( 'international standard', 'config_control_design', 1994, #250 ) ;
#69 = LINE ( 'NONE', #213, #246 ) ;
#70 = MECHANICAL_CONTEXT ( 'NONE', #38, 'mechanical' ) ;
#71 = AXIS2_PLACEMENT_3D ( 'NONE', #167, #287, #189 ) ;
#72 = VERTEX_POINT ( 'NONE', #220 ) ;
#73 = EDGE_CURVE ( 'NONE', #204, #114, #350, .T. ) ;
#74 = PRODUCT_DEFINITION ( 'NEZNÁMÝ', '', #248, #302 ) ;
#75 = PRODUCT_DEFINITION_SHAPE ( 'NONE', 'NONE',  #74 ) ;
#76 = DATE_AND_TIME ( #244, #125 ) ;
#77 = ORIENTED_EDGE ( 'NONE', *, *, #327, .T. ) ;
#78 = CIRCLE ( 'NONE', #280, 5.000000000000000000 ) ;
#79 = PLANE ( 'NONE',  #252 ) ;
#80 = VERTEX_POINT ( 'NONE', #106 ) ;
#81 = CIRCLE ( 'NONE', #192, 5.000000000000000000 ) ;
#82 = VECTOR ( 'NONE', #24, 1000.000000000000000 ) ;
#83 = SECURITY_CLASSIFICATION_LEVEL ( 'unclassified' ) ;
#84 = PERSON_AND_ORGANIZATION_ROLE ( 'classification_officer' ) ;
#85 = EDGE_CURVE ( 'NONE', #358, #80, #268, .T. ) ;
#86 = FACE_OUTER_BOUND ( 'NONE', #210, .T. ) ;
#87 = DIRECTION ( 'NONE',  ( -0.000000000000000000, -0.000000000000000000, -1.000000000000000000 ) ) ;
#88 = CIRCLE ( 'NONE', #296, 5.000000000000000000 ) ;
#89 = LOCAL_TIME ( 16, 55, 43.00000000000000000, #152 ) ;
#90 = AXIS2_PLACEMENT_3D ( 'NONE', #245, #221, #317 ) ;
#91 = CARTESIAN_POINT ( 'NONE',  ( 0.000000000000000000, 0.000000000000000000, 5.000000000000000000 ) ) ;
#92 = CARTESIAN_POINT ( 'NONE',  ( 0.000000000000000000, 0.000000000000000000, 0.000000000000000000 ) ) ;
#93 = DIRECTION ( 'NONE',  ( 0.000000000000000000, 0.000000000000000000, 1.000000000000000000 ) ) ;
#94 = ORIENTED_EDGE ( 'NONE', *, *, #168, .F. ) ;
#95 = EDGE_CURVE ( 'NONE', #200, #72, #56, .T. ) ;
#96 = DIRECTION ( 'NONE',  ( 1.224646799147353207E-16, 1.000000000000000000, -0.000000000000000000 ) ) ;
#97 = DIRECTION ( 'NONE',  ( -1.000000000000000000, 0.000000000000000000, 0.000000000000000000 ) ) ;
#98 = ORIENTED_EDGE ( 'NONE', *, *, #65, .F. ) ;
#99 = ADVANCED_FACE ( 'NONE', ( #135 ), #256, .F. ) ;
#100 = DIRECTION ( 'NONE',  ( -0.000000000000000000, -0.000000000000000000, -1.000000000000000000 ) ) ;
#101 = PERSON_AND_ORGANIZATION_ROLE ( 'design_supplier' ) ;
#102 = FACE_BOUND ( 'NONE', #312, .T. ) ;
#103 = CIRCLE ( 'NONE', #71, 5.500000000000000000 ) ;
#104 = VERTEX_POINT ( 'NONE', #253 ) ;
#105 = DIRECTION ( 'NONE',  ( 0.000000000000000000, 0.000000000000000000, 1.000000000000000000 ) ) ;
#106 = CARTESIAN_POINT ( 'NONE',  ( 3.000000000000000444, 3.673940397442060361E-16, 805.0000000000000000 ) ) ;
#107 = FACE_OUTER_BOUND ( 'NONE', #150, .T. ) ;
#108 = DIRECTION ( 'NONE',  ( 1.000000000000000000, 0.000000000000000000, 0.000000000000000000 ) ) ;
#109 = ADVANCED_FACE ( 'NONE', ( #318 ), #377, .T. ) ;
#110 = CC_DESIGN_DATE_AND_TIME_ASSIGNMENT ( #373, #14, ( #157 ) ) ;
#111 = DIRECTION ( 'NONE',  ( 1.000000000000000000, 0.000000000000000000, 0.000000000000000000 ) ) ;
#112 = CARTESIAN_POINT ( 'NONE',  ( 5.500000000000000000, 0.000000000000000000, 4.999999999999975131 ) ) ;
#113 = DIRECTION ( 'NONE',  ( -0.000000000000000000, -0.000000000000000000, -1.000000000000000000 ) ) ;
#114 = VERTEX_POINT ( 'NONE', #4 ) ;
#115 = DIRECTION ( 'NONE',  ( 0.000000000000000000, 0.000000000000000000, 1.000000000000000000 ) ) ;
#116 = ORIENTED_EDGE ( 'NONE', *, *, #223, .T. ) ;
#117 = PERSON ( 'NEURÈENÝ', 'NEURÈENÝ', 'NEURÈENÝ', ('NEURÈENÝ'), ('NEURÈENÝ'), ('NEURÈENÝ') ) ;
#118 = DIRECTION ( 'NONE',  ( 1.000000000000000000, 0.000000000000000000, -0.000000000000000000 ) ) ;
#119 = ADVANCED_FACE ( 'NONE', ( #198 ), #7, .T. ) ;
#120 = ORIENTED_EDGE ( 'NONE', *, *, #163, .T. ) ;
#121 = DIRECTION ( 'NONE',  ( 1.000000000000000000, 0.000000000000000000, 0.000000000000000000 ) ) ;
#122 = CC_DESIGN_PERSON_AND_ORGANIZATION_ASSIGNMENT ( #61, #172, ( #74 ) ) ;
#123 = CIRCLE ( 'NONE', #55, 0.5000000000000004441 ) ;
#124 = VERTEX_POINT ( 'NONE', #230 ) ;
#125 = LOCAL_TIME ( 16, 55, 43.00000000000000000, #132 ) ;
#126 = APPROVAL_STATUS ( 'not_yet_approved' ) ;
#127 = DIRECTION ( 'NONE',  ( -1.000000000000000000, 1.224646799147351482E-16, 0.000000000000000000 ) ) ;
#128 = EDGE_LOOP ( 'NONE', ( #5, #195, #77, #342 ) ) ;
#129 = ADVANCED_FACE ( 'NONE', ( #202, #362 ), #284, .T. ) ;
#130 = ORIENTED_EDGE ( 'NONE', *, *, #219, .T. ) ;
#131 = ORIENTED_EDGE ( 'NONE', *, *, #260, .T. ) ;
#132 = COORDINATED_UNIVERSAL_TIME_OFFSET ( 1, 0, .AHEAD. ) ;
#133 = CARTESIAN_POINT ( 'NONE',  ( 0.000000000000000000, 0.000000000000000000, 5.000000000000000000 ) ) ;
#134 = CIRCLE ( 'NONE', #273, 8.000000000000000000 ) ;
#135 = FACE_OUTER_BOUND ( 'NONE', #67, .T. ) ;
#136 = DIRECTION ( 'NONE',  ( 1.000000000000000000, 0.000000000000000000, 0.000000000000000000 ) ) ;
#137 = DIRECTION ( 'NONE',  ( -0.000000000000000000, -0.000000000000000000, -1.000000000000000000 ) ) ;
#138 = DIRECTION ( 'NONE',  ( 1.000000000000000000, 0.000000000000000000, 0.000000000000000000 ) ) ;
#139 = AXIS2_PLACEMENT_3D ( 'NONE', #267, #137, #270 ) ;
#140 =( LENGTH_UNIT ( ) NAMED_UNIT ( * ) SI_UNIT ( .MILLI., .METRE. ) );
#141 = DIRECTION ( 'NONE',  ( -1.000000000000000000, 0.000000000000000000, 0.000000000000000000 ) ) ;
#142 = DIRECTION ( 'NONE',  ( 1.000000000000000000, 0.000000000000000000, 0.000000000000000000 ) ) ;
#143 = FACE_OUTER_BOUND ( 'NONE', #128, .T. ) ;
#144 = ORIENTED_EDGE ( 'NONE', *, *, #380, .F. ) ;
#145 = DIRECTION ( 'NONE',  ( 1.000000000000000000, 0.000000000000000000, 0.000000000000000000 ) ) ;
#146 = COORDINATED_UNIVERSAL_TIME_OFFSET ( 1, 0, .AHEAD. ) ;
#147 = VERTEX_POINT ( 'NONE', #197 ) ;
#148 = COORDINATED_UNIVERSAL_TIME_OFFSET ( 1, 0, .AHEAD. ) ;
#149 = AXIS2_PLACEMENT_3D ( 'NONE', #347, #181, #160 ) ;
#150 = EDGE_LOOP ( 'NONE', ( #155, #363 ) ) ;
#151 = VECTOR ( 'NONE', #285, 1000.000000000000000 ) ;
#152 = COORDINATED_UNIVERSAL_TIME_OFFSET ( 1, 0, .AHEAD. ) ;
#153 = AXIS2_PLACEMENT_3D ( 'NONE', #19, #164, #138 ) ;
#154 = EDGE_LOOP ( 'NONE', ( #12, #334, #241, #271 ) ) ;
#155 = ORIENTED_EDGE ( 'NONE', *, *, #375, .T. ) ;
#156 = CYLINDRICAL_SURFACE ( 'NONE', #218, 3.000000000000000444 ) ;
#157 = SECURITY_CLASSIFICATION ( '', '', #83 ) ;
#158 = AXIS2_PLACEMENT_3D ( 'NONE', #345, #166, #108 ) ;
#159 = PERSON_AND_ORGANIZATION ( #117, #321 ) ;
#160 = DIRECTION ( 'NONE',  ( 1.000000000000000000, 0.000000000000000000, 0.000000000000000000 ) ) ;
#161 = ORIENTED_EDGE ( 'NONE', *, *, #380, .T. ) ;
#162 = APPROVAL_DATE_TIME ( #76, #259 ) ;
#163 = EDGE_CURVE ( 'NONE', #147, #9, #31, .T. ) ;
#164 = DIRECTION ( 'NONE',  ( 0.000000000000000000, 0.000000000000000000, 1.000000000000000000 ) ) ;
#165 = CARTESIAN_POINT ( 'NONE',  ( 0.000000000000000000, 0.000000000000000000, 805.0000000000000000 ) ) ;
#166 = DIRECTION ( 'NONE',  ( 0.000000000000000000, 0.000000000000000000, 1.000000000000000000 ) ) ;
#167 = CARTESIAN_POINT ( 'NONE',  ( 0.000000000000000000, 0.000000000000000000, 5.000000000000000000 ) ) ;
#168 = EDGE_CURVE ( 'NONE', #147, #114, #81, .T. ) ;
#169 = CIRCLE ( 'NONE', #255, 5.000000000000000000 ) ;
#170 = DIRECTION ( 'NONE',  ( 1.000000000000000000, 0.000000000000000000, 0.000000000000000000 ) ) ;
#171 = ORIENTED_EDGE ( 'NONE', *, *, #95, .F. ) ;
#172 = PERSON_AND_ORGANIZATION_ROLE ( 'creator' ) ;
#173 = DIRECTION ( 'NONE',  ( 0.000000000000000000, 0.000000000000000000, 1.000000000000000000 ) ) ;
#174 = VERTEX_POINT ( 'NONE', #60 ) ;
#175 = DATE_AND_TIME ( #262, #190 ) ;
#176 = APPROVAL_STATUS ( 'not_yet_approved' ) ;
#177 = ORIENTED_EDGE ( 'NONE', *, *, #224, .T. ) ;
#178 = ADVANCED_FACE ( 'NONE', ( #143 ), #58, .T. ) ;
#179 = APPROVAL ( #176, 'NEURÈENÝ' ) ;
#180 = ORIENTED_EDGE ( 'NONE', *, *, #2, .T. ) ;
#181 = DIRECTION ( 'NONE',  ( 0.000000000000000000, 0.000000000000000000, 1.000000000000000000 ) ) ;
#182 = ORIENTED_EDGE ( 'NONE', *, *, #298, .T. ) ;
#183 = CARTESIAN_POINT ( 'NONE',  ( -3.000000000000000444, 0.000000000000000000, 805.0000000000000000 ) ) ;
#184 = CARTESIAN_POINT ( 'NONE',  ( 0.000000000000000000, 0.000000000000000000, 805.0000000000000000 ) ) ;
#185 = LINE ( 'NONE', #183, #82 ) ;
#186 = PRODUCT_RELATED_PRODUCT_CATEGORY ( 'detail', '', ( #235 ) ) ;
#187 = EDGE_CURVE ( 'NONE', #200, #174, #305, .T. ) ;
#188 = DIRECTION ( 'NONE',  ( -0.000000000000000000, -0.000000000000000000, -1.000000000000000000 ) ) ;
#189 = DIRECTION ( 'NONE',  ( 1.000000000000000000, 0.000000000000000000, 0.000000000000000000 ) ) ;
#190 = LOCAL_TIME ( 16, 55, 43.00000000000000000, #148 ) ;
#191 = DIRECTION ( 'NONE',  ( 0.000000000000000000, 0.000000000000000000, -1.000000000000000000 ) ) ;
#192 = AXIS2_PLACEMENT_3D ( 'NONE', #32, #66, #145 ) ;
#193 = CARTESIAN_POINT ( 'NONE',  ( 0.000000000000000000, 0.000000000000000000, 5.000000000000000000 ) ) ;
#194 = CARTESIAN_POINT ( 'NONE',  ( 8.000000000000000000, 9.797174393178825657E-16, 5.000000000000000000 ) ) ;
#195 = ORIENTED_EDGE ( 'NONE', *, *, #219, .F. ) ;
#196 = ADVANCED_BREP_SHAPE_REPRESENTATION ( '5615', ( #232, #25 ), #263 ) ;
#197 = CARTESIAN_POINT ( 'NONE',  ( -5.000000000000000000, 0.000000000000000000, 5.499999999999949374 ) ) ;
#198 = FACE_OUTER_BOUND ( 'NONE', #154, .T. ) ;
#199 = CC_DESIGN_APPROVAL ( #259, ( #157 ) ) ;
#200 = VERTEX_POINT ( 'NONE', #194 ) ;
#201 = VECTOR ( 'NONE', #188, 1000.000000000000000 ) ;
#202 = FACE_BOUND ( 'NONE', #365, .T. ) ;
#203 = VERTEX_POINT ( 'NONE', #286 ) ;
#204 = VERTEX_POINT ( 'NONE', #326 ) ;
#205 = DIRECTION ( 'NONE',  ( 1.000000000000000000, 0.000000000000000000, 0.000000000000000000 ) ) ;
#206 = ORIENTED_EDGE ( 'NONE', *, *, #187, .F. ) ;
#207 = EDGE_CURVE ( 'NONE', #114, #147, #169, .T. ) ;
#208 = UNCERTAINTY_MEASURE_WITH_UNIT (LENGTH_MEASURE( 1.000000000000000082E-05 ), #140, 'distance_accuracy_value', 'NONE');
#209 = CALENDAR_DATE ( 2022, 8, 7 ) ;
#210 = EDGE_LOOP ( 'NONE', ( #368, #257, #180, #265 ) ) ;
#211 = LOCAL_TIME ( 16, 55, 43.00000000000000000, #340 ) ;
#212 = PERSON_AND_ORGANIZATION_ROLE ( 'creator' ) ;
#213 = CARTESIAN_POINT ( 'NONE',  ( -8.000000000000000000, 0.000000000000000000, 5.000000000000000000 ) ) ;
#214 = CARTESIAN_POINT ( 'NONE',  ( 0.000000000000000000, 0.000000000000000000, 5.000000000000000000 ) ) ;
#215 = DIRECTION ( 'NONE',  ( 0.000000000000000000, 0.000000000000000000, 1.000000000000000000 ) ) ;
#216 = CYLINDRICAL_SURFACE ( 'NONE', #299, 3.000000000000000444 ) ;
#217 = DIRECTION ( 'NONE',  ( 1.000000000000000000, 0.000000000000000000, 0.000000000000000000 ) ) ;
#218 = AXIS2_PLACEMENT_3D ( 'NONE', #165, #222, #141 ) ;
#219 = EDGE_CURVE ( 'NONE', #104, #204, #78, .T. ) ;
#220 = CARTESIAN_POINT ( 'NONE',  ( 8.000000000000000000, 9.797174393178825657E-16, 0.000000000000000000 ) ) ;
#221 = DIRECTION ( 'NONE',  ( 0.000000000000000000, 0.000000000000000000, 1.000000000000000000 ) ) ;
#222 = DIRECTION ( 'NONE',  ( 0.000000000000000000, 0.000000000000000000, -1.000000000000000000 ) ) ;
#223 = EDGE_CURVE ( 'NONE', #72, #39, #319, .T. ) ;
#224 = EDGE_CURVE ( 'NONE', #174, #39, #69, .T. ) ;
#225 = DIRECTION ( 'NONE',  ( -0.000000000000000000, -0.000000000000000000, -1.000000000000000000 ) ) ;
#226 = ORIENTED_EDGE ( 'NONE', *, *, #223, .F. ) ;
#227 = PERSON_AND_ORGANIZATION ( #117, #321 ) ;
#228 = APPLICATION_PROTOCOL_DEFINITION ( 'international standard', 'config_control_design', 1994, #38 ) ;
#229 = AXIS2_PLACEMENT_3D ( 'NONE', #193, #258, #57 ) ;
#230 = CARTESIAN_POINT ( 'NONE',  ( 3.000000000000000444, 3.673940397442060361E-16, 0.000000000000000000 ) ) ;
#231 = ORIENTED_EDGE ( 'NONE', *, *, #375, .F. ) ;
#232 = MANIFOLD_SOLID_BREP ( 'Odebrat vysunutím3', #233 ) ;
#233 = CLOSED_SHELL ( 'NONE', ( #41, #314, #119, #338, #109, #277, #254, #178, #129, #99, #17 ) ) ;
#234 = DIRECTION ( 'NONE',  ( -1.000000000000000000, 0.000000000000000000, 0.000000000000000000 ) ) ;
#235 = PRODUCT ( '5615', '5615', '', ( #70 ) ) ;
#236 = ORIENTED_EDGE ( 'NONE', *, *, #291, .F. ) ;
#237 = EDGE_LOOP ( 'NONE', ( #206, #35, #116, #332 ) ) ;
#238 = DIRECTION ( 'NONE',  ( 0.000000000000000000, 0.000000000000000000, 1.000000000000000000 ) ) ;
#239 = AXIS2_PLACEMENT_3D ( 'NONE', #91, #93, #170 ) ;
#240 = EDGE_CURVE ( 'NONE', #204, #104, #88, .T. ) ;
#241 = ORIENTED_EDGE ( 'NONE', *, *, #207, .T. ) ;
#242 = DIRECTION ( 'NONE',  ( 1.000000000000000000, 0.000000000000000000, 0.000000000000000000 ) ) ;
#243 = ORIENTED_EDGE ( 'NONE', *, *, #260, .F. ) ;
#244 = CALENDAR_DATE ( 2022, 8, 7 ) ;
#245 = CARTESIAN_POINT ( 'NONE',  ( 0.000000000000000000, 0.000000000000000000, 5.499999999999949374 ) ) ;
#246 = VECTOR ( 'NONE', #341, 1000.000000000000000 ) ;
#247 = ORIENTED_EDGE ( 'NONE', *, *, #28, .T. ) ;
#248 = PRODUCT_DEFINITION_FORMATION_WITH_SPECIFIED_SOURCE ( 'LIBOVOLNÝ', '', #235, .NOT_KNOWN. ) ;
#249 = CARTESIAN_POINT ( 'NONE',  ( 0.000000000000000000, 0.000000000000000000, 0.000000000000000000 ) ) ;
#250 = APPLICATION_CONTEXT ( 'configuration controlled 3d designs of mechanical parts and assemblies' ) ;
#251 = LINE ( 'NONE', #351, #151 ) ;
#252 = AXIS2_PLACEMENT_3D ( 'NONE', #133, #308, #47 ) ;
#253 = CARTESIAN_POINT ( 'NONE',  ( -5.000000000000000000, 0.000000000000000000, 805.0000000000000000 ) ) ;
#254 = ADVANCED_FACE ( 'NONE', ( #102, #52 ), #274, .F. ) ;
#255 = AXIS2_PLACEMENT_3D ( 'NONE', #289, #105, #217 ) ;
#256 = TOROIDAL_SURFACE ( 'NONE', #153, 5.500000000000000000, 0.5000000000000000000 ) ;
#257 = ORIENTED_EDGE ( 'NONE', *, *, #65, .T. ) ;
#258 = DIRECTION ( 'NONE',  ( -0.000000000000000000, -0.000000000000000000, -1.000000000000000000 ) ) ;
#259 = APPROVAL ( #371, 'NEURÈENÝ' ) ;
#260 = EDGE_CURVE ( 'NONE', #114, #49, #123, .T. ) ;
#261 = CIRCLE ( 'NONE', #294, 3.000000000000000444 ) ;
#262 = CALENDAR_DATE ( 2022, 8, 7 ) ;
#263 =( GEOMETRIC_REPRESENTATION_CONTEXT ( 3 ) GLOBAL_UNCERTAINTY_ASSIGNED_CONTEXT ( ( #208 ) ) GLOBAL_UNIT_ASSIGNED_CONTEXT ( ( #140, #348, #349 ) ) REPRESENTATION_CONTEXT ( 'NONE', 'WORKASPACE' ) );
#264 = VECTOR ( 'NONE', #191, 1000.000000000000000 ) ;
#265 = ORIENTED_EDGE ( 'NONE', *, *, #28, .F. ) ;
#266 = CIRCLE ( 'NONE', #378, 8.000000000000000000 ) ;
#267 = CARTESIAN_POINT ( 'NONE',  ( 0.000000000000000000, 0.000000000000000000, 5.000000000000000000 ) ) ;
#268 = CIRCLE ( 'NONE', #158, 3.000000000000000444 ) ;
#269 = APPROVAL_DATE_TIME ( #43, #3 ) ;
#270 = DIRECTION ( 'NONE',  ( 1.000000000000000000, 0.000000000000000000, 0.000000000000000000 ) ) ;
#271 = ORIENTED_EDGE ( 'NONE', *, *, #327, .F. ) ;
#272 = FACE_BOUND ( 'NONE', #16, .T. ) ;
#273 = AXIS2_PLACEMENT_3D ( 'NONE', #92, #26, #322 ) ;
#274 = PLANE ( 'NONE',  #50 ) ;
#275 = LINE ( 'NONE', #53, #264 ) ;
#276 = DIRECTION ( 'NONE',  ( 0.000000000000000000, -1.000000000000000000, 0.000000000000000000 ) ) ;
#277 = ADVANCED_FACE ( 'NONE', ( #272, #107 ), #79, .T. ) ;
#278 = CARTESIAN_POINT ( 'NONE',  ( -8.000000000000000000, 0.000000000000000000, 0.000000000000000000 ) ) ;
#279 = CC_DESIGN_PERSON_AND_ORGANIZATION_ASSIGNMENT ( #307, #84, ( #157 ) ) ;
#280 = AXIS2_PLACEMENT_3D ( 'NONE', #339, #215, #136 ) ;
#281 = APPROVAL_PERSON_ORGANIZATION ( #292, #3, #295 ) ;
#282 = CARTESIAN_POINT ( 'NONE',  ( 8.000000000000000000, 9.797174393178825657E-16, 5.000000000000000000 ) ) ;
#283 = CC_DESIGN_DATE_AND_TIME_ASSIGNMENT ( #175, #6, ( #74 ) ) ;
#284 = PLANE ( 'NONE',  #36 ) ;
#285 = DIRECTION ( 'NONE',  ( -0.000000000000000000, -0.000000000000000000, -1.000000000000000000 ) ) ;
#286 = CARTESIAN_POINT ( 'NONE',  ( -3.000000000000000444, 0.000000000000000000, 0.000000000000000000 ) ) ;
#287 = DIRECTION ( 'NONE',  ( -0.000000000000000000, -0.000000000000000000, -1.000000000000000000 ) ) ;
#288 = CC_DESIGN_SECURITY_CLASSIFICATION ( #157, ( #248 ) ) ;
#289 = CARTESIAN_POINT ( 'NONE',  ( 0.000000000000000000, 0.000000000000000000, 5.499999999999949374 ) ) ;
#290 = ORIENTED_EDGE ( 'NONE', *, *, #370, .T. ) ;
#291 = EDGE_CURVE ( 'NONE', #203, #124, #261, .T. ) ;
#292 = PERSON_AND_ORGANIZATION ( #117, #321 ) ;
#293 = CARTESIAN_POINT ( 'NONE',  ( 0.000000000000000000, 0.000000000000000000, 805.0000000000000000 ) ) ;
#294 = AXIS2_PLACEMENT_3D ( 'NONE', #249, #344, #44 ) ;
#295 = APPROVAL_ROLE ( '' ) ;
#296 = AXIS2_PLACEMENT_3D ( 'NONE', #184, #374, #242 ) ;
#297 = LOCAL_TIME ( 16, 55, 43.00000000000000000, #146 ) ;
#298 = EDGE_CURVE ( 'NONE', #9, #49, #303, .T. ) ;
#299 = AXIS2_PLACEMENT_3D ( 'NONE', #22, #379, #316 ) ;
#300 = DATE_AND_TIME ( #336, #297 ) ;
#301 = ORIENTED_EDGE ( 'NONE', *, *, #357, .F. ) ;
#302 = DESIGN_CONTEXT ( 'detailed design', #250, 'design' ) ;
#303 = CIRCLE ( 'NONE', #139, 5.500000000000000000 ) ;
#304 = DIRECTION ( 'NONE',  ( 0.000000000000000000, 0.000000000000000000, 1.000000000000000000 ) ) ;
#305 = CIRCLE ( 'NONE', #239, 8.000000000000000000 ) ;
#306 = EDGE_LOOP ( 'NONE', ( #144, #226 ) ) ;
#307 = PERSON_AND_ORGANIZATION ( #117, #321 ) ;
#308 = DIRECTION ( 'NONE',  ( 0.000000000000000000, 0.000000000000000000, 1.000000000000000000 ) ) ;
#309 = ORIENTED_EDGE ( 'NONE', *, *, #2, .F. ) ;
#310 = SHAPE_DEFINITION_REPRESENTATION ( #75, #196 ) ;
#311 = DIRECTION ( 'NONE',  ( 1.000000000000000000, 0.000000000000000000, -0.000000000000000000 ) ) ;
#312 = EDGE_LOOP ( 'NONE', ( #236, #309 ) ) ;
#313 = APPROVAL_ROLE ( '' ) ;
#314 = ADVANCED_FACE ( 'NONE', ( #15 ), #20, .F. ) ;
#315 = AXIS2_PLACEMENT_3D ( 'NONE', #34, #329, #63 ) ;
#316 = DIRECTION ( 'NONE',  ( -1.000000000000000000, 0.000000000000000000, 0.000000000000000000 ) ) ;
#317 = DIRECTION ( 'NONE',  ( 1.000000000000000000, 0.000000000000000000, 0.000000000000000000 ) ) ;
#318 = FACE_OUTER_BOUND ( 'NONE', #337, .T. ) ;
#319 = CIRCLE ( 'NONE', #149, 8.000000000000000000 ) ;
#320 = CC_DESIGN_PERSON_AND_ORGANIZATION_ASSIGNMENT ( #51, #212, ( #248 ) ) ;
#321 = ORGANIZATION ( 'NEURÈENÝ', 'NEURÈENÝ', '' ) ;
#322 = DIRECTION ( 'NONE',  ( 1.000000000000000000, 0.000000000000000000, 0.000000000000000000 ) ) ;
#323 = AXIS2_PLACEMENT_3D ( 'NONE', #27, #96, #127 ) ;
#324 = ORIENTED_EDGE ( 'NONE', *, *, #163, .F. ) ;
#325 = CARTESIAN_POINT ( 'NONE',  ( 0.000000000000000000, 0.000000000000000000, 5.000000000000000000 ) ) ;
#326 = CARTESIAN_POINT ( 'NONE',  ( 5.000000000000000000, 6.123233995736766282E-16, 805.0000000000000000 ) ) ;
#327 = EDGE_CURVE ( 'NONE', #104, #147, #251, .T. ) ;
#328 = CIRCLE ( 'NONE', #45, 3.000000000000000444 ) ;
#329 = DIRECTION ( 'NONE',  ( -0.000000000000000000, -0.000000000000000000, -1.000000000000000000 ) ) ;
#330 = ORIENTED_EDGE ( 'NONE', *, *, #357, .T. ) ;
#331 = CIRCLE ( 'NONE', #369, 3.000000000000000444 ) ;
#332 = ORIENTED_EDGE ( 'NONE', *, *, #224, .F. ) ;
#333 = PERSON_AND_ORGANIZATION_ROLE ( 'design_owner' ) ;
#334 = ORIENTED_EDGE ( 'NONE', *, *, #73, .T. ) ;
#335 = CARTESIAN_POINT ( 'NONE',  ( -5.500000000000000000, 6.735557395310442023E-16, 4.999999999999975131 ) ) ;
#336 = CALENDAR_DATE ( 2022, 8, 7 ) ;
#337 = EDGE_LOOP ( 'NONE', ( #171, #231, #177, #161 ) ) ;
#338 = ADVANCED_FACE ( 'NONE', ( #353 ), #23, .T. ) ;
#339 = CARTESIAN_POINT ( 'NONE',  ( 0.000000000000000000, 0.000000000000000000, 805.0000000000000000 ) ) ;
#340 = COORDINATED_UNIVERSAL_TIME_OFFSET ( 1, 0, .AHEAD. ) ;
#341 = DIRECTION ( 'NONE',  ( -0.000000000000000000, -0.000000000000000000, -1.000000000000000000 ) ) ;
#342 = ORIENTED_EDGE ( 'NONE', *, *, #168, .T. ) ;
#343 = PERSON_AND_ORGANIZATION ( #117, #321 ) ;
#344 = DIRECTION ( 'NONE',  ( -0.000000000000000000, -0.000000000000000000, -1.000000000000000000 ) ) ;
#345 = CARTESIAN_POINT ( 'NONE',  ( 0.000000000000000000, 0.000000000000000000, 805.0000000000000000 ) ) ;
#346 = CC_DESIGN_PERSON_AND_ORGANIZATION_ASSIGNMENT ( #40, #333, ( #235 ) ) ;
#347 = CARTESIAN_POINT ( 'NONE',  ( 0.000000000000000000, 0.000000000000000000, 0.000000000000000000 ) ) ;
#348 =( NAMED_UNIT ( * ) PLANE_ANGLE_UNIT ( ) SI_UNIT ( $, .RADIAN. ) );
#349 =( NAMED_UNIT ( * ) SI_UNIT ( $, .STERADIAN. ) SOLID_ANGLE_UNIT ( ) );
#350 = LINE ( 'NONE', #381, #62 ) ;
#351 = CARTESIAN_POINT ( 'NONE',  ( -5.000000000000000000, 0.000000000000000000, 805.0000000000000000 ) ) ;
#352 = APPROVAL_PERSON_ORGANIZATION ( #343, #259, #313 ) ;
#353 = FACE_OUTER_BOUND ( 'NONE', #237, .T. ) ;
#354 = CARTESIAN_POINT ( 'NONE',  ( 0.000000000000000000, 0.000000000000000000, 805.0000000000000000 ) ) ;
#355 = ORIENTED_EDGE ( 'NONE', *, *, #85, .F. ) ;
#356 = DIRECTION ( 'NONE',  ( 0.000000000000000000, 0.000000000000000000, 1.000000000000000000 ) ) ;
#357 = EDGE_CURVE ( 'NONE', #49, #9, #103, .T. ) ;
#358 = VERTEX_POINT ( 'NONE', #1 ) ;
#359 = APPROVAL_DATE_TIME ( #300, #179 ) ;
#360 = ORIENTED_EDGE ( 'NONE', *, *, #370, .F. ) ;
#361 = CC_DESIGN_APPROVAL ( #3, ( #248 ) ) ;
#362 = FACE_OUTER_BOUND ( 'NONE', #29, .T. ) ;
#363 = ORIENTED_EDGE ( 'NONE', *, *, #187, .T. ) ;
#364 = CC_DESIGN_PERSON_AND_ORGANIZATION_ASSIGNMENT ( #159, #101, ( #248 ) ) ;
#365 = EDGE_LOOP ( 'NONE', ( #355, #360 ) ) ;
#366 = ORIENTED_EDGE ( 'NONE', *, *, #240, .T. ) ;
#367 = AXIS2_PLACEMENT_3D ( 'NONE', #354, #113, #234 ) ;
#368 = ORIENTED_EDGE ( 'NONE', *, *, #85, .T. ) ;
#369 = AXIS2_PLACEMENT_3D ( 'NONE', #42, #100, #205 ) ;
#370 = EDGE_CURVE ( 'NONE', #80, #358, #328, .T. ) ;
#371 = APPROVAL_STATUS ( 'not_yet_approved' ) ;
#372 = CC_DESIGN_APPROVAL ( #179, ( #74 ) ) ;
#373 = DATE_AND_TIME ( #209, #211 ) ;
#374 = DIRECTION ( 'NONE',  ( 0.000000000000000000, 0.000000000000000000, 1.000000000000000000 ) ) ;
#375 = EDGE_CURVE ( 'NONE', #174, #200, #266, .T. ) ;
#376 = DIRECTION ( 'NONE',  ( 0.000000000000000000, 0.000000000000000000, -1.000000000000000000 ) ) ;
#377 = CYLINDRICAL_SURFACE ( 'NONE', #37, 8.000000000000000000 ) ;
#378 = AXIS2_PLACEMENT_3D ( 'NONE', #325, #356, #142 ) ;
#379 = DIRECTION ( 'NONE',  ( 0.000000000000000000, 0.000000000000000000, -1.000000000000000000 ) ) ;
#380 = EDGE_CURVE ( 'NONE', #39, #72, #134, .T. ) ;
#381 = CARTESIAN_POINT ( 'NONE',  ( 5.000000000000000000, 6.123233995736766282E-16, 805.0000000000000000 ) ) ;
ENDSEC;
END-ISO-10303-21;
