ISO-10303-21;
HEADER;
FILE_DESCRIPTION (( 'STEP AP203' ),
    '1' );
FILE_NAME ('ebda.STEP',
    '2022-07-08T15:06:17',
    ( '' ),
    ( '' ),
    'SwSTEP 2.0',
    'SolidWorks 2019',
    '' );
FILE_SCHEMA (( 'CONFIG_CONTROL_DESIGN' ));
ENDSEC;

DATA;
#1 = CARTESIAN_POINT ( 'NONE',  ( 0.000000000000000000, 0.000000000000000000, 0.000000000000000000 ) ) ;
#2 = APPLICATION_PROTOCOL_DEFINITION ( 'international standard', 'config_control_design', 1994, #309 ) ;
#3 = CIRCLE ( 'NONE', #98, 5.000000000000000000 ) ;
#4 = EDGE_CURVE ( 'NONE', #18, #146, #85, .T. ) ;
#5 = PERSON_AND_ORGANIZATION ( #252, #53 ) ;
#6 = ORIENTED_EDGE ( 'NONE', *, *, #178, .F. ) ;
#7 = CALENDAR_DATE ( 2022, 8, 7 ) ;
#8 = CARTESIAN_POINT ( 'NONE',  ( 5.000000000000000000, 6.123233995736766282E-16, 105.0000000000000142 ) ) ;
#9 = PERSON_AND_ORGANIZATION ( #252, #53 ) ;
#10 = AXIS2_PLACEMENT_3D ( 'NONE', #103, #105, #349 ) ;
#11 = FACE_OUTER_BOUND ( 'NONE', #239, .T. ) ;
#12 = CARTESIAN_POINT ( 'NONE',  ( 0.000000000000000000, 0.000000000000000000, 105.0000000000000142 ) ) ;
#13 = EDGE_CURVE ( 'NONE', #257, #201, #248, .T. ) ;
#14 = CARTESIAN_POINT ( 'NONE',  ( 0.000000000000000000, 0.000000000000000000, 5.000000000000000000 ) ) ;
#15 = CARTESIAN_POINT ( 'NONE',  ( 8.000000000000000000, 9.797174393178825657E-16, 0.000000000000000000 ) ) ;
#16 = DIRECTION ( 'NONE',  ( 0.000000000000000000, 0.000000000000000000, 1.000000000000000000 ) ) ;
#17 = ADVANCED_FACE ( 'NONE', ( #45 ), #179, .F. ) ;
#18 = VERTEX_POINT ( 'NONE', #380 ) ;
#19 = AXIS2_PLACEMENT_3D ( 'NONE', #321, #285, #161 ) ;
#20 = CARTESIAN_POINT ( 'NONE',  ( 8.000000000000000000, 9.797174393178825657E-16, 5.000000000000000000 ) ) ;
#21 = CARTESIAN_POINT ( 'NONE',  ( 0.000000000000000000, 0.000000000000000000, 105.0000000000000142 ) ) ;
#22 = VERTEX_POINT ( 'NONE', #231 ) ;
#23 = DIRECTION ( 'NONE',  ( 0.000000000000000000, 0.000000000000000000, 1.000000000000000000 ) ) ;
#24 = VERTEX_POINT ( 'NONE', #141 ) ;
#25 = CIRCLE ( 'NONE', #357, 2.750000000000000000 ) ;
#26 = ADVANCED_BREP_SHAPE_REPRESENTATION ( 'ebda', ( #168, #361 ), #340 ) ;
#27 = CC_DESIGN_APPROVAL ( #93, ( #117 ) ) ;
#28 = COORDINATED_UNIVERSAL_TIME_OFFSET ( 1, 0, .AHEAD. ) ;
#29 = DESIGN_CONTEXT ( 'detailed design', #309, 'design' ) ;
#30 = EDGE_LOOP ( 'NONE', ( #325, #194 ) ) ;
#31 = LINE ( 'NONE', #148, #339 ) ;
#32 = PERSON_AND_ORGANIZATION ( #252, #53 ) ;
#33 = ADVANCED_FACE ( 'NONE', ( #104, #262 ), #171, .F. ) ;
#34 = DIRECTION ( 'NONE',  ( -0.000000000000000000, -0.000000000000000000, -1.000000000000000000 ) ) ;
#35 = DIRECTION ( 'NONE',  ( 0.000000000000000000, 0.000000000000000000, -1.000000000000000000 ) ) ;
#36 = ORIENTED_EDGE ( 'NONE', *, *, #363, .T. ) ;
#37 = CYLINDRICAL_SURFACE ( 'NONE', #334, 8.000000000000000000 ) ;
#38 = DIRECTION ( 'NONE',  ( 1.000000000000000000, 0.000000000000000000, 0.000000000000000000 ) ) ;
#39 = EDGE_LOOP ( 'NONE', ( #150, #237, #36, #193 ) ) ;
#40 = AXIS2_PLACEMENT_3D ( 'NONE', #132, #23, #345 ) ;
#41 = CYLINDRICAL_SURFACE ( 'NONE', #217, 5.000000000000000000 ) ;
#42 = DIRECTION ( 'NONE',  ( 0.000000000000000000, 0.000000000000000000, 1.000000000000000000 ) ) ;
#43 = APPROVAL ( #355, 'NEURÈENÝ' ) ;
#44 = DIRECTION ( 'NONE',  ( 0.000000000000000000, 0.000000000000000000, 1.000000000000000000 ) ) ;
#45 = FACE_OUTER_BOUND ( 'NONE', #138, .T. ) ;
#46 = ORIENTED_EDGE ( 'NONE', *, *, #353, .T. ) ;
#47 = APPLICATION_CONTEXT ( 'configuration controlled 3d designs of mechanical parts and assemblies' ) ;
#48 = ORIENTED_EDGE ( 'NONE', *, *, #84, .F. ) ;
#49 = FACE_OUTER_BOUND ( 'NONE', #322, .T. ) ;
#50 = DIRECTION ( 'NONE',  ( 0.000000000000000000, 0.000000000000000000, 1.000000000000000000 ) ) ;
#51 = VERTEX_POINT ( 'NONE', #362 ) ;
#52 = PERSON_AND_ORGANIZATION_ROLE ( 'classification_officer' ) ;
#53 = ORGANIZATION ( 'NEURÈENÝ', 'NEURÈENÝ', '' ) ;
#54 = EDGE_CURVE ( 'NONE', #146, #257, #144, .T. ) ;
#55 = DATE_TIME_ROLE ( 'creation_date' ) ;
#56 = CALENDAR_DATE ( 2022, 8, 7 ) ;
#57 = CIRCLE ( 'NONE', #302, 8.000000000000000000 ) ;
#58 = ORIENTED_EDGE ( 'NONE', *, *, #101, .T. ) ;
#59 = COORDINATED_UNIVERSAL_TIME_OFFSET ( 1, 0, .AHEAD. ) ;
#60 = PLANE ( 'NONE',  #226 ) ;
#61 = CC_DESIGN_DATE_AND_TIME_ASSIGNMENT ( #166, #236, ( #240 ) ) ;
#62 = AXIS2_PLACEMENT_3D ( 'NONE', #328, #297, #241 ) ;
#63 = CARTESIAN_POINT ( 'NONE',  ( 0.000000000000000000, 0.000000000000000000, 105.0000000000000142 ) ) ;
#64 = CIRCLE ( 'NONE', #102, 5.500000000000000000 ) ;
#65 = EDGE_CURVE ( 'NONE', #67, #88, #31, .T. ) ;
#66 = DIRECTION ( 'NONE',  ( -1.000000000000000000, 0.000000000000000000, 0.000000000000000000 ) ) ;
#67 = VERTEX_POINT ( 'NONE', #208 ) ;
#68 = DIRECTION ( 'NONE',  ( -0.000000000000000000, -0.000000000000000000, -1.000000000000000000 ) ) ;
#69 = CARTESIAN_POINT ( 'NONE',  ( 0.000000000000000000, 0.000000000000000000, 0.000000000000000000 ) ) ;
#70 = LOCAL_TIME ( 17, 6, 17.00000000000000000, #119 ) ;
#71 = DIRECTION ( 'NONE',  ( -1.000000000000000000, 0.000000000000000000, 0.000000000000000000 ) ) ;
#72 = LINE ( 'NONE', #191, #335 ) ;
#73 = CARTESIAN_POINT ( 'NONE',  ( 0.000000000000000000, 0.000000000000000000, 105.0000000000000142 ) ) ;
#74 = AXIS2_PLACEMENT_3D ( 'NONE', #256, #290, #227 ) ;
#75 = DIRECTION ( 'NONE',  ( 1.000000000000000000, 0.000000000000000000, 0.000000000000000000 ) ) ;
#76 = ORIENTED_EDGE ( 'NONE', *, *, #281, .F. ) ;
#77 = ORIENTED_EDGE ( 'NONE', *, *, #289, .T. ) ;
#78 = FACE_OUTER_BOUND ( 'NONE', #39, .T. ) ;
#79 = DIRECTION ( 'NONE',  ( 0.000000000000000000, -1.000000000000000000, 0.000000000000000000 ) ) ;
#80 = ORIENTED_EDGE ( 'NONE', *, *, #289, .F. ) ;
#81 = DIRECTION ( 'NONE',  ( 0.000000000000000000, 0.000000000000000000, -1.000000000000000000 ) ) ;
#82 = ORIENTED_EDGE ( 'NONE', *, *, #200, .F. ) ;
#83 = UNCERTAINTY_MEASURE_WITH_UNIT (LENGTH_MEASURE( 1.000000000000000082E-05 ), #170, 'distance_accuracy_value', 'NONE');
#84 = EDGE_CURVE ( 'NONE', #88, #22, #158, .T. ) ;
#85 = CIRCLE ( 'NONE', #212, 5.000000000000000000 ) ;
#86 = APPROVAL_ROLE ( '' ) ;
#87 = AXIS2_PLACEMENT_3D ( 'NONE', #255, #44, #229 ) ;
#88 = VERTEX_POINT ( 'NONE', #272 ) ;
#89 = APPLICATION_PROTOCOL_DEFINITION ( 'international standard', 'config_control_design', 1994, #47 ) ;
#90 = DIRECTION ( 'NONE',  ( 1.000000000000000000, 0.000000000000000000, 0.000000000000000000 ) ) ;
#91 = AXIS2_PLACEMENT_3D ( 'NONE', #157, #111, #323 ) ;
#92 = DIRECTION ( 'NONE',  ( 0.000000000000000000, 0.000000000000000000, -1.000000000000000000 ) ) ;
#93 = APPROVAL ( #215, 'NEURÈENÝ' ) ;
#94 = DIRECTION ( 'NONE',  ( 1.000000000000000000, 0.000000000000000000, 0.000000000000000000 ) ) ;
#95 = SHAPE_DEFINITION_REPRESENTATION ( #354, #26 ) ;
#96 = FACE_OUTER_BOUND ( 'NONE', #115, .T. ) ;
#97 = EDGE_LOOP ( 'NONE', ( #288, #352, #137, #77 ) ) ;
#98 = AXIS2_PLACEMENT_3D ( 'NONE', #318, #42, #274 ) ;
#99 = DIRECTION ( 'NONE',  ( -1.000000000000000000, 0.000000000000000000, 0.000000000000000000 ) ) ;
#100 = CARTESIAN_POINT ( 'NONE',  ( 0.000000000000000000, 0.000000000000000000, 5.000000000000000000 ) ) ;
#101 = EDGE_CURVE ( 'NONE', #284, #199, #300, .T. ) ;
#102 = AXIS2_PLACEMENT_3D ( 'NONE', #134, #283, #253 ) ;
#103 = CARTESIAN_POINT ( 'NONE',  ( 0.000000000000000000, 0.000000000000000000, 5.000000000000000000 ) ) ;
#104 = FACE_BOUND ( 'NONE', #192, .T. ) ;
#105 = DIRECTION ( 'NONE',  ( 0.000000000000000000, 0.000000000000000000, 1.000000000000000000 ) ) ;
#106 = ADVANCED_FACE ( 'NONE', ( #337, #268 ), #60, .T. ) ;
#107 = DIRECTION ( 'NONE',  ( 1.000000000000000000, 0.000000000000000000, 0.000000000000000000 ) ) ;
#108 = CIRCLE ( 'NONE', #153, 5.500000000000000000 ) ;
#109 = VECTOR ( 'NONE', #314, 1000.000000000000000 ) ;
#110 = AXIS2_PLACEMENT_3D ( 'NONE', #282, #16, #373 ) ;
#111 = DIRECTION ( 'NONE',  ( 0.000000000000000000, 0.000000000000000000, 1.000000000000000000 ) ) ;
#112 = PERSON_AND_ORGANIZATION ( #252, #53 ) ;
#113 = ADVANCED_FACE ( 'NONE', ( #278 ), #37, .T. ) ;
#114 = VECTOR ( 'NONE', #34, 1000.000000000000000 ) ;
#115 = EDGE_LOOP ( 'NONE', ( #190, #225, #308, #82 ) ) ;
#116 = SECURITY_CLASSIFICATION_LEVEL ( 'unclassified' ) ;
#117 = PRODUCT_DEFINITION_FORMATION_WITH_SPECIFIED_SOURCE ( 'LIBOVOLNÝ', '', #118, .NOT_KNOWN. ) ;
#118 = PRODUCT ( 'ebda', 'ebda', '', ( #209 ) ) ;
#119 = COORDINATED_UNIVERSAL_TIME_OFFSET ( 1, 0, .AHEAD. ) ;
#120 = DIRECTION ( 'NONE',  ( 0.000000000000000000, 0.000000000000000000, 1.000000000000000000 ) ) ;
#121 = CALENDAR_DATE ( 2022, 8, 7 ) ;
#122 = LOCAL_TIME ( 17, 6, 17.00000000000000000, #267 ) ;
#123 = EDGE_CURVE ( 'NONE', #201, #298, #108, .T. ) ;
#124 = CARTESIAN_POINT ( 'NONE',  ( -5.000000000000000000, 0.000000000000000000, 5.500000000000005329 ) ) ;
#125 = CARTESIAN_POINT ( 'NONE',  ( -8.000000000000000000, 0.000000000000000000, 5.000000000000000000 ) ) ;
#126 = EDGE_LOOP ( 'NONE', ( #163, #203 ) ) ;
#127 = AXIS2_PLACEMENT_3D ( 'NONE', #247, #221, #342 ) ;
#128 = CIRCLE ( 'NONE', #87, 5.000000000000000000 ) ;
#129 = LINE ( 'NONE', #222, #109 ) ;
#130 = CARTESIAN_POINT ( 'NONE',  ( 5.500000000000000000, 0.000000000000000000, 5.000000000000002665 ) ) ;
#131 = DIRECTION ( 'NONE',  ( -1.000000000000000000, 0.000000000000000000, 0.000000000000000000 ) ) ;
#132 = CARTESIAN_POINT ( 'NONE',  ( 0.000000000000000000, 0.000000000000000000, 105.0000000000000142 ) ) ;
#133 = DIRECTION ( 'NONE',  ( 0.000000000000000000, 0.000000000000000000, -1.000000000000000000 ) ) ;
#134 = CARTESIAN_POINT ( 'NONE',  ( 0.000000000000000000, 0.000000000000000000, 5.000000000000000000 ) ) ;
#135 = AXIS2_PLACEMENT_3D ( 'NONE', #69, #280, #38 ) ;
#136 = CARTESIAN_POINT ( 'NONE',  ( 0.000000000000000000, 0.000000000000000000, 5.500000000000005329 ) ) ;
#137 = ORIENTED_EDGE ( 'NONE', *, *, #200, .T. ) ;
#138 = EDGE_LOOP ( 'NONE', ( #80, #292, #329, #294 ) ) ;
#139 = APPROVAL_STATUS ( 'not_yet_approved' ) ;
#140 = ADVANCED_FACE ( 'NONE', ( #96 ), #364, .T. ) ;
#141 = CARTESIAN_POINT ( 'NONE',  ( -8.000000000000000000, 0.000000000000000000, 5.000000000000000000 ) ) ;
#142 = ORIENTED_EDGE ( 'NONE', *, *, #189, .T. ) ;
#143 = DATE_AND_TIME ( #7, #122 ) ;
#144 = LINE ( 'NONE', #8, #114 ) ;
#145 = APPROVAL_DATE_TIME ( #207, #346 ) ;
#146 = VERTEX_POINT ( 'NONE', #216 ) ;
#147 = PERSON_AND_ORGANIZATION_ROLE ( 'design_owner' ) ;
#148 = CARTESIAN_POINT ( 'NONE',  ( -2.750000000000000000, 0.000000000000000000, 105.0000000000000142 ) ) ;
#149 = CARTESIAN_POINT ( 'NONE',  ( 0.000000000000000000, 0.000000000000000000, 5.000000000000000000 ) ) ;
#150 = ORIENTED_EDGE ( 'NONE', *, *, #293, .T. ) ;
#151 = CARTESIAN_POINT ( 'NONE',  ( 0.000000000000000000, 0.000000000000000000, 5.000000000000000000 ) ) ;
#152 = VERTEX_POINT ( 'NONE', #124 ) ;
#153 = AXIS2_PLACEMENT_3D ( 'NONE', #14, #188, #94 ) ;
#154 = AXIS2_PLACEMENT_3D ( 'NONE', #319, #374, #287 ) ;
#155 = CYLINDRICAL_SURFACE ( 'NONE', #233, 8.000000000000000000 ) ;
#156 = ADVANCED_FACE ( 'NONE', ( #310 ), #155, .T. ) ;
#157 = CARTESIAN_POINT ( 'NONE',  ( 0.000000000000000000, 0.000000000000000000, 5.500000000000005329 ) ) ;
#158 = CIRCLE ( 'NONE', #184, 2.750000000000000000 ) ;
#159 = VECTOR ( 'NONE', #68, 1000.000000000000000 ) ;
#160 = CC_DESIGN_SECURITY_CLASSIFICATION ( #240, ( #117 ) ) ;
#161 = DIRECTION ( 'NONE',  ( 1.000000000000000000, 0.000000000000000000, 0.000000000000000000 ) ) ;
#162 = CC_DESIGN_PERSON_AND_ORGANIZATION_ASSIGNMENT ( #112, #147, ( #118 ) ) ;
#163 = ORIENTED_EDGE ( 'NONE', *, *, #276, .T. ) ;
#164 = DIRECTION ( 'NONE',  ( 1.000000000000000000, 0.000000000000000000, 0.000000000000000000 ) ) ;
#165 = CLOSED_SHELL ( 'NONE', ( #333, #17, #140, #113, #156, #326, #33, #206, #106, #317, #246 ) ) ;
#166 = DATE_AND_TIME ( #271, #70 ) ;
#167 = EDGE_LOOP ( 'NONE', ( #311, #169 ) ) ;
#168 = MANIFOLD_SOLID_BREP ( 'Odebrat vysunutím3', #165 ) ;
#169 = ORIENTED_EDGE ( 'NONE', *, *, #189, .F. ) ;
#170 =( LENGTH_UNIT ( ) NAMED_UNIT ( * ) SI_UNIT ( .MILLI., .METRE. ) );
#171 = PLANE ( 'NONE',  #62 ) ;
#172 = EDGE_CURVE ( 'NONE', #24, #284, #277, .T. ) ;
#173 = AXIS2_PLACEMENT_3D ( 'NONE', #265, #120, #90 ) ;
#174 = PERSON_AND_ORGANIZATION_ROLE ( 'creator' ) ;
#175 = DIRECTION ( 'NONE',  ( -0.000000000000000000, -0.000000000000000000, -1.000000000000000000 ) ) ;
#176 = CIRCLE ( 'NONE', #110, 8.000000000000000000 ) ;
#177 = DATE_AND_TIME ( #56, #187 ) ;
#178 = EDGE_CURVE ( 'NONE', #359, #199, #367, .T. ) ;
#179 = TOROIDAL_SURFACE ( 'NONE', #74, 5.500000000000000000, 0.5000000000000000000 ) ;
#180 = CC_DESIGN_PERSON_AND_ORGANIZATION_ASSIGNMENT ( #238, #330, ( #210 ) ) ;
#181 = DIRECTION ( 'NONE',  ( -1.000000000000000000, 0.000000000000000000, 0.000000000000000000 ) ) ;
#182 = CIRCLE ( 'NONE', #40, 2.750000000000000000 ) ;
#183 = DIRECTION ( 'NONE',  ( 1.000000000000000000, 0.000000000000000000, -0.000000000000000000 ) ) ;
#184 = AXIS2_PLACEMENT_3D ( 'NONE', #1, #175, #304 ) ;
#185 = CARTESIAN_POINT ( 'NONE',  ( 8.000000000000000000, 9.797174393178825657E-16, 5.000000000000000000 ) ) ;
#186 = CC_DESIGN_PERSON_AND_ORGANIZATION_ASSIGNMENT ( #32, #52, ( #240 ) ) ;
#187 = LOCAL_TIME ( 17, 6, 17.00000000000000000, #59 ) ;
#188 = DIRECTION ( 'NONE',  ( -0.000000000000000000, -0.000000000000000000, -1.000000000000000000 ) ) ;
#189 = EDGE_CURVE ( 'NONE', #199, #284, #347, .T. ) ;
#190 = ORIENTED_EDGE ( 'NONE', *, *, #242, .F. ) ;
#191 = CARTESIAN_POINT ( 'NONE',  ( 2.750000000000000000, 3.367778697655221012E-16, 105.0000000000000142 ) ) ;
#192 = EDGE_LOOP ( 'NONE', ( #48, #220 ) ) ;
#193 = ORIENTED_EDGE ( 'NONE', *, *, #65, .F. ) ;
#194 = ORIENTED_EDGE ( 'NONE', *, *, #353, .F. ) ;
#195 = PLANE ( 'NONE',  #10 ) ;
#196 = ORIENTED_EDGE ( 'NONE', *, *, #379, .F. ) ;
#197 = ORIENTED_EDGE ( 'NONE', *, *, #172, .F. ) ;
#198 = CARTESIAN_POINT ( 'NONE',  ( -5.500000000000000000, 6.735557395310442023E-16, 5.000000000000002665 ) ) ;
#199 = VERTEX_POINT ( 'NONE', #15 ) ;
#200 = EDGE_CURVE ( 'NONE', #18, #152, #129, .T. ) ;
#201 = VERTEX_POINT ( 'NONE', #130 ) ;
#202 = CARTESIAN_POINT ( 'NONE',  ( 0.000000000000000000, 0.000000000000000000, 0.000000000000000000 ) ) ;
#203 = ORIENTED_EDGE ( 'NONE', *, *, #369, .T. ) ;
#204 = EDGE_LOOP ( 'NONE', ( #360, #228 ) ) ;
#205 = COORDINATED_UNIVERSAL_TIME_OFFSET ( 1, 0, .AHEAD. ) ;
#206 = ADVANCED_FACE ( 'NONE', ( #245 ), #41, .T. ) ;
#207 = DATE_AND_TIME ( #121, #348 ) ;
#208 = CARTESIAN_POINT ( 'NONE',  ( -2.750000000000000000, 0.000000000000000000, 105.0000000000000142 ) ) ;
#209 = MECHANICAL_CONTEXT ( 'NONE', #47, 'mechanical' ) ;
#210 = PRODUCT_DEFINITION ( 'NEZNÁMÝ', '', #117, #29 ) ;
#211 = DIRECTION ( 'NONE',  ( 0.000000000000000000, 0.000000000000000000, -1.000000000000000000 ) ) ;
#212 = AXIS2_PLACEMENT_3D ( 'NONE', #21, #50, #164 ) ;
#213 =( NAMED_UNIT ( * ) SI_UNIT ( $, .STERADIAN. ) SOLID_ANGLE_UNIT ( ) );
#214 = CC_DESIGN_APPROVAL ( #346, ( #210 ) ) ;
#215 = APPROVAL_STATUS ( 'not_yet_approved' ) ;
#216 = CARTESIAN_POINT ( 'NONE',  ( 5.000000000000000000, 6.123233995736766282E-16, 105.0000000000000142 ) ) ;
#217 = AXIS2_PLACEMENT_3D ( 'NONE', #251, #343, #71 ) ;
#218 = CC_DESIGN_APPROVAL ( #43, ( #240 ) ) ;
#219 = DIRECTION ( 'NONE',  ( -0.000000000000000000, -0.000000000000000000, -1.000000000000000000 ) ) ;
#220 = ORIENTED_EDGE ( 'NONE', *, *, #363, .F. ) ;
#221 = DIRECTION ( 'NONE',  ( -0.000000000000000000, -0.000000000000000000, -1.000000000000000000 ) ) ;
#222 = CARTESIAN_POINT ( 'NONE',  ( -5.000000000000000000, 0.000000000000000000, 105.0000000000000142 ) ) ;
#223 = CIRCLE ( 'NONE', #19, 2.750000000000000000 ) ;
#224 = DIRECTION ( 'NONE',  ( -0.000000000000000000, -0.000000000000000000, -1.000000000000000000 ) ) ;
#225 = ORIENTED_EDGE ( 'NONE', *, *, #54, .T. ) ;
#226 = AXIS2_PLACEMENT_3D ( 'NONE', #12, #341, #183 ) ;
#227 = DIRECTION ( 'NONE',  ( 1.000000000000000000, 0.000000000000000000, 0.000000000000000000 ) ) ;
#228 = ORIENTED_EDGE ( 'NONE', *, *, #286, .T. ) ;
#229 = DIRECTION ( 'NONE',  ( 1.000000000000000000, 0.000000000000000000, 0.000000000000000000 ) ) ;
#230 = DIRECTION ( 'NONE',  ( 0.000000000000000000, 0.000000000000000000, 1.000000000000000000 ) ) ;
#231 = CARTESIAN_POINT ( 'NONE',  ( 2.750000000000000000, 3.367778697655221012E-16, 0.000000000000000000 ) ) ;
#232 = APPROVAL_ROLE ( '' ) ;
#233 = AXIS2_PLACEMENT_3D ( 'NONE', #151, #370, #99 ) ;
#234 = ORIENTED_EDGE ( 'NONE', *, *, #178, .T. ) ;
#235 = EDGE_LOOP ( 'NONE', ( #6, #316, #368, #58 ) ) ;
#236 = DATE_TIME_ROLE ( 'classification_date' ) ;
#237 = ORIENTED_EDGE ( 'NONE', *, *, #379, .T. ) ;
#238 = PERSON_AND_ORGANIZATION ( #252, #53 ) ;
#239 = EDGE_LOOP ( 'NONE', ( #196, #46, #320, #263 ) ) ;
#240 = SECURITY_CLASSIFICATION ( '', '', #116 ) ;
#241 = DIRECTION ( 'NONE',  ( 1.000000000000000000, 0.000000000000000000, -0.000000000000000000 ) ) ;
#242 = EDGE_CURVE ( 'NONE', #146, #18, #3, .T. ) ;
#243 = AXIS2_PLACEMENT_3D ( 'NONE', #136, #230, #107 ) ;
#244 = ORIENTED_EDGE ( 'NONE', *, *, #13, .T. ) ;
#245 = FACE_OUTER_BOUND ( 'NONE', #97, .T. ) ;
#246 = ADVANCED_FACE ( 'NONE', ( #11 ), #338, .F. ) ;
#247 = CARTESIAN_POINT ( 'NONE',  ( 0.000000000000000000, 0.000000000000000000, 105.0000000000000142 ) ) ;
#248 = CIRCLE ( 'NONE', #356, 0.5000000000000004441 ) ;
#249 = DIRECTION ( 'NONE',  ( -0.000000000000000000, -0.000000000000000000, -1.000000000000000000 ) ) ;
#250 = APPROVAL_PERSON_ORGANIZATION ( #9, #43, #86 ) ;
#251 = CARTESIAN_POINT ( 'NONE',  ( 0.000000000000000000, 0.000000000000000000, 105.0000000000000142 ) ) ;
#252 = PERSON ( 'NEURÈENÝ', 'NEURÈENÝ', 'NEURÈENÝ', ('NEURÈENÝ'), ('NEURÈENÝ'), ('NEURÈENÝ') ) ;
#253 = DIRECTION ( 'NONE',  ( 1.000000000000000000, 0.000000000000000000, 0.000000000000000000 ) ) ;
#254 = AXIS2_PLACEMENT_3D ( 'NONE', #63, #35, #181 ) ;
#255 = CARTESIAN_POINT ( 'NONE',  ( 0.000000000000000000, 0.000000000000000000, 5.500000000000005329 ) ) ;
#256 = CARTESIAN_POINT ( 'NONE',  ( 0.000000000000000000, 0.000000000000000000, 5.500000000000005329 ) ) ;
#257 = VERTEX_POINT ( 'NONE', #307 ) ;
#258 = ORIENTED_EDGE ( 'NONE', *, *, #286, .F. ) ;
#259 = TOROIDAL_SURFACE ( 'NONE', #91, 5.500000000000000000, 0.5000000000000000000 ) ;
#260 = DIRECTION ( 'NONE',  ( 1.000000000000000000, 0.000000000000000000, 0.000000000000000000 ) ) ;
#261 = ORIENTED_EDGE ( 'NONE', *, *, #242, .T. ) ;
#262 = FACE_OUTER_BOUND ( 'NONE', #167, .T. ) ;
#263 = ORIENTED_EDGE ( 'NONE', *, *, #84, .T. ) ;
#264 =( NAMED_UNIT ( * ) PLANE_ANGLE_UNIT ( ) SI_UNIT ( $, .RADIAN. ) );
#265 = CARTESIAN_POINT ( 'NONE',  ( 0.000000000000000000, 0.000000000000000000, 0.000000000000000000 ) ) ;
#266 = CC_DESIGN_PERSON_AND_ORGANIZATION_ASSIGNMENT ( #295, #303, ( #117 ) ) ;
#267 = COORDINATED_UNIVERSAL_TIME_OFFSET ( 1, 0, .AHEAD. ) ;
#268 = FACE_OUTER_BOUND ( 'NONE', #366, .T. ) ;
#269 = APPROVAL_ROLE ( '' ) ;
#270 = ORIENTED_EDGE ( 'NONE', *, *, #344, .F. ) ;
#271 = CALENDAR_DATE ( 2022, 8, 7 ) ;
#272 = CARTESIAN_POINT ( 'NONE',  ( -2.750000000000000000, 0.000000000000000000, 0.000000000000000000 ) ) ;
#273 = APPROVAL_PERSON_ORGANIZATION ( #358, #346, #269 ) ;
#274 = DIRECTION ( 'NONE',  ( 1.000000000000000000, 0.000000000000000000, 0.000000000000000000 ) ) ;
#275 = DIRECTION ( 'NONE',  ( 0.000000000000000000, 0.000000000000000000, 1.000000000000000000 ) ) ;
#276 = EDGE_CURVE ( 'NONE', #24, #359, #57, .T. ) ;
#277 = LINE ( 'NONE', #125, #301 ) ;
#278 = FACE_OUTER_BOUND ( 'NONE', #331, .T. ) ;
#279 = AXIS2_PLACEMENT_3D ( 'NONE', #73, #81, #131 ) ;
#280 = DIRECTION ( 'NONE',  ( 0.000000000000000000, 0.000000000000000000, 1.000000000000000000 ) ) ;
#281 = EDGE_CURVE ( 'NONE', #152, #298, #377, .T. ) ;
#282 = CARTESIAN_POINT ( 'NONE',  ( 0.000000000000000000, 0.000000000000000000, 5.000000000000000000 ) ) ;
#283 = DIRECTION ( 'NONE',  ( -0.000000000000000000, -0.000000000000000000, -1.000000000000000000 ) ) ;
#284 = VERTEX_POINT ( 'NONE', #378 ) ;
#285 = DIRECTION ( 'NONE',  ( 0.000000000000000000, 0.000000000000000000, 1.000000000000000000 ) ) ;
#286 = EDGE_CURVE ( 'NONE', #298, #201, #64, .T. ) ;
#287 = DIRECTION ( 'NONE',  ( -1.000000000000000000, 1.224646799147351482E-16, 0.000000000000000000 ) ) ;
#288 = ORIENTED_EDGE ( 'NONE', *, *, #54, .F. ) ;
#289 = EDGE_CURVE ( 'NONE', #152, #257, #128, .T. ) ;
#290 = DIRECTION ( 'NONE',  ( 0.000000000000000000, 0.000000000000000000, 1.000000000000000000 ) ) ;
#291 = LOCAL_TIME ( 17, 6, 17.00000000000000000, #205 ) ;
#292 = ORIENTED_EDGE ( 'NONE', *, *, #281, .T. ) ;
#293 = EDGE_CURVE ( 'NONE', #67, #51, #182, .T. ) ;
#294 = ORIENTED_EDGE ( 'NONE', *, *, #13, .F. ) ;
#295 = PERSON_AND_ORGANIZATION ( #252, #53 ) ;
#296 = CC_DESIGN_PERSON_AND_ORGANIZATION_ASSIGNMENT ( #5, #174, ( #117 ) ) ;
#297 = DIRECTION ( 'NONE',  ( 0.000000000000000000, 0.000000000000000000, 1.000000000000000000 ) ) ;
#298 = VERTEX_POINT ( 'NONE', #198 ) ;
#299 = DIRECTION ( 'NONE',  ( 0.000000000000000000, 0.000000000000000000, 1.000000000000000000 ) ) ;
#300 = CIRCLE ( 'NONE', #173, 8.000000000000000000 ) ;
#301 = VECTOR ( 'NONE', #249, 1000.000000000000000 ) ;
#302 = AXIS2_PLACEMENT_3D ( 'NONE', #149, #275, #260 ) ;
#303 = PERSON_AND_ORGANIZATION_ROLE ( 'design_supplier' ) ;
#304 = DIRECTION ( 'NONE',  ( 1.000000000000000000, 0.000000000000000000, 0.000000000000000000 ) ) ;
#305 = APPROVAL_DATE_TIME ( #177, #93 ) ;
#306 = APPROVAL_PERSON_ORGANIZATION ( #336, #93, #232 ) ;
#307 = CARTESIAN_POINT ( 'NONE',  ( 5.000000000000000000, 6.123233995736766282E-16, 5.500000000000005329 ) ) ;
#308 = ORIENTED_EDGE ( 'NONE', *, *, #344, .T. ) ;
#309 = APPLICATION_CONTEXT ( 'configuration controlled 3d designs of mechanical parts and assemblies' ) ;
#310 = FACE_OUTER_BOUND ( 'NONE', #235, .T. ) ;
#311 = ORIENTED_EDGE ( 'NONE', *, *, #101, .F. ) ;
#312 = APPROVAL_DATE_TIME ( #313, #43 ) ;
#313 = DATE_AND_TIME ( #327, #291 ) ;
#314 = DIRECTION ( 'NONE',  ( -0.000000000000000000, -0.000000000000000000, -1.000000000000000000 ) ) ;
#315 = CIRCLE ( 'NONE', #243, 5.000000000000000000 ) ;
#316 = ORIENTED_EDGE ( 'NONE', *, *, #276, .F. ) ;
#317 = ADVANCED_FACE ( 'NONE', ( #49 ), #259, .F. ) ;
#318 = CARTESIAN_POINT ( 'NONE',  ( 0.000000000000000000, 0.000000000000000000, 105.0000000000000142 ) ) ;
#319 = CARTESIAN_POINT ( 'NONE',  ( -5.500000000000000000, 6.735557395310442023E-16, 5.500000000000005329 ) ) ;
#320 = ORIENTED_EDGE ( 'NONE', *, *, #65, .T. ) ;
#321 = CARTESIAN_POINT ( 'NONE',  ( 0.000000000000000000, 0.000000000000000000, 105.0000000000000142 ) ) ;
#322 = EDGE_LOOP ( 'NONE', ( #76, #270, #244, #258 ) ) ;
#323 = DIRECTION ( 'NONE',  ( 1.000000000000000000, 0.000000000000000000, 0.000000000000000000 ) ) ;
#324 = CYLINDRICAL_SURFACE ( 'NONE', #279, 2.750000000000000000 ) ;
#325 = ORIENTED_EDGE ( 'NONE', *, *, #293, .F. ) ;
#326 = ADVANCED_FACE ( 'NONE', ( #351, #376 ), #195, .T. ) ;
#327 = CALENDAR_DATE ( 2022, 8, 7 ) ;
#328 = CARTESIAN_POINT ( 'NONE',  ( 0.000000000000000000, 0.000000000000000000, 0.000000000000000000 ) ) ;
#329 = ORIENTED_EDGE ( 'NONE', *, *, #123, .F. ) ;
#330 = PERSON_AND_ORGANIZATION_ROLE ( 'creator' ) ;
#331 = EDGE_LOOP ( 'NONE', ( #371, #234, #142, #197 ) ) ;
#332 = DIRECTION ( 'NONE',  ( 1.000000000000000000, 0.000000000000000000, 0.000000000000000000 ) ) ;
#333 = ADVANCED_FACE ( 'NONE', ( #78 ), #324, .F. ) ;
#334 = AXIS2_PLACEMENT_3D ( 'NONE', #100, #219, #66 ) ;
#335 = VECTOR ( 'NONE', #92, 1000.000000000000000 ) ;
#336 = PERSON_AND_ORGANIZATION ( #252, #53 ) ;
#337 = FACE_BOUND ( 'NONE', #30, .T. ) ;
#338 = CYLINDRICAL_SURFACE ( 'NONE', #254, 2.750000000000000000 ) ;
#339 = VECTOR ( 'NONE', #211, 1000.000000000000000 ) ;
#340 =( GEOMETRIC_REPRESENTATION_CONTEXT ( 3 ) GLOBAL_UNCERTAINTY_ASSIGNED_CONTEXT ( ( #83 ) ) GLOBAL_UNIT_ASSIGNED_CONTEXT ( ( #170, #264, #213 ) ) REPRESENTATION_CONTEXT ( 'NONE', 'WORKASPACE' ) );
#341 = DIRECTION ( 'NONE',  ( 0.000000000000000000, 0.000000000000000000, 1.000000000000000000 ) ) ;
#342 = DIRECTION ( 'NONE',  ( -1.000000000000000000, 0.000000000000000000, 0.000000000000000000 ) ) ;
#343 = DIRECTION ( 'NONE',  ( -0.000000000000000000, -0.000000000000000000, -1.000000000000000000 ) ) ;
#344 = EDGE_CURVE ( 'NONE', #257, #152, #315, .T. ) ;
#345 = DIRECTION ( 'NONE',  ( 1.000000000000000000, 0.000000000000000000, 0.000000000000000000 ) ) ;
#346 = APPROVAL ( #139, 'NEURÈENÝ' ) ;
#347 = CIRCLE ( 'NONE', #135, 8.000000000000000000 ) ;
#348 = LOCAL_TIME ( 17, 6, 17.00000000000000000, #28 ) ;
#349 = DIRECTION ( 'NONE',  ( 1.000000000000000000, 0.000000000000000000, -0.000000000000000000 ) ) ;
#350 = CARTESIAN_POINT ( 'NONE',  ( 5.500000000000000000, 0.000000000000000000, 5.500000000000005329 ) ) ;
#351 = FACE_BOUND ( 'NONE', #204, .T. ) ;
#352 = ORIENTED_EDGE ( 'NONE', *, *, #4, .F. ) ;
#353 = EDGE_CURVE ( 'NONE', #51, #67, #223, .T. ) ;
#354 = PRODUCT_DEFINITION_SHAPE ( 'NONE', 'NONE',  #210 ) ;
#355 = APPROVAL_STATUS ( 'not_yet_approved' ) ;
#356 = AXIS2_PLACEMENT_3D ( 'NONE', #350, #79, #133 ) ;
#357 = AXIS2_PLACEMENT_3D ( 'NONE', #202, #224, #75 ) ;
#358 = PERSON_AND_ORGANIZATION ( #252, #53 ) ;
#359 = VERTEX_POINT ( 'NONE', #20 ) ;
#360 = ORIENTED_EDGE ( 'NONE', *, *, #123, .T. ) ;
#361 = AXIS2_PLACEMENT_3D ( 'NONE', #381, #299, #332 ) ;
#362 = CARTESIAN_POINT ( 'NONE',  ( 2.750000000000000000, 3.367778697655221012E-16, 105.0000000000000142 ) ) ;
#363 = EDGE_CURVE ( 'NONE', #22, #88, #25, .T. ) ;
#364 = CYLINDRICAL_SURFACE ( 'NONE', #127, 5.000000000000000000 ) ;
#365 = PRODUCT_RELATED_PRODUCT_CATEGORY ( 'detail', '', ( #118 ) ) ;
#366 = EDGE_LOOP ( 'NONE', ( #375, #261 ) ) ;
#367 = LINE ( 'NONE', #185, #159 ) ;
#368 = ORIENTED_EDGE ( 'NONE', *, *, #172, .T. ) ;
#369 = EDGE_CURVE ( 'NONE', #359, #24, #176, .T. ) ;
#370 = DIRECTION ( 'NONE',  ( -0.000000000000000000, -0.000000000000000000, -1.000000000000000000 ) ) ;
#371 = ORIENTED_EDGE ( 'NONE', *, *, #369, .F. ) ;
#372 = CC_DESIGN_DATE_AND_TIME_ASSIGNMENT ( #143, #55, ( #210 ) ) ;
#373 = DIRECTION ( 'NONE',  ( 1.000000000000000000, 0.000000000000000000, 0.000000000000000000 ) ) ;
#374 = DIRECTION ( 'NONE',  ( 1.224646799147353207E-16, 1.000000000000000000, -0.000000000000000000 ) ) ;
#375 = ORIENTED_EDGE ( 'NONE', *, *, #4, .T. ) ;
#376 = FACE_OUTER_BOUND ( 'NONE', #126, .T. ) ;
#377 = CIRCLE ( 'NONE', #154, 0.5000000000000004441 ) ;
#378 = CARTESIAN_POINT ( 'NONE',  ( -8.000000000000000000, 0.000000000000000000, 0.000000000000000000 ) ) ;
#379 = EDGE_CURVE ( 'NONE', #51, #22, #72, .T. ) ;
#380 = CARTESIAN_POINT ( 'NONE',  ( -5.000000000000000000, 0.000000000000000000, 105.0000000000000142 ) ) ;
#381 = CARTESIAN_POINT ( 'NONE',  ( 0.000000000000000000, 0.000000000000000000, 0.000000000000000000 ) ) ;
ENDSEC;
END-ISO-10303-21;
