ISO-10303-21;
HEADER;
FILE_DESCRIPTION (( 'STEP AP203' ),
    '1' );
FILE_NAME ('946b.STEP',
    '2022-07-08T14:46:37',
    ( '' ),
    ( '' ),
    'SwSTEP 2.0',
    'SolidWorks 2019',
    '' );
FILE_SCHEMA (( 'CONFIG_CONTROL_DESIGN' ));
ENDSEC;

DATA;
#1 = VERTEX_POINT ( 'NONE', #286 ) ;
#2 = MANIFOLD_SOLID_BREP ( 'Odebrat vysunutím3', #32 ) ;
#3 = AXIS2_PLACEMENT_3D ( 'NONE', #28, #257, #376 ) ;
#4 = COORDINATED_UNIVERSAL_TIME_OFFSET ( 1, 0, .AHEAD. ) ;
#5 = CIRCLE ( 'NONE', #161, 3.250000000000000444 ) ;
#6 = CYLINDRICAL_SURFACE ( 'NONE', #317, 5.000000000000000000 ) ;
#7 = MECHANICAL_CONTEXT ( 'NONE', #230, 'mechanical' ) ;
#8 = CARTESIAN_POINT ( 'NONE',  ( 0.000000000000000000, 0.000000000000000000, 180.0000000000000000 ) ) ;
#9 = PERSON_AND_ORGANIZATION ( #61, #261 ) ;
#10 = PRODUCT ( '946b', '946b', '', ( #7 ) ) ;
#11 = EDGE_CURVE ( 'NONE', #92, #243, #214, .T. ) ;
#12 = ORIENTED_EDGE ( 'NONE', *, *, #133, .F. ) ;
#13 = CALENDAR_DATE ( 2022, 8, 7 ) ;
#14 = ORIENTED_EDGE ( 'NONE', *, *, #200, .F. ) ;
#15 =( NAMED_UNIT ( * ) SI_UNIT ( $, .STERADIAN. ) SOLID_ANGLE_UNIT ( ) );
#16 = CYLINDRICAL_SURFACE ( 'NONE', #196, 3.250000000000000444 ) ;
#17 = ORIENTED_EDGE ( 'NONE', *, *, #81, .T. ) ;
#18 = DIRECTION ( 'NONE',  ( 0.000000000000000000, 0.000000000000000000, 1.000000000000000000 ) ) ;
#19 = ORIENTED_EDGE ( 'NONE', *, *, #210, .T. ) ;
#20 = ADVANCED_FACE ( 'NONE', ( #170 ), #6, .T. ) ;
#21 = CIRCLE ( 'NONE', #136, 3.250000000000000444 ) ;
#22 = FACE_BOUND ( 'NONE', #117, .T. ) ;
#23 = DIRECTION ( 'NONE',  ( 0.000000000000000000, 0.000000000000000000, 1.000000000000000000 ) ) ;
#24 = CARTESIAN_POINT ( 'NONE',  ( 0.000000000000000000, 0.000000000000000000, 5.000000000000000000 ) ) ;
#25 = ORIENTED_EDGE ( 'NONE', *, *, #124, .F. ) ;
#26 = AXIS2_PLACEMENT_3D ( 'NONE', #258, #346, #27 ) ;
#27 = DIRECTION ( 'NONE',  ( -1.000000000000000000, 0.000000000000000000, 0.000000000000000000 ) ) ;
#28 = CARTESIAN_POINT ( 'NONE',  ( 5.500000000000000000, 0.000000000000000000, 5.500000000000005329 ) ) ;
#29 = DIRECTION ( 'NONE',  ( 0.000000000000000000, 0.000000000000000000, 1.000000000000000000 ) ) ;
#30 = FACE_OUTER_BOUND ( 'NONE', #57, .T. ) ;
#31 = EDGE_CURVE ( 'NONE', #85, #228, #232, .T. ) ;
#32 = CLOSED_SHELL ( 'NONE', ( #154, #138, #118, #323, #336, #48, #302, #20, #166, #316, #90 ) ) ;
#33 = CIRCLE ( 'NONE', #284, 8.000000000000000000 ) ;
#34 = ORIENTED_EDGE ( 'NONE', *, *, #81, .F. ) ;
#35 = DIRECTION ( 'NONE',  ( 0.000000000000000000, 0.000000000000000000, 1.000000000000000000 ) ) ;
#36 = APPLICATION_PROTOCOL_DEFINITION ( 'international standard', 'config_control_design', 1994, #216 ) ;
#37 = FACE_OUTER_BOUND ( 'NONE', #43, .T. ) ;
#38 = APPROVAL_STATUS ( 'not_yet_approved' ) ;
#39 = AXIS2_PLACEMENT_3D ( 'NONE', #195, #29, #318 ) ;
#40 = CYLINDRICAL_SURFACE ( 'NONE', #193, 3.250000000000000444 ) ;
#41 = CARTESIAN_POINT ( 'NONE',  ( 0.000000000000000000, 0.000000000000000000, 5.500000000000005329 ) ) ;
#42 = CALENDAR_DATE ( 2022, 8, 7 ) ;
#43 = EDGE_LOOP ( 'NONE', ( #70, #374, #294, #12 ) ) ;
#44 = APPLICATION_PROTOCOL_DEFINITION ( 'international standard', 'config_control_design', 1994, #230 ) ;
#45 = CIRCLE ( 'NONE', #235, 0.5000000000000004441 ) ;
#46 = AXIS2_PLACEMENT_3D ( 'NONE', #378, #86, #116 ) ;
#47 = ORIENTED_EDGE ( 'NONE', *, *, #181, .F. ) ;
#48 = ADVANCED_FACE ( 'NONE', ( #67, #268 ), #178, .T. ) ;
#49 = CARTESIAN_POINT ( 'NONE',  ( 8.000000000000000000, 9.797174393178825657E-16, 0.000000000000000000 ) ) ;
#50 = LOCAL_TIME ( 16, 46, 37.00000000000000000, #4 ) ;
#51 = APPROVAL ( #157, 'NEURÈENÝ' ) ;
#52 = DIRECTION ( 'NONE',  ( -1.000000000000000000, 0.000000000000000000, 0.000000000000000000 ) ) ;
#53 = ORIENTED_EDGE ( 'NONE', *, *, #380, .T. ) ;
#54 = ORIENTED_EDGE ( 'NONE', *, *, #380, .F. ) ;
#55 = LOCAL_TIME ( 16, 46, 37.00000000000000000, #149 ) ;
#56 = DIRECTION ( 'NONE',  ( 0.000000000000000000, 0.000000000000000000, 1.000000000000000000 ) ) ;
#57 = EDGE_LOOP ( 'NONE', ( #137, #14, #143, #334 ) ) ;
#58 = DIRECTION ( 'NONE',  ( -0.000000000000000000, -0.000000000000000000, -1.000000000000000000 ) ) ;
#59 = ORIENTED_EDGE ( 'NONE', *, *, #349, .T. ) ;
#60 = EDGE_CURVE ( 'NONE', #172, #340, #265, .T. ) ;
#61 = PERSON ( 'NEURÈENÝ', 'NEURÈENÝ', 'NEURÈENÝ', ('NEURÈENÝ'), ('NEURÈENÝ'), ('NEURÈENÝ') ) ;
#62 = EDGE_LOOP ( 'NONE', ( #191, #155, #194, #72 ) ) ;
#63 = DIRECTION ( 'NONE',  ( 0.000000000000000000, 0.000000000000000000, 1.000000000000000000 ) ) ;
#64 = DIRECTION ( 'NONE',  ( 1.000000000000000000, 0.000000000000000000, 0.000000000000000000 ) ) ;
#65 =( GEOMETRIC_REPRESENTATION_CONTEXT ( 3 ) GLOBAL_UNCERTAINTY_ASSIGNED_CONTEXT ( ( #153 ) ) GLOBAL_UNIT_ASSIGNED_CONTEXT ( ( #363, #226, #15 ) ) REPRESENTATION_CONTEXT ( 'NONE', 'WORKASPACE' ) );
#66 = PERSON_AND_ORGANIZATION ( #61, #261 ) ;
#67 = FACE_BOUND ( 'NONE', #343, .T. ) ;
#68 = PRODUCT_DEFINITION_SHAPE ( 'NONE', 'NONE',  #100 ) ;
#69 = DIRECTION ( 'NONE',  ( -1.000000000000000000, 0.000000000000000000, 0.000000000000000000 ) ) ;
#70 = ORIENTED_EDGE ( 'NONE', *, *, #269, .T. ) ;
#71 = CARTESIAN_POINT ( 'NONE',  ( 0.000000000000000000, 0.000000000000000000, 0.000000000000000000 ) ) ;
#72 = ORIENTED_EDGE ( 'NONE', *, *, #299, .T. ) ;
#73 = DATE_TIME_ROLE ( 'classification_date' ) ;
#74 = AXIS2_PLACEMENT_3D ( 'NONE', #251, #218, #339 ) ;
#75 = CARTESIAN_POINT ( 'NONE',  ( 0.000000000000000000, 0.000000000000000000, 5.000000000000000000 ) ) ;
#76 = APPROVAL ( #108, 'NEURÈENÝ' ) ;
#77 = EDGE_LOOP ( 'NONE', ( #211, #19, #160, #288 ) ) ;
#78 = CARTESIAN_POINT ( 'NONE',  ( 5.500000000000000000, 0.000000000000000000, 5.000000000000002665 ) ) ;
#79 = COORDINATED_UNIVERSAL_TIME_OFFSET ( 1, 0, .AHEAD. ) ;
#80 = CARTESIAN_POINT ( 'NONE',  ( 0.000000000000000000, 0.000000000000000000, 180.0000000000000000 ) ) ;
#81 = EDGE_CURVE ( 'NONE', #228, #310, #45, .T. ) ;
#82 = DIRECTION ( 'NONE',  ( 0.000000000000000000, 0.000000000000000000, 1.000000000000000000 ) ) ;
#83 = CIRCLE ( 'NONE', #148, 8.000000000000000000 ) ;
#84 = PLANE ( 'NONE',  #74 ) ;
#85 = VERTEX_POINT ( 'NONE', #205 ) ;
#86 = DIRECTION ( 'NONE',  ( -0.000000000000000000, -0.000000000000000000, -1.000000000000000000 ) ) ;
#87 = VERTEX_POINT ( 'NONE', #273 ) ;
#88 = DIRECTION ( 'NONE',  ( 1.000000000000000000, 0.000000000000000000, 0.000000000000000000 ) ) ;
#89 = LOCAL_TIME ( 16, 46, 37.00000000000000000, #270 ) ;
#90 = ADVANCED_FACE ( 'NONE', ( #295 ), #16, .F. ) ;
#91 = CARTESIAN_POINT ( 'NONE',  ( 0.000000000000000000, 0.000000000000000000, 5.000000000000000000 ) ) ;
#92 = VERTEX_POINT ( 'NONE', #300 ) ;
#93 = PLANE ( 'NONE',  #352 ) ;
#94 = ORIENTED_EDGE ( 'NONE', *, *, #174, .T. ) ;
#95 = LINE ( 'NONE', #377, #290 ) ;
#96 = ORIENTED_EDGE ( 'NONE', *, *, #11, .F. ) ;
#97 = CC_DESIGN_APPROVAL ( #362, ( #141 ) ) ;
#98 = ORIENTED_EDGE ( 'NONE', *, *, #222, .F. ) ;
#99 = DIRECTION ( 'NONE',  ( 1.000000000000000000, 0.000000000000000000, 0.000000000000000000 ) ) ;
#100 = PRODUCT_DEFINITION ( 'NEZNÁMÝ', '', #141, #213 ) ;
#101 = CIRCLE ( 'NONE', #333, 8.000000000000000000 ) ;
#102 = DIRECTION ( 'NONE',  ( -0.000000000000000000, -0.000000000000000000, -1.000000000000000000 ) ) ;
#103 = ORIENTED_EDGE ( 'NONE', *, *, #269, .F. ) ;
#104 = LINE ( 'NONE', #105, #130 ) ;
#105 = CARTESIAN_POINT ( 'NONE',  ( -3.250000000000000444, 0.000000000000000000, 180.0000000000000000 ) ) ;
#106 = ORIENTED_EDGE ( 'NONE', *, *, #111, .T. ) ;
#107 = DIRECTION ( 'NONE',  ( 0.000000000000000000, 0.000000000000000000, 1.000000000000000000 ) ) ;
#108 = APPROVAL_STATUS ( 'not_yet_approved' ) ;
#109 = AXIS2_PLACEMENT_3D ( 'NONE', #159, #82, #369 ) ;
#110 = FACE_OUTER_BOUND ( 'NONE', #77, .T. ) ;
#111 = EDGE_CURVE ( 'NONE', #228, #92, #156, .T. ) ;
#112 = EDGE_LOOP ( 'NONE', ( #47, #125 ) ) ;
#113 = DIRECTION ( 'NONE',  ( 1.000000000000000000, 0.000000000000000000, 0.000000000000000000 ) ) ;
#114 = TOROIDAL_SURFACE ( 'NONE', #325, 5.500000000000000000, 0.5000000000000000000 ) ;
#115 = LOCAL_TIME ( 16, 46, 37.00000000000000000, #79 ) ;
#116 = DIRECTION ( 'NONE',  ( 1.000000000000000000, 0.000000000000000000, 0.000000000000000000 ) ) ;
#117 = EDGE_LOOP ( 'NONE', ( #103, #98 ) ) ;
#118 = ADVANCED_FACE ( 'NONE', ( #242 ), #202, .T. ) ;
#119 = ORIENTED_EDGE ( 'NONE', *, *, #311, .T. ) ;
#120 = CIRCLE ( 'NONE', #247, 5.000000000000000000 ) ;
#121 = DATE_AND_TIME ( #324, #50 ) ;
#122 = PERSON_AND_ORGANIZATION ( #61, #261 ) ;
#123 = CARTESIAN_POINT ( 'NONE',  ( 0.000000000000000000, 0.000000000000000000, 5.000000000000000000 ) ) ;
#124 = EDGE_CURVE ( 'NONE', #85, #165, #120, .T. ) ;
#125 = ORIENTED_EDGE ( 'NONE', *, *, #342, .F. ) ;
#126 = AXIS2_PLACEMENT_3D ( 'NONE', #142, #56, #113 ) ;
#127 = DIRECTION ( 'NONE',  ( -0.000000000000000000, -0.000000000000000000, -1.000000000000000000 ) ) ;
#128 = ORIENTED_EDGE ( 'NONE', *, *, #124, .T. ) ;
#129 = ORIENTED_EDGE ( 'NONE', *, *, #11, .T. ) ;
#130 = VECTOR ( 'NONE', #207, 1000.000000000000000 ) ;
#131 = CIRCLE ( 'NONE', #368, 3.250000000000000444 ) ;
#132 = CARTESIAN_POINT ( 'NONE',  ( 5.000000000000000000, 6.123233995736766282E-16, 180.0000000000000000 ) ) ;
#133 = EDGE_CURVE ( 'NONE', #276, #340, #104, .T. ) ;
#134 = LINE ( 'NONE', #303, #198 ) ;
#135 = AXIS2_PLACEMENT_3D ( 'NONE', #123, #360, #297 ) ;
#136 = AXIS2_PLACEMENT_3D ( 'NONE', #80, #188, #167 ) ;
#137 = ORIENTED_EDGE ( 'NONE', *, *, #210, .F. ) ;
#138 = ADVANCED_FACE ( 'NONE', ( #331 ), #114, .F. ) ;
#139 = DIRECTION ( 'NONE',  ( -1.000000000000000000, 0.000000000000000000, 0.000000000000000000 ) ) ;
#140 = CARTESIAN_POINT ( 'NONE',  ( -3.250000000000000444, 0.000000000000000000, 0.000000000000000000 ) ) ;
#141 = PRODUCT_DEFINITION_FORMATION_WITH_SPECIFIED_SOURCE ( 'LIBOVOLNÝ', '', #10, .NOT_KNOWN. ) ;
#142 = CARTESIAN_POINT ( 'NONE',  ( 0.000000000000000000, 0.000000000000000000, 180.0000000000000000 ) ) ;
#143 = ORIENTED_EDGE ( 'NONE', *, *, #227, .T. ) ;
#144 = CARTESIAN_POINT ( 'NONE',  ( -8.000000000000000000, 0.000000000000000000, 5.000000000000000000 ) ) ;
#145 = EDGE_LOOP ( 'NONE', ( #128, #119 ) ) ;
#146 = PERSON_AND_ORGANIZATION ( #61, #261 ) ;
#147 = CARTESIAN_POINT ( 'NONE',  ( 0.000000000000000000, 0.000000000000000000, 5.500000000000005329 ) ) ;
#148 = AXIS2_PLACEMENT_3D ( 'NONE', #306, #23, #282 ) ;
#149 = COORDINATED_UNIVERSAL_TIME_OFFSET ( 1, 0, .AHEAD. ) ;
#150 = CARTESIAN_POINT ( 'NONE',  ( 0.000000000000000000, 0.000000000000000000, 180.0000000000000000 ) ) ;
#151 = DIRECTION ( 'NONE',  ( -1.000000000000000000, 0.000000000000000000, 0.000000000000000000 ) ) ;
#152 = PERSON_AND_ORGANIZATION ( #61, #261 ) ;
#153 = UNCERTAINTY_MEASURE_WITH_UNIT (LENGTH_MEASURE( 1.000000000000000082E-05 ), #363, 'distance_accuracy_value', 'NONE');
#154 = ADVANCED_FACE ( 'NONE', ( #37 ), #40, .F. ) ;
#155 = ORIENTED_EDGE ( 'NONE', *, *, #222, .T. ) ;
#156 = CIRCLE ( 'NONE', #254, 5.000000000000000000 ) ;
#157 = APPROVAL_STATUS ( 'not_yet_approved' ) ;
#158 = DIRECTION ( 'NONE',  ( -1.000000000000000000, 1.224646799147351482E-16, 0.000000000000000000 ) ) ;
#159 = CARTESIAN_POINT ( 'NONE',  ( 0.000000000000000000, 0.000000000000000000, 5.500000000000005329 ) ) ;
#160 = ORIENTED_EDGE ( 'NONE', *, *, #342, .T. ) ;
#161 = AXIS2_PLACEMENT_3D ( 'NONE', #350, #171, #341 ) ;
#162 = EDGE_CURVE ( 'NONE', #1, #172, #244, .T. ) ;
#163 = APPROVAL_ROLE ( '' ) ;
#164 = CARTESIAN_POINT ( 'NONE',  ( 3.250000000000000444, 3.980102097228897245E-16, 0.000000000000000000 ) ) ;
#165 = VERTEX_POINT ( 'NONE', #132 ) ;
#166 = ADVANCED_FACE ( 'NONE', ( #22, #337 ), #84, .T. ) ;
#167 = DIRECTION ( 'NONE',  ( 1.000000000000000000, 0.000000000000000000, 0.000000000000000000 ) ) ;
#168 = VECTOR ( 'NONE', #212, 1000.000000000000000 ) ;
#169 = FACE_BOUND ( 'NONE', #365, .T. ) ;
#170 = FACE_OUTER_BOUND ( 'NONE', #256, .T. ) ;
#171 = DIRECTION ( 'NONE',  ( -0.000000000000000000, -0.000000000000000000, -1.000000000000000000 ) ) ;
#172 = VERTEX_POINT ( 'NONE', #164 ) ;
#173 = AXIS2_PLACEMENT_3D ( 'NONE', #347, #220, #88 ) ;
#174 = EDGE_CURVE ( 'NONE', #92, #228, #184, .T. ) ;
#175 = DIRECTION ( 'NONE',  ( 1.000000000000000000, 0.000000000000000000, 0.000000000000000000 ) ) ;
#176 = DIRECTION ( 'NONE',  ( 0.000000000000000000, 0.000000000000000000, -1.000000000000000000 ) ) ;
#177 = PERSON_AND_ORGANIZATION_ROLE ( 'design_supplier' ) ;
#178 = PLANE ( 'NONE',  #135 ) ;
#179 = SECURITY_CLASSIFICATION_LEVEL ( 'unclassified' ) ;
#180 = DIRECTION ( 'NONE',  ( 1.000000000000000000, 0.000000000000000000, 0.000000000000000000 ) ) ;
#181 = EDGE_CURVE ( 'NONE', #379, #225, #83, .T. ) ;
#182 = ORIENTED_EDGE ( 'NONE', *, *, #307, .F. ) ;
#183 = DIRECTION ( 'NONE',  ( 1.000000000000000000, 0.000000000000000000, 0.000000000000000000 ) ) ;
#184 = CIRCLE ( 'NONE', #109, 5.000000000000000000 ) ;
#185 = CALENDAR_DATE ( 2022, 8, 7 ) ;
#186 = LINE ( 'NONE', #209, #168 ) ;
#187 = SHAPE_DEFINITION_REPRESENTATION ( #68, #283 ) ;
#188 = DIRECTION ( 'NONE',  ( 0.000000000000000000, 0.000000000000000000, 1.000000000000000000 ) ) ;
#189 = CIRCLE ( 'NONE', #126, 5.000000000000000000 ) ;
#190 = CARTESIAN_POINT ( 'NONE',  ( 0.000000000000000000, 0.000000000000000000, 180.0000000000000000 ) ) ;
#191 = ORIENTED_EDGE ( 'NONE', *, *, #162, .F. ) ;
#192 = ORIENTED_EDGE ( 'NONE', *, *, #299, .F. ) ;
#193 = AXIS2_PLACEMENT_3D ( 'NONE', #190, #249, #52 ) ;
#194 = ORIENTED_EDGE ( 'NONE', *, *, #133, .T. ) ;
#195 = CARTESIAN_POINT ( 'NONE',  ( 0.000000000000000000, 0.000000000000000000, 5.500000000000005329 ) ) ;
#196 = AXIS2_PLACEMENT_3D ( 'NONE', #355, #176, #239 ) ;
#197 = ORIENTED_EDGE ( 'NONE', *, *, #200, .T. ) ;
#198 = VECTOR ( 'NONE', #370, 1000.000000000000000 ) ;
#199 = PERSON_AND_ORGANIZATION_ROLE ( 'design_owner' ) ;
#200 = EDGE_CURVE ( 'NONE', #308, #87, #101, .T. ) ;
#201 = PERSON_AND_ORGANIZATION ( #61, #261 ) ;
#202 = CYLINDRICAL_SURFACE ( 'NONE', #332, 5.000000000000000000 ) ;
#203 = APPROVAL_PERSON_ORGANIZATION ( #250, #76, #163 ) ;
#204 = PERSON_AND_ORGANIZATION_ROLE ( 'creator' ) ;
#205 = CARTESIAN_POINT ( 'NONE',  ( -5.000000000000000000, 0.000000000000000000, 180.0000000000000000 ) ) ;
#206 = CARTESIAN_POINT ( 'NONE',  ( 0.000000000000000000, 0.000000000000000000, 0.000000000000000000 ) ) ;
#207 = DIRECTION ( 'NONE',  ( 0.000000000000000000, 0.000000000000000000, -1.000000000000000000 ) ) ;
#208 = CIRCLE ( 'NONE', #173, 5.500000000000000000 ) ;
#209 = CARTESIAN_POINT ( 'NONE',  ( -8.000000000000000000, 0.000000000000000000, 5.000000000000000000 ) ) ;
#210 = EDGE_CURVE ( 'NONE', #87, #225, #134, .T. ) ;
#211 = ORIENTED_EDGE ( 'NONE', *, *, #259, .F. ) ;
#212 = DIRECTION ( 'NONE',  ( -0.000000000000000000, -0.000000000000000000, -1.000000000000000000 ) ) ;
#213 = DESIGN_CONTEXT ( 'detailed design', #216, 'design' ) ;
#214 = CIRCLE ( 'NONE', #3, 0.5000000000000004441 ) ;
#215 = CC_DESIGN_DATE_AND_TIME_ASSIGNMENT ( #241, #73, ( #266 ) ) ;
#216 = APPLICATION_CONTEXT ( 'configuration controlled 3d designs of mechanical parts and assemblies' ) ;
#217 = CARTESIAN_POINT ( 'NONE',  ( 0.000000000000000000, 0.000000000000000000, 180.0000000000000000 ) ) ;
#218 = DIRECTION ( 'NONE',  ( 0.000000000000000000, 0.000000000000000000, 1.000000000000000000 ) ) ;
#219 = EDGE_LOOP ( 'NONE', ( #34, #271, #129, #348 ) ) ;
#220 = DIRECTION ( 'NONE',  ( -0.000000000000000000, -0.000000000000000000, -1.000000000000000000 ) ) ;
#221 = AXIS2_PLACEMENT_3D ( 'NONE', #75, #107, #335 ) ;
#222 = EDGE_CURVE ( 'NONE', #1, #276, #131, .T. ) ;
#223 = ORIENTED_EDGE ( 'NONE', *, *, #307, .T. ) ;
#224 = DIRECTION ( 'NONE',  ( 1.000000000000000000, 0.000000000000000000, -0.000000000000000000 ) ) ;
#225 = VERTEX_POINT ( 'NONE', #49 ) ;
#226 =( NAMED_UNIT ( * ) PLANE_ANGLE_UNIT ( ) SI_UNIT ( $, .RADIAN. ) );
#227 = EDGE_CURVE ( 'NONE', #308, #379, #186, .T. ) ;
#228 = VERTEX_POINT ( 'NONE', #304 ) ;
#229 = AXIS2_PLACEMENT_3D ( 'NONE', #91, #375, #139 ) ;
#230 = APPLICATION_CONTEXT ( 'configuration controlled 3d designs of mechanical parts and assemblies' ) ;
#231 = PERSON_AND_ORGANIZATION ( #61, #261 ) ;
#232 = LINE ( 'NONE', #326, #371 ) ;
#233 = DATE_AND_TIME ( #296, #278 ) ;
#234 = DIRECTION ( 'NONE',  ( -0.000000000000000000, -0.000000000000000000, -1.000000000000000000 ) ) ;
#235 = AXIS2_PLACEMENT_3D ( 'NONE', #301, #329, #158 ) ;
#236 = VECTOR ( 'NONE', #281, 1000.000000000000000 ) ;
#237 = ORIENTED_EDGE ( 'NONE', *, *, #259, .T. ) ;
#238 = CC_DESIGN_DATE_AND_TIME_ASSIGNMENT ( #121, #354, ( #100 ) ) ;
#239 = DIRECTION ( 'NONE',  ( -1.000000000000000000, 0.000000000000000000, 0.000000000000000000 ) ) ;
#240 = ORIENTED_EDGE ( 'NONE', *, *, #31, .F. ) ;
#241 = DATE_AND_TIME ( #13, #89 ) ;
#242 = FACE_OUTER_BOUND ( 'NONE', #361, .T. ) ;
#243 = VERTEX_POINT ( 'NONE', #78 ) ;
#244 = LINE ( 'NONE', #275, #236 ) ;
#245 = CC_DESIGN_PERSON_AND_ORGANIZATION_ASSIGNMENT ( #152, #356, ( #266 ) ) ;
#246 = AXIS2_PLACEMENT_3D ( 'NONE', #71, #102, #183 ) ;
#247 = AXIS2_PLACEMENT_3D ( 'NONE', #366, #357, #180 ) ;
#248 = APPROVAL_PERSON_ORGANIZATION ( #201, #51, #272 ) ;
#249 = DIRECTION ( 'NONE',  ( 0.000000000000000000, 0.000000000000000000, -1.000000000000000000 ) ) ;
#250 = PERSON_AND_ORGANIZATION ( #61, #261 ) ;
#251 = CARTESIAN_POINT ( 'NONE',  ( 0.000000000000000000, 0.000000000000000000, 180.0000000000000000 ) ) ;
#252 = CC_DESIGN_PERSON_AND_ORGANIZATION_ASSIGNMENT ( #122, #204, ( #141 ) ) ;
#253 = DIRECTION ( 'NONE',  ( 1.000000000000000000, 0.000000000000000000, 0.000000000000000000 ) ) ;
#254 = AXIS2_PLACEMENT_3D ( 'NONE', #41, #364, #99 ) ;
#255 = APPROVAL_PERSON_ORGANIZATION ( #66, #362, #321 ) ;
#256 = EDGE_LOOP ( 'NONE', ( #182, #25, #353, #106 ) ) ;
#257 = DIRECTION ( 'NONE',  ( 0.000000000000000000, -1.000000000000000000, 0.000000000000000000 ) ) ;
#258 = CARTESIAN_POINT ( 'NONE',  ( 0.000000000000000000, 0.000000000000000000, 5.000000000000000000 ) ) ;
#259 = EDGE_CURVE ( 'NONE', #87, #308, #359, .T. ) ;
#260 = CARTESIAN_POINT ( 'NONE',  ( 0.000000000000000000, 0.000000000000000000, 0.000000000000000000 ) ) ;
#261 = ORGANIZATION ( 'NEURÈENÝ', 'NEURÈENÝ', '' ) ;
#262 = CC_DESIGN_PERSON_AND_ORGANIZATION_ASSIGNMENT ( #146, #264, ( #100 ) ) ;
#263 = DIRECTION ( 'NONE',  ( 0.000000000000000000, 0.000000000000000000, 1.000000000000000000 ) ) ;
#264 = PERSON_AND_ORGANIZATION_ROLE ( 'creator' ) ;
#265 = CIRCLE ( 'NONE', #246, 3.250000000000000444 ) ;
#266 = SECURITY_CLASSIFICATION ( '', '', #179 ) ;
#267 = APPROVAL_DATE_TIME ( #358, #362 ) ;
#268 = FACE_OUTER_BOUND ( 'NONE', #314, .T. ) ;
#269 = EDGE_CURVE ( 'NONE', #276, #1, #21, .T. ) ;
#270 = COORDINATED_UNIVERSAL_TIME_OFFSET ( 1, 0, .AHEAD. ) ;
#271 = ORIENTED_EDGE ( 'NONE', *, *, #174, .F. ) ;
#272 = APPROVAL_ROLE ( '' ) ;
#273 = CARTESIAN_POINT ( 'NONE',  ( 8.000000000000000000, 9.797174393178825657E-16, 5.000000000000000000 ) ) ;
#274 = PRODUCT_RELATED_PRODUCT_CATEGORY ( 'detail', '', ( #10 ) ) ;
#275 = CARTESIAN_POINT ( 'NONE',  ( 3.250000000000000444, 3.980102097228897245E-16, 180.0000000000000000 ) ) ;
#276 = VERTEX_POINT ( 'NONE', #313 ) ;
#277 = DIRECTION ( 'NONE',  ( 1.000000000000000000, 0.000000000000000000, 0.000000000000000000 ) ) ;
#278 = LOCAL_TIME ( 16, 46, 37.00000000000000000, #351 ) ;
#279 = DATE_AND_TIME ( #185, #115 ) ;
#280 = APPROVAL_DATE_TIME ( #279, #76 ) ;
#281 = DIRECTION ( 'NONE',  ( 0.000000000000000000, 0.000000000000000000, -1.000000000000000000 ) ) ;
#282 = DIRECTION ( 'NONE',  ( 1.000000000000000000, 0.000000000000000000, 0.000000000000000000 ) ) ;
#283 = ADVANCED_BREP_SHAPE_REPRESENTATION ( '946b', ( #2, #345 ), #65 ) ;
#284 = AXIS2_PLACEMENT_3D ( 'NONE', #260, #263, #381 ) ;
#285 = CYLINDRICAL_SURFACE ( 'NONE', #26, 8.000000000000000000 ) ;
#286 = CARTESIAN_POINT ( 'NONE',  ( 3.250000000000000444, 3.980102097228897245E-16, 180.0000000000000000 ) ) ;
#287 = FACE_OUTER_BOUND ( 'NONE', #219, .T. ) ;
#288 = ORIENTED_EDGE ( 'NONE', *, *, #227, .F. ) ;
#289 = CARTESIAN_POINT ( 'NONE',  ( -5.500000000000000000, 6.735557395310442023E-16, 5.000000000000002665 ) ) ;
#290 = VECTOR ( 'NONE', #58, 1000.000000000000000 ) ;
#291 = ORIENTED_EDGE ( 'NONE', *, *, #60, .F. ) ;
#292 = CC_DESIGN_PERSON_AND_ORGANIZATION_ASSIGNMENT ( #231, #177, ( #141 ) ) ;
#293 = FACE_OUTER_BOUND ( 'NONE', #112, .T. ) ;
#294 = ORIENTED_EDGE ( 'NONE', *, *, #60, .T. ) ;
#295 = FACE_OUTER_BOUND ( 'NONE', #62, .T. ) ;
#296 = CALENDAR_DATE ( 2022, 8, 7 ) ;
#297 = DIRECTION ( 'NONE',  ( 1.000000000000000000, 0.000000000000000000, -0.000000000000000000 ) ) ;
#298 = CC_DESIGN_SECURITY_CLASSIFICATION ( #266, ( #141 ) ) ;
#299 = EDGE_CURVE ( 'NONE', #340, #172, #5, .T. ) ;
#300 = CARTESIAN_POINT ( 'NONE',  ( 5.000000000000000000, 6.123233995736766282E-16, 5.500000000000005329 ) ) ;
#301 = CARTESIAN_POINT ( 'NONE',  ( -5.500000000000000000, 6.735557395310442023E-16, 5.500000000000005329 ) ) ;
#302 = ADVANCED_FACE ( 'NONE', ( #169, #293 ), #93, .F. ) ;
#303 = CARTESIAN_POINT ( 'NONE',  ( 8.000000000000000000, 9.797174393178825657E-16, 5.000000000000000000 ) ) ;
#304 = CARTESIAN_POINT ( 'NONE',  ( -5.000000000000000000, 0.000000000000000000, 5.500000000000005329 ) ) ;
#305 = CC_DESIGN_APPROVAL ( #76, ( #266 ) ) ;
#306 = CARTESIAN_POINT ( 'NONE',  ( 0.000000000000000000, 0.000000000000000000, 0.000000000000000000 ) ) ;
#307 = EDGE_CURVE ( 'NONE', #165, #92, #95, .T. ) ;
#308 = VERTEX_POINT ( 'NONE', #144 ) ;
#309 = CARTESIAN_POINT ( 'NONE',  ( -8.000000000000000000, 0.000000000000000000, 0.000000000000000000 ) ) ;
#310 = VERTEX_POINT ( 'NONE', #289 ) ;
#311 = EDGE_CURVE ( 'NONE', #165, #85, #189, .T. ) ;
#312 = TOROIDAL_SURFACE ( 'NONE', #39, 5.500000000000000000, 0.5000000000000000000 ) ;
#313 = CARTESIAN_POINT ( 'NONE',  ( -3.250000000000000444, 0.000000000000000000, 180.0000000000000000 ) ) ;
#314 = EDGE_LOOP ( 'NONE', ( #197, #237 ) ) ;
#315 = CYLINDRICAL_SURFACE ( 'NONE', #229, 8.000000000000000000 ) ;
#316 = ADVANCED_FACE ( 'NONE', ( #287 ), #312, .F. ) ;
#317 = AXIS2_PLACEMENT_3D ( 'NONE', #150, #234, #151 ) ;
#318 = DIRECTION ( 'NONE',  ( 1.000000000000000000, 0.000000000000000000, 0.000000000000000000 ) ) ;
#319 = ORIENTED_EDGE ( 'NONE', *, *, #311, .F. ) ;
#320 = APPROVAL_DATE_TIME ( #233, #51 ) ;
#321 = APPROVAL_ROLE ( '' ) ;
#322 = DIRECTION ( 'NONE',  ( 0.000000000000000000, 0.000000000000000000, 1.000000000000000000 ) ) ;
#323 = ADVANCED_FACE ( 'NONE', ( #110 ), #285, .T. ) ;
#324 = CALENDAR_DATE ( 2022, 8, 7 ) ;
#325 = AXIS2_PLACEMENT_3D ( 'NONE', #147, #322, #64 ) ;
#326 = CARTESIAN_POINT ( 'NONE',  ( -5.000000000000000000, 0.000000000000000000, 180.0000000000000000 ) ) ;
#327 = DIRECTION ( 'NONE',  ( -0.000000000000000000, -0.000000000000000000, -1.000000000000000000 ) ) ;
#328 = ORIENTED_EDGE ( 'NONE', *, *, #111, .F. ) ;
#329 = DIRECTION ( 'NONE',  ( 1.224646799147353207E-16, 1.000000000000000000, -0.000000000000000000 ) ) ;
#330 = EDGE_LOOP ( 'NONE', ( #328, #17, #54, #96 ) ) ;
#331 = FACE_OUTER_BOUND ( 'NONE', #330, .T. ) ;
#332 = AXIS2_PLACEMENT_3D ( 'NONE', #8, #327, #69 ) ;
#333 = AXIS2_PLACEMENT_3D ( 'NONE', #24, #367, #253 ) ;
#334 = ORIENTED_EDGE ( 'NONE', *, *, #181, .T. ) ;
#335 = DIRECTION ( 'NONE',  ( 1.000000000000000000, 0.000000000000000000, 0.000000000000000000 ) ) ;
#336 = ADVANCED_FACE ( 'NONE', ( #30 ), #315, .T. ) ;
#337 = FACE_OUTER_BOUND ( 'NONE', #145, .T. ) ;
#338 = CIRCLE ( 'NONE', #46, 5.500000000000000000 ) ;
#339 = DIRECTION ( 'NONE',  ( 1.000000000000000000, 0.000000000000000000, -0.000000000000000000 ) ) ;
#340 = VERTEX_POINT ( 'NONE', #140 ) ;
#341 = DIRECTION ( 'NONE',  ( 1.000000000000000000, 0.000000000000000000, 0.000000000000000000 ) ) ;
#342 = EDGE_CURVE ( 'NONE', #225, #379, #33, .T. ) ;
#343 = EDGE_LOOP ( 'NONE', ( #53, #59 ) ) ;
#344 = CARTESIAN_POINT ( 'NONE',  ( 0.000000000000000000, 0.000000000000000000, 0.000000000000000000 ) ) ;
#345 = AXIS2_PLACEMENT_3D ( 'NONE', #206, #63, #175 ) ;
#346 = DIRECTION ( 'NONE',  ( -0.000000000000000000, -0.000000000000000000, -1.000000000000000000 ) ) ;
#347 = CARTESIAN_POINT ( 'NONE',  ( 0.000000000000000000, 0.000000000000000000, 5.000000000000000000 ) ) ;
#348 = ORIENTED_EDGE ( 'NONE', *, *, #349, .F. ) ;
#349 = EDGE_CURVE ( 'NONE', #310, #243, #338, .T. ) ;
#350 = CARTESIAN_POINT ( 'NONE',  ( 0.000000000000000000, 0.000000000000000000, 0.000000000000000000 ) ) ;
#351 = COORDINATED_UNIVERSAL_TIME_OFFSET ( 1, 0, .AHEAD. ) ;
#352 = AXIS2_PLACEMENT_3D ( 'NONE', #344, #35, #224 ) ;
#353 = ORIENTED_EDGE ( 'NONE', *, *, #31, .T. ) ;
#354 = DATE_TIME_ROLE ( 'creation_date' ) ;
#355 = CARTESIAN_POINT ( 'NONE',  ( 0.000000000000000000, 0.000000000000000000, 180.0000000000000000 ) ) ;
#356 = PERSON_AND_ORGANIZATION_ROLE ( 'classification_officer' ) ;
#357 = DIRECTION ( 'NONE',  ( 0.000000000000000000, 0.000000000000000000, 1.000000000000000000 ) ) ;
#358 = DATE_AND_TIME ( #42, #55 ) ;
#359 = CIRCLE ( 'NONE', #221, 8.000000000000000000 ) ;
#360 = DIRECTION ( 'NONE',  ( 0.000000000000000000, 0.000000000000000000, 1.000000000000000000 ) ) ;
#361 = EDGE_LOOP ( 'NONE', ( #319, #223, #94, #240 ) ) ;
#362 = APPROVAL ( #38, 'NEURÈENÝ' ) ;
#363 =( LENGTH_UNIT ( ) NAMED_UNIT ( * ) SI_UNIT ( .MILLI., .METRE. ) );
#364 = DIRECTION ( 'NONE',  ( 0.000000000000000000, 0.000000000000000000, 1.000000000000000000 ) ) ;
#365 = EDGE_LOOP ( 'NONE', ( #192, #291 ) ) ;
#366 = CARTESIAN_POINT ( 'NONE',  ( 0.000000000000000000, 0.000000000000000000, 180.0000000000000000 ) ) ;
#367 = DIRECTION ( 'NONE',  ( 0.000000000000000000, 0.000000000000000000, 1.000000000000000000 ) ) ;
#368 = AXIS2_PLACEMENT_3D ( 'NONE', #217, #18, #277 ) ;
#369 = DIRECTION ( 'NONE',  ( 1.000000000000000000, 0.000000000000000000, 0.000000000000000000 ) ) ;
#370 = DIRECTION ( 'NONE',  ( -0.000000000000000000, -0.000000000000000000, -1.000000000000000000 ) ) ;
#371 = VECTOR ( 'NONE', #127, 1000.000000000000000 ) ;
#372 = CC_DESIGN_APPROVAL ( #51, ( #100 ) ) ;
#373 = CC_DESIGN_PERSON_AND_ORGANIZATION_ASSIGNMENT ( #9, #199, ( #10 ) ) ;
#374 = ORIENTED_EDGE ( 'NONE', *, *, #162, .T. ) ;
#375 = DIRECTION ( 'NONE',  ( -0.000000000000000000, -0.000000000000000000, -1.000000000000000000 ) ) ;
#376 = DIRECTION ( 'NONE',  ( 0.000000000000000000, 0.000000000000000000, -1.000000000000000000 ) ) ;
#377 = CARTESIAN_POINT ( 'NONE',  ( 5.000000000000000000, 6.123233995736766282E-16, 180.0000000000000000 ) ) ;
#378 = CARTESIAN_POINT ( 'NONE',  ( 0.000000000000000000, 0.000000000000000000, 5.000000000000000000 ) ) ;
#379 = VERTEX_POINT ( 'NONE', #309 ) ;
#380 = EDGE_CURVE ( 'NONE', #243, #310, #208, .T. ) ;
#381 = DIRECTION ( 'NONE',  ( 1.000000000000000000, 0.000000000000000000, 0.000000000000000000 ) ) ;
ENDSEC;
END-ISO-10303-21;
