ISO-10303-21;
HEADER;
FILE_DESCRIPTION (( 'STEP AP203' ),
    '1' );
FILE_NAME ('5b76.STEP',
    '2022-07-08T15:22:25',
    ( '' ),
    ( '' ),
    'SwSTEP 2.0',
    'SolidWorks 2019',
    '' );
FILE_SCHEMA (( 'CONFIG_CONTROL_DESIGN' ));
ENDSEC;

DATA;
#1 = DATE_AND_TIME ( #193, #190 ) ;
#2 = APPROVAL_STATUS ( 'not_yet_approved' ) ;
#3 = AXIS2_PLACEMENT_3D ( 'NONE', #117, #265, #154 ) ;
#4 = VERTEX_POINT ( 'NONE', #325 ) ;
#5 = COORDINATED_UNIVERSAL_TIME_OFFSET ( 1, 0, .AHEAD. ) ;
#6 = CARTESIAN_POINT ( 'NONE',  ( 0.000000000000000000, 0.000000000000000000, 5.000000000000000000 ) ) ;
#7 = AXIS2_PLACEMENT_3D ( 'NONE', #85, #90, #89 ) ;
#8 = CARTESIAN_POINT ( 'NONE',  ( 0.000000000000000000, 0.000000000000000000, 5.499999999999949374 ) ) ;
#9 = ORIENTED_EDGE ( 'NONE', *, *, #224, .F. ) ;
#10 = EDGE_CURVE ( 'NONE', #333, #72, #92, .T. ) ;
#11 = ORIENTED_EDGE ( 'NONE', *, *, #290, .F. ) ;
#12 = CYLINDRICAL_SURFACE ( 'NONE', #252, 4.000000000000000000 ) ;
#13 = EDGE_LOOP ( 'NONE', ( #260, #248, #167, #192 ) ) ;
#14 = CARTESIAN_POINT ( 'NONE',  ( 0.000000000000000000, 0.000000000000000000, 5.000000000000000000 ) ) ;
#15 = ORIENTED_EDGE ( 'NONE', *, *, #63, .T. ) ;
#16 = CARTESIAN_POINT ( 'NONE',  ( 0.000000000000000000, 0.000000000000000000, 605.0000000000000000 ) ) ;
#17 = CARTESIAN_POINT ( 'NONE',  ( 0.000000000000000000, 0.000000000000000000, 0.000000000000000000 ) ) ;
#18 = AXIS2_PLACEMENT_3D ( 'NONE', #370, #204, #305 ) ;
#19 = CC_DESIGN_PERSON_AND_ORGANIZATION_ASSIGNMENT ( #68, #191, ( #52 ) ) ;
#20 = EDGE_CURVE ( 'NONE', #247, #302, #270, .T. ) ;
#21 = LINE ( 'NONE', #84, #93 ) ;
#22 = DIRECTION ( 'NONE',  ( -0.000000000000000000, -0.000000000000000000, -1.000000000000000000 ) ) ;
#23 = CARTESIAN_POINT ( 'NONE',  ( -4.000000000000000000, 0.000000000000000000, 605.0000000000000000 ) ) ;
#24 = AXIS2_PLACEMENT_3D ( 'NONE', #8, #137, #327 ) ;
#25 = CC_DESIGN_APPROVAL ( #380, ( #144 ) ) ;
#26 = CARTESIAN_POINT ( 'NONE',  ( 0.000000000000000000, 0.000000000000000000, 5.499999999999949374 ) ) ;
#27 = DIRECTION ( 'NONE',  ( 0.000000000000000000, 0.000000000000000000, 1.000000000000000000 ) ) ;
#28 = APPROVAL_DATE_TIME ( #65, #186 ) ;
#29 = EDGE_LOOP ( 'NONE', ( #15, #309 ) ) ;
#30 = APPROVAL_ROLE ( '' ) ;
#31 = VECTOR ( 'NONE', #323, 1000.000000000000000 ) ;
#32 = ORGANIZATION ( 'NEURÈENÝ', 'NEURÈENÝ', '' ) ;
#33 = EDGE_CURVE ( 'NONE', #306, #254, #364, .T. ) ;
#34 = UNCERTAINTY_MEASURE_WITH_UNIT (LENGTH_MEASURE( 1.000000000000000082E-05 ), #134, 'distance_accuracy_value', 'NONE');
#35 = PERSON_AND_ORGANIZATION_ROLE ( 'creator' ) ;
#36 = DIRECTION ( 'NONE',  ( 1.000000000000000000, 0.000000000000000000, 0.000000000000000000 ) ) ;
#37 = EDGE_CURVE ( 'NONE', #4, #284, #372, .T. ) ;
#38 = CLOSED_SHELL ( 'NONE', ( #170, #313, #366, #164, #139, #324, #228, #113, #200, #292, #304 ) ) ;
#39 = DIRECTION ( 'NONE',  ( 1.000000000000000000, 0.000000000000000000, 0.000000000000000000 ) ) ;
#40 = CIRCLE ( 'NONE', #245, 7.000000000000000000 ) ;
#41 = ORIENTED_EDGE ( 'NONE', *, *, #60, .F. ) ;
#42 = EDGE_CURVE ( 'NONE', #302, #247, #244, .T. ) ;
#43 = APPLICATION_CONTEXT ( 'configuration controlled 3d designs of mechanical parts and assemblies' ) ;
#44 = FACE_OUTER_BOUND ( 'NONE', #365, .T. ) ;
#45 = ORIENTED_EDGE ( 'NONE', *, *, #353, .F. ) ;
#46 = FACE_BOUND ( 'NONE', #140, .T. ) ;
#47 = EDGE_LOOP ( 'NONE', ( #45, #131, #361, #232 ) ) ;
#48 = PRODUCT_DEFINITION_SHAPE ( 'NONE', 'NONE',  #52 ) ;
#49 = FACE_OUTER_BOUND ( 'NONE', #282, .T. ) ;
#50 = AXIS2_PLACEMENT_3D ( 'NONE', #80, #173, #75 ) ;
#51 = ORIENTED_EDGE ( 'NONE', *, *, #374, .T. ) ;
#52 = PRODUCT_DEFINITION ( 'NEZNÁMÝ', '', #358, #287 ) ;
#53 = EDGE_CURVE ( 'NONE', #247, #333, #178, .T. ) ;
#54 = CARTESIAN_POINT ( 'NONE',  ( -7.000000000000000000, 0.000000000000000000, 5.000000000000000000 ) ) ;
#55 = AXIS2_PLACEMENT_3D ( 'NONE', #6, #251, #188 ) ;
#56 =( GEOMETRIC_REPRESENTATION_CONTEXT ( 3 ) GLOBAL_UNCERTAINTY_ASSIGNED_CONTEXT ( ( #34 ) ) GLOBAL_UNIT_ASSIGNED_CONTEXT ( ( #134, #220, #279 ) ) REPRESENTATION_CONTEXT ( 'NONE', 'WORKASPACE' ) );
#57 = EDGE_CURVE ( 'NONE', #145, #79, #215, .T. ) ;
#58 = PLANE ( 'NONE',  #351 ) ;
#59 = DIRECTION ( 'NONE',  ( 1.000000000000000000, 0.000000000000000000, 0.000000000000000000 ) ) ;
#60 = EDGE_CURVE ( 'NONE', #286, #302, #67, .T. ) ;
#61 = FACE_OUTER_BOUND ( 'NONE', #256, .T. ) ;
#62 = DIRECTION ( 'NONE',  ( 0.000000000000000000, 0.000000000000000000, 1.000000000000000000 ) ) ;
#63 = EDGE_CURVE ( 'NONE', #286, #81, #86, .T. ) ;
#64 = CARTESIAN_POINT ( 'NONE',  ( 0.000000000000000000, 0.000000000000000000, 0.000000000000000000 ) ) ;
#65 = DATE_AND_TIME ( #329, #153 ) ;
#66 = EDGE_CURVE ( 'NONE', #79, #130, #172, .T. ) ;
#67 = LINE ( 'NONE', #332, #31 ) ;
#68 = PERSON_AND_ORGANIZATION ( #321, #32 ) ;
#69 = APPROVAL ( #2, 'NEURÈENÝ' ) ;
#70 = DIRECTION ( 'NONE',  ( 0.000000000000000000, 0.000000000000000000, 1.000000000000000000 ) ) ;
#71 = COORDINATED_UNIVERSAL_TIME_OFFSET ( 1, 0, .AHEAD. ) ;
#72 = VERTEX_POINT ( 'NONE', #141 ) ;
#73 = ORIENTED_EDGE ( 'NONE', *, *, #42, .F. ) ;
#74 = DATE_AND_TIME ( #233, #373 ) ;
#75 = DIRECTION ( 'NONE',  ( 1.000000000000000000, 0.000000000000000000, 0.000000000000000000 ) ) ;
#76 = CIRCLE ( 'NONE', #378, 2.250000000000000000 ) ;
#77 = ORIENTED_EDGE ( 'NONE', *, *, #53, .F. ) ;
#78 = DIRECTION ( 'NONE',  ( 0.000000000000000000, 0.000000000000000000, 1.000000000000000000 ) ) ;
#79 = VERTEX_POINT ( 'NONE', #255 ) ;
#80 = CARTESIAN_POINT ( 'NONE',  ( 0.000000000000000000, 0.000000000000000000, 605.0000000000000000 ) ) ;
#81 = VERTEX_POINT ( 'NONE', #288 ) ;
#82 = CARTESIAN_POINT ( 'NONE',  ( 2.250000000000000000, 2.755455298081544285E-16, 605.0000000000000000 ) ) ;
#83 = DIRECTION ( 'NONE',  ( -0.000000000000000000, -0.000000000000000000, -1.000000000000000000 ) ) ;
#84 = CARTESIAN_POINT ( 'NONE',  ( 7.000000000000000000, 8.572527594031473190E-16, 5.000000000000000000 ) ) ;
#85 = CARTESIAN_POINT ( 'NONE',  ( 0.000000000000000000, 0.000000000000000000, 605.0000000000000000 ) ) ;
#86 = CIRCLE ( 'NONE', #123, 4.000000000000000000 ) ;
#87 = LOCAL_TIME ( 17, 22, 25.00000000000000000, #273 ) ;
#88 = CARTESIAN_POINT ( 'NONE',  ( 2.250000000000000000, 2.755455298081544285E-16, 605.0000000000000000 ) ) ;
#89 = DIRECTION ( 'NONE',  ( -1.000000000000000000, 0.000000000000000000, 0.000000000000000000 ) ) ;
#90 = DIRECTION ( 'NONE',  ( 0.000000000000000000, 0.000000000000000000, -1.000000000000000000 ) ) ;
#91 = ORIENTED_EDGE ( 'NONE', *, *, #289, .F. ) ;
#92 = CIRCLE ( 'NONE', #55, 4.500000000000000888 ) ;
#93 = VECTOR ( 'NONE', #22, 1000.000000000000000 ) ;
#94 = CALENDAR_DATE ( 2022, 8, 7 ) ;
#95 = CARTESIAN_POINT ( 'NONE',  ( 0.000000000000000000, 0.000000000000000000, 5.000000000000000000 ) ) ;
#96 = VERTEX_POINT ( 'NONE', #82 ) ;
#97 = ORIENTED_EDGE ( 'NONE', *, *, #20, .T. ) ;
#98 = PERSON_AND_ORGANIZATION ( #321, #32 ) ;
#99 = DIRECTION ( 'NONE',  ( 0.000000000000000000, 0.000000000000000000, -1.000000000000000000 ) ) ;
#100 = CC_DESIGN_DATE_AND_TIME_ASSIGNMENT ( #129, #156, ( #52 ) ) ;
#101 = CARTESIAN_POINT ( 'NONE',  ( 0.000000000000000000, 0.000000000000000000, 0.000000000000000000 ) ) ;
#102 = VECTOR ( 'NONE', #293, 1000.000000000000000 ) ;
#103 = CARTESIAN_POINT ( 'NONE',  ( 0.000000000000000000, 0.000000000000000000, 5.499999999999949374 ) ) ;
#104 = DIRECTION ( 'NONE',  ( 1.000000000000000000, 0.000000000000000000, 0.000000000000000000 ) ) ;
#105 = PLANE ( 'NONE',  #367 ) ;
#106 = ORIENTED_EDGE ( 'NONE', *, *, #37, .F. ) ;
#107 = AXIS2_PLACEMENT_3D ( 'NONE', #133, #250, #356 ) ;
#108 = CARTESIAN_POINT ( 'NONE',  ( 0.000000000000000000, 0.000000000000000000, 5.000000000000000000 ) ) ;
#109 = CIRCLE ( 'NONE', #347, 2.250000000000000000 ) ;
#110 = ORIENTED_EDGE ( 'NONE', *, *, #10, .T. ) ;
#111 = FACE_OUTER_BOUND ( 'NONE', #29, .T. ) ;
#112 = ORIENTED_EDGE ( 'NONE', *, *, #352, .F. ) ;
#113 = ADVANCED_FACE ( 'NONE', ( #49 ), #12, .T. ) ;
#114 = FACE_OUTER_BOUND ( 'NONE', #369, .T. ) ;
#115 = DIRECTION ( 'NONE',  ( -1.000000000000000000, 0.000000000000000000, 0.000000000000000000 ) ) ;
#116 = CC_DESIGN_APPROVAL ( #69, ( #358 ) ) ;
#117 = CARTESIAN_POINT ( 'NONE',  ( 0.000000000000000000, 0.000000000000000000, 605.0000000000000000 ) ) ;
#118 = EDGE_CURVE ( 'NONE', #145, #96, #264, .T. ) ;
#119 = CARTESIAN_POINT ( 'NONE',  ( 4.000000000000000000, 4.898587196589412829E-16, 605.0000000000000000 ) ) ;
#120 = CC_DESIGN_DATE_AND_TIME_ASSIGNMENT ( #1, #322, ( #144 ) ) ;
#121 = APPLICATION_CONTEXT ( 'configuration controlled 3d designs of mechanical parts and assemblies' ) ;
#122 = DIRECTION ( 'NONE',  ( 1.000000000000000000, 0.000000000000000000, -0.000000000000000000 ) ) ;
#123 = AXIS2_PLACEMENT_3D ( 'NONE', #185, #194, #39 ) ;
#124 = CARTESIAN_POINT ( 'NONE',  ( 0.000000000000000000, 0.000000000000000000, 5.000000000000000000 ) ) ;
#125 = CC_DESIGN_PERSON_AND_ORGANIZATION_ASSIGNMENT ( #249, #162, ( #272 ) ) ;
#126 = DIRECTION ( 'NONE',  ( 1.000000000000000000, 0.000000000000000000, 0.000000000000000000 ) ) ;
#127 = AXIS2_PLACEMENT_3D ( 'NONE', #95, #278, #36 ) ;
#128 = CIRCLE ( 'NONE', #295, 7.000000000000000000 ) ;
#129 = DATE_AND_TIME ( #132, #87 ) ;
#130 = VERTEX_POINT ( 'NONE', #148 ) ;
#131 = ORIENTED_EDGE ( 'NONE', *, *, #290, .T. ) ;
#132 = CALENDAR_DATE ( 2022, 8, 7 ) ;
#133 = CARTESIAN_POINT ( 'NONE',  ( 4.500000000000000888, 0.000000000000000000, 5.499999999999949374 ) ) ;
#134 =( LENGTH_UNIT ( ) NAMED_UNIT ( * ) SI_UNIT ( .MILLI., .METRE. ) );
#135 = SECURITY_CLASSIFICATION_LEVEL ( 'unclassified' ) ;
#136 = TOROIDAL_SURFACE ( 'NONE', #150, 4.500000000000000888, 0.5000000000000000000 ) ;
#137 = DIRECTION ( 'NONE',  ( 0.000000000000000000, 0.000000000000000000, 1.000000000000000000 ) ) ;
#138 = ORIENTED_EDGE ( 'NONE', *, *, #66, .F. ) ;
#139 = ADVANCED_FACE ( 'NONE', ( #342 ), #262, .T. ) ;
#140 = EDGE_LOOP ( 'NONE', ( #138, #112 ) ) ;
#141 = CARTESIAN_POINT ( 'NONE',  ( -4.500000000000000888, 5.510910596163088569E-16, 4.999999999999975131 ) ) ;
#142 = ORIENTED_EDGE ( 'NONE', *, *, #60, .T. ) ;
#143 = DIRECTION ( 'NONE',  ( -0.000000000000000000, -0.000000000000000000, -1.000000000000000000 ) ) ;
#144 = SECURITY_CLASSIFICATION ( '', '', #135 ) ;
#145 = VERTEX_POINT ( 'NONE', #307 ) ;
#146 = CYLINDRICAL_SURFACE ( 'NONE', #343, 7.000000000000000000 ) ;
#147 = ORIENTED_EDGE ( 'NONE', *, *, #268, .F. ) ;
#148 = CARTESIAN_POINT ( 'NONE',  ( 2.250000000000000000, 2.755455298081544285E-16, 0.000000000000000000 ) ) ;
#149 = DIRECTION ( 'NONE',  ( 0.000000000000000000, 0.000000000000000000, 1.000000000000000000 ) ) ;
#150 = AXIS2_PLACEMENT_3D ( 'NONE', #26, #151, #269 ) ;
#151 = DIRECTION ( 'NONE',  ( 0.000000000000000000, 0.000000000000000000, 1.000000000000000000 ) ) ;
#152 = FACE_BOUND ( 'NONE', #258, .T. ) ;
#153 = LOCAL_TIME ( 17, 22, 25.00000000000000000, #222 ) ;
#154 = DIRECTION ( 'NONE',  ( -1.000000000000000000, 0.000000000000000000, 0.000000000000000000 ) ) ;
#155 = PERSON_AND_ORGANIZATION ( #321, #32 ) ;
#156 = DATE_TIME_ROLE ( 'creation_date' ) ;
#157 = EDGE_CURVE ( 'NONE', #302, #72, #174, .T. ) ;
#158 = ORIENTED_EDGE ( 'NONE', *, *, #231, .F. ) ;
#159 = EDGE_LOOP ( 'NONE', ( #275, #280, #201, #336 ) ) ;
#160 = APPROVAL_ROLE ( '' ) ;
#161 = DIRECTION ( 'NONE',  ( 0.000000000000000000, 0.000000000000000000, 1.000000000000000000 ) ) ;
#162 = PERSON_AND_ORGANIZATION_ROLE ( 'design_owner' ) ;
#163 = ORIENTED_EDGE ( 'NONE', *, *, #261, .T. ) ;
#164 = ADVANCED_FACE ( 'NONE', ( #44 ), #146, .T. ) ;
#165 = CC_DESIGN_APPROVAL ( #186, ( #52 ) ) ;
#166 = DIRECTION ( 'NONE',  ( -0.000000000000000000, -0.000000000000000000, -1.000000000000000000 ) ) ;
#167 = ORIENTED_EDGE ( 'NONE', *, *, #352, .T. ) ;
#168 = DIRECTION ( 'NONE',  ( 1.000000000000000000, 0.000000000000000000, -0.000000000000000000 ) ) ;
#169 = PLANE ( 'NONE',  #219 ) ;
#170 = ADVANCED_FACE ( 'NONE', ( #229 ), #259, .F. ) ;
#171 = ORIENTED_EDGE ( 'NONE', *, *, #118, .F. ) ;
#172 = CIRCLE ( 'NONE', #377, 2.250000000000000000 ) ;
#173 = DIRECTION ( 'NONE',  ( 0.000000000000000000, 0.000000000000000000, 1.000000000000000000 ) ) ;
#174 = CIRCLE ( 'NONE', #281, 0.5000000000000004441 ) ;
#175 = ORIENTED_EDGE ( 'NONE', *, *, #63, .F. ) ;
#176 = DIRECTION ( 'NONE',  ( 1.000000000000000000, 0.000000000000000000, 0.000000000000000000 ) ) ;
#177 = CYLINDRICAL_SURFACE ( 'NONE', #7, 2.250000000000000000 ) ;
#178 = CIRCLE ( 'NONE', #107, 0.5000000000000004441 ) ;
#179 = AXIS2_PLACEMENT_3D ( 'NONE', #241, #62, #345 ) ;
#180 = CARTESIAN_POINT ( 'NONE',  ( 4.000000000000000000, 4.898587196589412829E-16, 5.499999999999949374 ) ) ;
#181 = FACE_OUTER_BOUND ( 'NONE', #362, .T. ) ;
#182 = DIRECTION ( 'NONE',  ( -0.000000000000000000, -0.000000000000000000, -1.000000000000000000 ) ) ;
#183 = AXIS2_PLACEMENT_3D ( 'NONE', #346, #242, #349 ) ;
#184 = DIRECTION ( 'NONE',  ( 1.000000000000000000, 0.000000000000000000, 0.000000000000000000 ) ) ;
#185 = CARTESIAN_POINT ( 'NONE',  ( 0.000000000000000000, 0.000000000000000000, 605.0000000000000000 ) ) ;
#186 = APPROVAL ( #299, 'NEURÈENÝ' ) ;
#187 = DIRECTION ( 'NONE',  ( 0.000000000000000000, 0.000000000000000000, 1.000000000000000000 ) ) ;
#188 = DIRECTION ( 'NONE',  ( 1.000000000000000000, 0.000000000000000000, 0.000000000000000000 ) ) ;
#189 = AXIS2_PLACEMENT_3D ( 'NONE', #221, #70, #330 ) ;
#190 = LOCAL_TIME ( 17, 22, 25.00000000000000000, #71 ) ;
#191 = PERSON_AND_ORGANIZATION_ROLE ( 'creator' ) ;
#192 = ORIENTED_EDGE ( 'NONE', *, *, #57, .F. ) ;
#193 = CALENDAR_DATE ( 2022, 8, 7 ) ;
#194 = DIRECTION ( 'NONE',  ( 0.000000000000000000, 0.000000000000000000, 1.000000000000000000 ) ) ;
#195 = EDGE_LOOP ( 'NONE', ( #213, #230 ) ) ;
#196 = AXIS2_PLACEMENT_3D ( 'NONE', #14, #143, #115 ) ;
#197 = ORIENTED_EDGE ( 'NONE', *, *, #42, .T. ) ;
#198 = DIRECTION ( 'NONE',  ( 0.000000000000000000, 0.000000000000000000, 1.000000000000000000 ) ) ;
#199 = EDGE_LOOP ( 'NONE', ( #171, #11 ) ) ;
#200 = ADVANCED_FACE ( 'NONE', ( #257, #111 ), #169, .T. ) ;
#201 = ORIENTED_EDGE ( 'NONE', *, *, #53, .T. ) ;
#202 = APPROVAL_PERSON_ORGANIZATION ( #277, #69, #216 ) ;
#203 = APPROVAL_DATE_TIME ( #74, #380 ) ;
#204 = DIRECTION ( 'NONE',  ( 0.000000000000000000, 0.000000000000000000, -1.000000000000000000 ) ) ;
#205 = CC_DESIGN_PERSON_AND_ORGANIZATION_ASSIGNMENT ( #326, #331, ( #144 ) ) ;
#206 = CARTESIAN_POINT ( 'NONE',  ( -7.000000000000000000, 0.000000000000000000, 0.000000000000000000 ) ) ;
#207 = VECTOR ( 'NONE', #317, 1000.000000000000000 ) ;
#208 = FACE_OUTER_BOUND ( 'NONE', #159, .T. ) ;
#209 = CC_DESIGN_PERSON_AND_ORGANIZATION_ASSIGNMENT ( #155, #355, ( #358 ) ) ;
#210 = CARTESIAN_POINT ( 'NONE',  ( 0.000000000000000000, 0.000000000000000000, 0.000000000000000000 ) ) ;
#211 = CARTESIAN_POINT ( 'NONE',  ( -7.000000000000000000, 0.000000000000000000, 5.000000000000000000 ) ) ;
#212 = CC_DESIGN_SECURITY_CLASSIFICATION ( #144, ( #358 ) ) ;
#213 = ORIENTED_EDGE ( 'NONE', *, *, #224, .T. ) ;
#214 = APPLICATION_PROTOCOL_DEFINITION ( 'international standard', 'config_control_design', 1994, #121 ) ;
#215 = LINE ( 'NONE', #223, #310 ) ;
#216 = APPROVAL_ROLE ( '' ) ;
#217 = COORDINATED_UNIVERSAL_TIME_OFFSET ( 1, 0, .AHEAD. ) ;
#218 = ORIENTED_EDGE ( 'NONE', *, *, #10, .F. ) ;
#219 = AXIS2_PLACEMENT_3D ( 'NONE', #368, #78, #168 ) ;
#220 =( NAMED_UNIT ( * ) PLANE_ANGLE_UNIT ( ) SI_UNIT ( $, .RADIAN. ) );
#221 = CARTESIAN_POINT ( 'NONE',  ( 0.000000000000000000, 0.000000000000000000, 0.000000000000000000 ) ) ;
#222 = COORDINATED_UNIVERSAL_TIME_OFFSET ( 1, 0, .AHEAD. ) ;
#223 = CARTESIAN_POINT ( 'NONE',  ( -2.250000000000000000, 0.000000000000000000, 605.0000000000000000 ) ) ;
#224 = EDGE_CURVE ( 'NONE', #284, #4, #40, .T. ) ;
#225 = ORIENTED_EDGE ( 'NONE', *, *, #261, .F. ) ;
#226 = DIRECTION ( 'NONE',  ( 1.000000000000000000, 0.000000000000000000, 0.000000000000000000 ) ) ;
#227 = ORIENTED_EDGE ( 'NONE', *, *, #33, .T. ) ;
#228 = ADVANCED_FACE ( 'NONE', ( #46, #114 ), #105, .F. ) ;
#229 = FACE_OUTER_BOUND ( 'NONE', #13, .T. ) ;
#230 = ORIENTED_EDGE ( 'NONE', *, *, #37, .T. ) ;
#231 = EDGE_CURVE ( 'NONE', #284, #306, #267, .T. ) ;
#232 = ORIENTED_EDGE ( 'NONE', *, *, #66, .T. ) ;
#233 = CALENDAR_DATE ( 2022, 8, 7 ) ;
#234 = CIRCLE ( 'NONE', #316, 4.500000000000000888 ) ;
#235 = DIRECTION ( 'NONE',  ( -1.000000000000000000, 0.000000000000000000, 0.000000000000000000 ) ) ;
#236 = CARTESIAN_POINT ( 'NONE',  ( 4.500000000000000888, 0.000000000000000000, 4.999999999999975131 ) ) ;
#237 = CARTESIAN_POINT ( 'NONE',  ( 0.000000000000000000, 0.000000000000000000, 0.000000000000000000 ) ) ;
#238 = DIRECTION ( 'NONE',  ( 0.000000000000000000, 0.000000000000000000, 1.000000000000000000 ) ) ;
#239 = APPROVAL_PERSON_ORGANIZATION ( #359, #186, #160 ) ;
#240 = EDGE_CURVE ( 'NONE', #254, #306, #128, .T. ) ;
#241 = CARTESIAN_POINT ( 'NONE',  ( 0.000000000000000000, 0.000000000000000000, 5.499999999999949374 ) ) ;
#242 = DIRECTION ( 'NONE',  ( 0.000000000000000000, 0.000000000000000000, 1.000000000000000000 ) ) ;
#243 = APPROVAL_STATUS ( 'not_yet_approved' ) ;
#244 = CIRCLE ( 'NONE', #24, 4.000000000000000000 ) ;
#245 = AXIS2_PLACEMENT_3D ( 'NONE', #314, #198, #176 ) ;
#246 = APPROVAL_DATE_TIME ( #300, #69 ) ;
#247 = VERTEX_POINT ( 'NONE', #180 ) ;
#248 = ORIENTED_EDGE ( 'NONE', *, *, #353, .T. ) ;
#249 = PERSON_AND_ORGANIZATION ( #321, #32 ) ;
#250 = DIRECTION ( 'NONE',  ( 0.000000000000000000, -1.000000000000000000, 0.000000000000000000 ) ) ;
#251 = DIRECTION ( 'NONE',  ( -0.000000000000000000, -0.000000000000000000, -1.000000000000000000 ) ) ;
#252 = AXIS2_PLACEMENT_3D ( 'NONE', #16, #340, #338 ) ;
#253 = ORIENTED_EDGE ( 'NONE', *, *, #157, .T. ) ;
#254 = VERTEX_POINT ( 'NONE', #291 ) ;
#255 = CARTESIAN_POINT ( 'NONE',  ( -2.250000000000000000, 0.000000000000000000, 0.000000000000000000 ) ) ;
#256 = EDGE_LOOP ( 'NONE', ( #91, #308, #97, #41 ) ) ;
#257 = FACE_BOUND ( 'NONE', #199, .T. ) ;
#258 = EDGE_LOOP ( 'NONE', ( #110, #51 ) ) ;
#259 = CYLINDRICAL_SURFACE ( 'NONE', #18, 2.250000000000000000 ) ;
#260 = ORIENTED_EDGE ( 'NONE', *, *, #118, .T. ) ;
#261 = EDGE_CURVE ( 'NONE', #4, #254, #21, .T. ) ;
#262 = CYLINDRICAL_SURFACE ( 'NONE', #196, 7.000000000000000000 ) ;
#263 = ADVANCED_BREP_SHAPE_REPRESENTATION ( '5b76', ( #318, #311 ), #56 ) ;
#264 = CIRCLE ( 'NONE', #50, 2.250000000000000000 ) ;
#265 = DIRECTION ( 'NONE',  ( -0.000000000000000000, -0.000000000000000000, -1.000000000000000000 ) ) ;
#266 = DIRECTION ( 'NONE',  ( 1.000000000000000000, 0.000000000000000000, 0.000000000000000000 ) ) ;
#267 = LINE ( 'NONE', #211, #102 ) ;
#268 = EDGE_CURVE ( 'NONE', #81, #247, #375, .T. ) ;
#269 = DIRECTION ( 'NONE',  ( 1.000000000000000000, 0.000000000000000000, 0.000000000000000000 ) ) ;
#270 = CIRCLE ( 'NONE', #276, 4.000000000000000000 ) ;
#271 = CARTESIAN_POINT ( 'NONE',  ( 0.000000000000000000, 0.000000000000000000, 5.000000000000000000 ) ) ;
#272 = PRODUCT ( '5b76', '5b76', '', ( #297 ) ) ;
#273 = COORDINATED_UNIVERSAL_TIME_OFFSET ( 1, 0, .AHEAD. ) ;
#274 = CC_DESIGN_PERSON_AND_ORGANIZATION_ASSIGNMENT ( #354, #35, ( #358 ) ) ;
#275 = ORIENTED_EDGE ( 'NONE', *, *, #157, .F. ) ;
#276 = AXIS2_PLACEMENT_3D ( 'NONE', #103, #161, #357 ) ;
#277 = PERSON_AND_ORGANIZATION ( #321, #32 ) ;
#278 = DIRECTION ( 'NONE',  ( 0.000000000000000000, 0.000000000000000000, 1.000000000000000000 ) ) ;
#279 =( NAMED_UNIT ( * ) SI_UNIT ( $, .STERADIAN. ) SOLID_ANGLE_UNIT ( ) );
#280 = ORIENTED_EDGE ( 'NONE', *, *, #20, .F. ) ;
#281 = AXIS2_PLACEMENT_3D ( 'NONE', #344, #371, #363 ) ;
#282 = EDGE_LOOP ( 'NONE', ( #147, #175, #142, #197 ) ) ;
#283 = ORIENTED_EDGE ( 'NONE', *, *, #240, .F. ) ;
#284 = VERTEX_POINT ( 'NONE', #54 ) ;
#285 = EDGE_LOOP ( 'NONE', ( #225, #9, #341, #227 ) ) ;
#286 = VERTEX_POINT ( 'NONE', #23 ) ;
#287 = DESIGN_CONTEXT ( 'detailed design', #121, 'design' ) ;
#288 = CARTESIAN_POINT ( 'NONE',  ( 4.000000000000000000, 4.898587196589412829E-16, 605.0000000000000000 ) ) ;
#289 = EDGE_CURVE ( 'NONE', #81, #286, #303, .T. ) ;
#290 = EDGE_CURVE ( 'NONE', #96, #145, #109, .T. ) ;
#291 = CARTESIAN_POINT ( 'NONE',  ( 7.000000000000000000, 8.572527594031473190E-16, 0.000000000000000000 ) ) ;
#292 = ADVANCED_FACE ( 'NONE', ( #208 ), #337, .F. ) ;
#293 = DIRECTION ( 'NONE',  ( -0.000000000000000000, -0.000000000000000000, -1.000000000000000000 ) ) ;
#294 = CYLINDRICAL_SURFACE ( 'NONE', #3, 4.000000000000000000 ) ;
#295 = AXIS2_PLACEMENT_3D ( 'NONE', #237, #27, #266 ) ;
#296 = DIRECTION ( 'NONE',  ( 0.000000000000000000, 0.000000000000000000, 1.000000000000000000 ) ) ;
#297 = MECHANICAL_CONTEXT ( 'NONE', #43, 'mechanical' ) ;
#298 = LOCAL_TIME ( 17, 22, 25.00000000000000000, #5 ) ;
#299 = APPROVAL_STATUS ( 'not_yet_approved' ) ;
#300 = DATE_AND_TIME ( #94, #298 ) ;
#301 = APPLICATION_PROTOCOL_DEFINITION ( 'international standard', 'config_control_design', 1994, #43 ) ;
#302 = VERTEX_POINT ( 'NONE', #315 ) ;
#303 = CIRCLE ( 'NONE', #183, 4.000000000000000000 ) ;
#304 = ADVANCED_FACE ( 'NONE', ( #376 ), #177, .F. ) ;
#305 = DIRECTION ( 'NONE',  ( -1.000000000000000000, 0.000000000000000000, 0.000000000000000000 ) ) ;
#306 = VERTEX_POINT ( 'NONE', #206 ) ;
#307 = CARTESIAN_POINT ( 'NONE',  ( -2.250000000000000000, 0.000000000000000000, 605.0000000000000000 ) ) ;
#308 = ORIENTED_EDGE ( 'NONE', *, *, #268, .T. ) ;
#309 = ORIENTED_EDGE ( 'NONE', *, *, #289, .T. ) ;
#310 = VECTOR ( 'NONE', #99, 1000.000000000000000 ) ;
#311 = AXIS2_PLACEMENT_3D ( 'NONE', #101, #187, #104 ) ;
#312 = PRODUCT_RELATED_PRODUCT_CATEGORY ( 'detail', '', ( #272 ) ) ;
#313 = ADVANCED_FACE ( 'NONE', ( #181 ), #136, .F. ) ;
#314 = CARTESIAN_POINT ( 'NONE',  ( 0.000000000000000000, 0.000000000000000000, 5.000000000000000000 ) ) ;
#315 = CARTESIAN_POINT ( 'NONE',  ( -4.000000000000000000, 0.000000000000000000, 5.499999999999949374 ) ) ;
#316 = AXIS2_PLACEMENT_3D ( 'NONE', #271, #381, #126 ) ;
#317 = DIRECTION ( 'NONE',  ( 0.000000000000000000, 0.000000000000000000, -1.000000000000000000 ) ) ;
#318 = MANIFOLD_SOLID_BREP ( 'Odebrat vysunutím3', #38 ) ;
#319 = DIRECTION ( 'NONE',  ( -0.000000000000000000, -0.000000000000000000, -1.000000000000000000 ) ) ;
#320 = APPROVAL_PERSON_ORGANIZATION ( #98, #380, #30 ) ;
#321 = PERSON ( 'NEURÈENÝ', 'NEURÈENÝ', 'NEURÈENÝ', ('NEURÈENÝ'), ('NEURÈENÝ'), ('NEURÈENÝ') ) ;
#322 = DATE_TIME_ROLE ( 'classification_date' ) ;
#323 = DIRECTION ( 'NONE',  ( -0.000000000000000000, -0.000000000000000000, -1.000000000000000000 ) ) ;
#324 = ADVANCED_FACE ( 'NONE', ( #152, #379 ), #58, .T. ) ;
#325 = CARTESIAN_POINT ( 'NONE',  ( 7.000000000000000000, 8.572527594031473190E-16, 5.000000000000000000 ) ) ;
#326 = PERSON_AND_ORGANIZATION ( #321, #32 ) ;
#327 = DIRECTION ( 'NONE',  ( 1.000000000000000000, 0.000000000000000000, 0.000000000000000000 ) ) ;
#328 = VECTOR ( 'NONE', #182, 1000.000000000000000 ) ;
#329 = CALENDAR_DATE ( 2022, 8, 7 ) ;
#330 = DIRECTION ( 'NONE',  ( 1.000000000000000000, 0.000000000000000000, 0.000000000000000000 ) ) ;
#331 = PERSON_AND_ORGANIZATION_ROLE ( 'classification_officer' ) ;
#332 = CARTESIAN_POINT ( 'NONE',  ( -4.000000000000000000, 0.000000000000000000, 605.0000000000000000 ) ) ;
#333 = VERTEX_POINT ( 'NONE', #236 ) ;
#334 = SHAPE_DEFINITION_REPRESENTATION ( #48, #263 ) ;
#335 = DIRECTION ( 'NONE',  ( 1.000000000000000000, 0.000000000000000000, -0.000000000000000000 ) ) ;
#336 = ORIENTED_EDGE ( 'NONE', *, *, #374, .F. ) ;
#337 = TOROIDAL_SURFACE ( 'NONE', #179, 4.500000000000000888, 0.5000000000000000000 ) ;
#338 = DIRECTION ( 'NONE',  ( -1.000000000000000000, 0.000000000000000000, 0.000000000000000000 ) ) ;
#339 = ORIENTED_EDGE ( 'NONE', *, *, #240, .T. ) ;
#340 = DIRECTION ( 'NONE',  ( -0.000000000000000000, -0.000000000000000000, -1.000000000000000000 ) ) ;
#341 = ORIENTED_EDGE ( 'NONE', *, *, #231, .T. ) ;
#342 = FACE_OUTER_BOUND ( 'NONE', #285, .T. ) ;
#343 = AXIS2_PLACEMENT_3D ( 'NONE', #108, #83, #235 ) ;
#344 = CARTESIAN_POINT ( 'NONE',  ( -4.500000000000000888, 5.510910596163089556E-16, 5.499999999999949374 ) ) ;
#345 = DIRECTION ( 'NONE',  ( 1.000000000000000000, 0.000000000000000000, 0.000000000000000000 ) ) ;
#346 = CARTESIAN_POINT ( 'NONE',  ( 0.000000000000000000, 0.000000000000000000, 605.0000000000000000 ) ) ;
#347 = AXIS2_PLACEMENT_3D ( 'NONE', #350, #238, #59 ) ;
#348 = LINE ( 'NONE', #88, #207 ) ;
#349 = DIRECTION ( 'NONE',  ( 1.000000000000000000, 0.000000000000000000, 0.000000000000000000 ) ) ;
#350 = CARTESIAN_POINT ( 'NONE',  ( 0.000000000000000000, 0.000000000000000000, 605.0000000000000000 ) ) ;
#351 = AXIS2_PLACEMENT_3D ( 'NONE', #124, #296, #122 ) ;
#352 = EDGE_CURVE ( 'NONE', #130, #79, #76, .T. ) ;
#353 = EDGE_CURVE ( 'NONE', #96, #130, #348, .T. ) ;
#354 = PERSON_AND_ORGANIZATION ( #321, #32 ) ;
#355 = PERSON_AND_ORGANIZATION_ROLE ( 'design_supplier' ) ;
#356 = DIRECTION ( 'NONE',  ( 0.000000000000000000, 0.000000000000000000, -1.000000000000000000 ) ) ;
#357 = DIRECTION ( 'NONE',  ( 1.000000000000000000, 0.000000000000000000, 0.000000000000000000 ) ) ;
#358 = PRODUCT_DEFINITION_FORMATION_WITH_SPECIFIED_SOURCE ( 'LIBOVOLNÝ', '', #272, .NOT_KNOWN. ) ;
#359 = PERSON_AND_ORGANIZATION ( #321, #32 ) ;
#360 = ORIENTED_EDGE ( 'NONE', *, *, #33, .F. ) ;
#361 = ORIENTED_EDGE ( 'NONE', *, *, #57, .T. ) ;
#362 = EDGE_LOOP ( 'NONE', ( #73, #253, #218, #77 ) ) ;
#363 = DIRECTION ( 'NONE',  ( -1.000000000000000000, 1.224646799147351482E-16, 0.000000000000000000 ) ) ;
#364 = CIRCLE ( 'NONE', #189, 7.000000000000000000 ) ;
#365 = EDGE_LOOP ( 'NONE', ( #106, #163, #339, #158 ) ) ;
#366 = ADVANCED_FACE ( 'NONE', ( #61 ), #294, .T. ) ;
#367 = AXIS2_PLACEMENT_3D ( 'NONE', #17, #149, #335 ) ;
#368 = CARTESIAN_POINT ( 'NONE',  ( 0.000000000000000000, 0.000000000000000000, 605.0000000000000000 ) ) ;
#369 = EDGE_LOOP ( 'NONE', ( #360, #283 ) ) ;
#370 = CARTESIAN_POINT ( 'NONE',  ( 0.000000000000000000, 0.000000000000000000, 605.0000000000000000 ) ) ;
#371 = DIRECTION ( 'NONE',  ( 1.224646799147353207E-16, 1.000000000000000000, -0.000000000000000000 ) ) ;
#372 = CIRCLE ( 'NONE', #127, 7.000000000000000000 ) ;
#373 = LOCAL_TIME ( 17, 22, 25.00000000000000000, #217 ) ;
#374 = EDGE_CURVE ( 'NONE', #72, #333, #234, .T. ) ;
#375 = LINE ( 'NONE', #119, #328 ) ;
#376 = FACE_OUTER_BOUND ( 'NONE', #47, .T. ) ;
#377 = AXIS2_PLACEMENT_3D ( 'NONE', #64, #166, #226 ) ;
#378 = AXIS2_PLACEMENT_3D ( 'NONE', #210, #319, #184 ) ;
#379 = FACE_OUTER_BOUND ( 'NONE', #195, .T. ) ;
#380 = APPROVAL ( #243, 'NEURÈENÝ' ) ;
#381 = DIRECTION ( 'NONE',  ( -0.000000000000000000, -0.000000000000000000, -1.000000000000000000 ) ) ;
ENDSEC;
END-ISO-10303-21;
