ISO-10303-21;
HEADER;
FILE_DESCRIPTION (( 'STEP AP203' ),
    '1' );
FILE_NAME ('5030.STEP',
    '2022-07-08T15:22:16',
    ( '' ),
    ( '' ),
    'SwSTEP 2.0',
    'SolidWorks 2019',
    '' );
FILE_SCHEMA (( 'CONFIG_CONTROL_DESIGN' ));
ENDSEC;

DATA;
#1 = VERTEX_POINT ( 'NONE', #246 ) ;
#2 = CLOSED_SHELL ( 'NONE', ( #379, #79, #54, #291, #59, #377, #204, #52, #117, #306, #219 ) ) ;
#3 = COORDINATED_UNIVERSAL_TIME_OFFSET ( 1, 0, .AHEAD. ) ;
#4 = PRODUCT_DEFINITION_SHAPE ( 'NONE', 'NONE',  #10 ) ;
#5 = DIRECTION ( 'NONE',  ( -0.000000000000000000, -0.000000000000000000, -1.000000000000000000 ) ) ;
#6 = CIRCLE ( 'NONE', #28, 4.000000000000000000 ) ;
#7 = CC_DESIGN_PERSON_AND_ORGANIZATION_ASSIGNMENT ( #49, #176, ( #343 ) ) ;
#8 = CARTESIAN_POINT ( 'NONE',  ( -4.000000000000000000, 0.000000000000000000, 655.0000000000000000 ) ) ;
#9 = APPROVAL_PERSON_ORGANIZATION ( #210, #312, #148 ) ;
#10 = PRODUCT_DEFINITION ( 'NEZNÁMÝ', '', #343, #198 ) ;
#11 = CYLINDRICAL_SURFACE ( 'NONE', #280, 7.000000000000000000 ) ;
#12 = LINE ( 'NONE', #126, #355 ) ;
#13 = APPROVAL_STATUS ( 'not_yet_approved' ) ;
#14 = EDGE_LOOP ( 'NONE', ( #128, #38 ) ) ;
#15 = APPROVAL_DATE_TIME ( #361, #312 ) ;
#16 = DIRECTION ( 'NONE',  ( 0.000000000000000000, 0.000000000000000000, 1.000000000000000000 ) ) ;
#17 = CIRCLE ( 'NONE', #329, 0.5000000000000004441 ) ;
#18 = DIRECTION ( 'NONE',  ( 0.000000000000000000, 0.000000000000000000, 1.000000000000000000 ) ) ;
#19 = EDGE_LOOP ( 'NONE', ( #66, #367, #50, #174 ) ) ;
#20 = CARTESIAN_POINT ( 'NONE',  ( 0.000000000000000000, 0.000000000000000000, 0.000000000000000000 ) ) ;
#21 = DIRECTION ( 'NONE',  ( 0.000000000000000000, 0.000000000000000000, 1.000000000000000000 ) ) ;
#22 = CARTESIAN_POINT ( 'NONE',  ( 7.000000000000000000, 8.572527594031473190E-16, 0.000000000000000000 ) ) ;
#23 = AXIS2_PLACEMENT_3D ( 'NONE', #41, #145, #32 ) ;
#24 = CARTESIAN_POINT ( 'NONE',  ( 0.000000000000000000, 0.000000000000000000, 5.499999999999949374 ) ) ;
#25 = CC_DESIGN_DATE_AND_TIME_ASSIGNMENT ( #294, #358, ( #267 ) ) ;
#26 = EDGE_CURVE ( 'NONE', #331, #156, #241, .T. ) ;
#27 = EDGE_CURVE ( 'NONE', #95, #201, #12, .T. ) ;
#28 = AXIS2_PLACEMENT_3D ( 'NONE', #24, #112, #222 ) ;
#29 = DIRECTION ( 'NONE',  ( 1.000000000000000000, 0.000000000000000000, 0.000000000000000000 ) ) ;
#30 = VERTEX_POINT ( 'NONE', #362 ) ;
#31 = CARTESIAN_POINT ( 'NONE',  ( 0.000000000000000000, 0.000000000000000000, 0.000000000000000000 ) ) ;
#32 = DIRECTION ( 'NONE',  ( 1.000000000000000000, 0.000000000000000000, 0.000000000000000000 ) ) ;
#33 = CIRCLE ( 'NONE', #215, 4.000000000000000000 ) ;
#34 = CALENDAR_DATE ( 2022, 8, 7 ) ;
#35 = DIRECTION ( 'NONE',  ( 1.000000000000000000, 0.000000000000000000, 0.000000000000000000 ) ) ;
#36 = EDGE_CURVE ( 'NONE', #1, #95, #348, .T. ) ;
#37 = CIRCLE ( 'NONE', #105, 2.250000000000000000 ) ;
#38 = ORIENTED_EDGE ( 'NONE', *, *, #64, .T. ) ;
#39 = ORIENTED_EDGE ( 'NONE', *, *, #266, .T. ) ;
#40 = SECURITY_CLASSIFICATION_LEVEL ( 'unclassified' ) ;
#41 = CARTESIAN_POINT ( 'NONE',  ( 0.000000000000000000, 0.000000000000000000, 5.000000000000000000 ) ) ;
#42 = VERTEX_POINT ( 'NONE', #223 ) ;
#43 = CC_DESIGN_PERSON_AND_ORGANIZATION_ASSIGNMENT ( #102, #242, ( #267 ) ) ;
#44 = LINE ( 'NONE', #260, #108 ) ;
#45 = DIRECTION ( 'NONE',  ( 0.000000000000000000, 0.000000000000000000, 1.000000000000000000 ) ) ;
#46 = TOROIDAL_SURFACE ( 'NONE', #234, 4.500000000000000888, 0.5000000000000000000 ) ;
#47 = CARTESIAN_POINT ( 'NONE',  ( -4.500000000000000888, 5.510910596163088569E-16, 4.999999999999975131 ) ) ;
#48 = ORIENTED_EDGE ( 'NONE', *, *, #230, .T. ) ;
#49 = PERSON_AND_ORGANIZATION ( #172, #273 ) ;
#50 = ORIENTED_EDGE ( 'NONE', *, *, #283, .T. ) ;
#51 = CARTESIAN_POINT ( 'NONE',  ( 0.000000000000000000, 0.000000000000000000, 655.0000000000000000 ) ) ;
#52 = ADVANCED_FACE ( 'NONE', ( #313 ), #249, .T. ) ;
#53 = LINE ( 'NONE', #160, #150 ) ;
#54 = ADVANCED_FACE ( 'NONE', ( #188 ), #380, .T. ) ;
#55 = CIRCLE ( 'NONE', #151, 4.500000000000000888 ) ;
#56 = CIRCLE ( 'NONE', #199, 7.000000000000000000 ) ;
#57 = DIRECTION ( 'NONE',  ( 1.000000000000000000, 0.000000000000000000, 0.000000000000000000 ) ) ;
#58 = CARTESIAN_POINT ( 'NONE',  ( 4.000000000000000000, 4.898587196589412829E-16, 5.499999999999949374 ) ) ;
#59 = ADVANCED_FACE ( 'NONE', ( #190 ), #308, .T. ) ;
#60 = APPROVAL_DATE_TIME ( #200, #88 ) ;
#61 = CARTESIAN_POINT ( 'NONE',  ( 0.000000000000000000, 0.000000000000000000, 655.0000000000000000 ) ) ;
#62 = ORIENTED_EDGE ( 'NONE', *, *, #138, .T. ) ;
#63 = APPROVAL_ROLE ( '' ) ;
#64 = EDGE_CURVE ( 'NONE', #290, #270, #33, .T. ) ;
#65 = CARTESIAN_POINT ( 'NONE',  ( 0.000000000000000000, 0.000000000000000000, 5.000000000000000000 ) ) ;
#66 = ORIENTED_EDGE ( 'NONE', *, *, #92, .F. ) ;
#67 = AXIS2_PLACEMENT_3D ( 'NONE', #344, #340, #137 ) ;
#68 = PERSON_AND_ORGANIZATION ( #172, #273 ) ;
#69 = LOCAL_TIME ( 17, 22, 16.00000000000000000, #196 ) ;
#70 = VERTEX_POINT ( 'NONE', #22 ) ;
#71 = CALENDAR_DATE ( 2022, 8, 7 ) ;
#72 = ORIENTED_EDGE ( 'NONE', *, *, #36, .T. ) ;
#73 = EDGE_CURVE ( 'NONE', #305, #268, #110, .T. ) ;
#74 = ORIENTED_EDGE ( 'NONE', *, *, #180, .T. ) ;
#75 = DIRECTION ( 'NONE',  ( 0.000000000000000000, 0.000000000000000000, -1.000000000000000000 ) ) ;
#76 = EDGE_LOOP ( 'NONE', ( #143, #107, #48, #217 ) ) ;
#77 = SHAPE_DEFINITION_REPRESENTATION ( #4, #341 ) ;
#78 = ORIENTED_EDGE ( 'NONE', *, *, #354, .T. ) ;
#79 = ADVANCED_FACE ( 'NONE', ( #84 ), #179, .F. ) ;
#80 = DIRECTION ( 'NONE',  ( 1.000000000000000000, 0.000000000000000000, 0.000000000000000000 ) ) ;
#81 = AXIS2_PLACEMENT_3D ( 'NONE', #371, #216, #189 ) ;
#82 = LOCAL_TIME ( 17, 22, 16.00000000000000000, #3 ) ;
#83 = CARTESIAN_POINT ( 'NONE',  ( 0.000000000000000000, 0.000000000000000000, 5.499999999999949374 ) ) ;
#84 = FACE_OUTER_BOUND ( 'NONE', #353, .T. ) ;
#85 = AXIS2_PLACEMENT_3D ( 'NONE', #287, #205, #35 ) ;
#86 = DIRECTION ( 'NONE',  ( -0.000000000000000000, -0.000000000000000000, -1.000000000000000000 ) ) ;
#87 = DIRECTION ( 'NONE',  ( -0.000000000000000000, -0.000000000000000000, -1.000000000000000000 ) ) ;
#88 = APPROVAL ( #203, 'NEURÈENÝ' ) ;
#89 = CARTESIAN_POINT ( 'NONE',  ( -2.250000000000000000, 0.000000000000000000, 0.000000000000000000 ) ) ;
#90 = AXIS2_PLACEMENT_3D ( 'NONE', #309, #87, #192 ) ;
#91 = UNCERTAINTY_MEASURE_WITH_UNIT (LENGTH_MEASURE( 1.000000000000000082E-05 ), #169, 'distance_accuracy_value', 'NONE');
#92 = EDGE_CURVE ( 'NONE', #156, #237, #364, .T. ) ;
#93 = APPROVAL_STATUS ( 'not_yet_approved' ) ;
#94 = CARTESIAN_POINT ( 'NONE',  ( -2.250000000000000000, 0.000000000000000000, 655.0000000000000000 ) ) ;
#95 = VERTEX_POINT ( 'NONE', #94 ) ;
#96 = DIRECTION ( 'NONE',  ( 1.000000000000000000, 0.000000000000000000, 0.000000000000000000 ) ) ;
#97 = ORIENTED_EDGE ( 'NONE', *, *, #195, .T. ) ;
#98 = EDGE_CURVE ( 'NONE', #42, #237, #55, .T. ) ;
#99 = CIRCLE ( 'NONE', #85, 4.000000000000000000 ) ;
#100 = CALENDAR_DATE ( 2022, 8, 7 ) ;
#101 = ORIENTED_EDGE ( 'NONE', *, *, #152, .F. ) ;
#102 = PERSON_AND_ORGANIZATION ( #172, #273 ) ;
#103 = CARTESIAN_POINT ( 'NONE',  ( 0.000000000000000000, 0.000000000000000000, 5.000000000000000000 ) ) ;
#104 = ORIENTED_EDGE ( 'NONE', *, *, #277, .F. ) ;
#105 = AXIS2_PLACEMENT_3D ( 'NONE', #121, #352, #96 ) ;
#106 = EDGE_CURVE ( 'NONE', #95, #1, #370, .T. ) ;
#107 = ORIENTED_EDGE ( 'NONE', *, *, #277, .T. ) ;
#108 = VECTOR ( 'NONE', #186, 1000.000000000000000 ) ;
#109 = CYLINDRICAL_SURFACE ( 'NONE', #81, 2.250000000000000000 ) ;
#110 = LINE ( 'NONE', #218, #373 ) ;
#111 = CIRCLE ( 'NONE', #259, 2.250000000000000000 ) ;
#112 = DIRECTION ( 'NONE',  ( 0.000000000000000000, 0.000000000000000000, 1.000000000000000000 ) ) ;
#113 = DIRECTION ( 'NONE',  ( 1.000000000000000000, 0.000000000000000000, 0.000000000000000000 ) ) ;
#114 = CALENDAR_DATE ( 2022, 8, 7 ) ;
#115 = LOCAL_TIME ( 17, 22, 16.00000000000000000, #244 ) ;
#116 = FACE_BOUND ( 'NONE', #357, .T. ) ;
#117 = ADVANCED_FACE ( 'NONE', ( #116, #122 ), #350, .T. ) ;
#118 = APPROVAL_DATE_TIME ( #141, #342 ) ;
#119 = LINE ( 'NONE', #8, #135 ) ;
#120 = ORIENTED_EDGE ( 'NONE', *, *, #158, .F. ) ;
#121 = CARTESIAN_POINT ( 'NONE',  ( 0.000000000000000000, 0.000000000000000000, 0.000000000000000000 ) ) ;
#122 = FACE_OUTER_BOUND ( 'NONE', #14, .T. ) ;
#123 = AXIS2_PLACEMENT_3D ( 'NONE', #220, #21, #374 ) ;
#124 = ORIENTED_EDGE ( 'NONE', *, *, #106, .F. ) ;
#125 = DIRECTION ( 'NONE',  ( 1.000000000000000000, 0.000000000000000000, -0.000000000000000000 ) ) ;
#126 = CARTESIAN_POINT ( 'NONE',  ( -2.250000000000000000, 0.000000000000000000, 655.0000000000000000 ) ) ;
#127 = CALENDAR_DATE ( 2022, 8, 7 ) ;
#128 = ORIENTED_EDGE ( 'NONE', *, *, #158, .T. ) ;
#129 = CARTESIAN_POINT ( 'NONE',  ( -7.000000000000000000, 0.000000000000000000, 5.000000000000000000 ) ) ;
#130 = AXIS2_PLACEMENT_3D ( 'NONE', #284, #18, #125 ) ;
#131 = CYLINDRICAL_SURFACE ( 'NONE', #208, 2.250000000000000000 ) ;
#132 = ORIENTED_EDGE ( 'NONE', *, *, #98, .F. ) ;
#133 = ORIENTED_EDGE ( 'NONE', *, *, #266, .F. ) ;
#134 = AXIS2_PLACEMENT_3D ( 'NONE', #276, #307, #161 ) ;
#135 = VECTOR ( 'NONE', #5, 1000.000000000000000 ) ;
#136 = CARTESIAN_POINT ( 'NONE',  ( 0.000000000000000000, 0.000000000000000000, 5.499999999999949374 ) ) ;
#137 = DIRECTION ( 'NONE',  ( -1.000000000000000000, 0.000000000000000000, 0.000000000000000000 ) ) ;
#138 = EDGE_CURVE ( 'NONE', #305, #187, #181, .T. ) ;
#139 = FACE_BOUND ( 'NONE', #178, .T. ) ;
#140 = AXIS2_PLACEMENT_3D ( 'NONE', #136, #311, #57 ) ;
#141 = DATE_AND_TIME ( #34, #365 ) ;
#142 = CARTESIAN_POINT ( 'NONE',  ( 0.000000000000000000, 0.000000000000000000, 655.0000000000000000 ) ) ;
#143 = ORIENTED_EDGE ( 'NONE', *, *, #106, .T. ) ;
#144 = PERSON_AND_ORGANIZATION_ROLE ( 'creator' ) ;
#145 = DIRECTION ( 'NONE',  ( 0.000000000000000000, 0.000000000000000000, 1.000000000000000000 ) ) ;
#146 = AXIS2_PLACEMENT_3D ( 'NONE', #61, #281, #29 ) ;
#147 = AXIS2_PLACEMENT_3D ( 'NONE', #83, #45, #261 ) ;
#148 = APPROVAL_ROLE ( '' ) ;
#149 = DIRECTION ( 'NONE',  ( -0.000000000000000000, -0.000000000000000000, -1.000000000000000000 ) ) ;
#150 = VECTOR ( 'NONE', #248, 1000.000000000000000 ) ;
#151 = AXIS2_PLACEMENT_3D ( 'NONE', #65, #227, #356 ) ;
#152 = EDGE_CURVE ( 'NONE', #270, #156, #119, .T. ) ;
#153 = DIRECTION ( 'NONE',  ( -1.000000000000000000, 0.000000000000000000, 0.000000000000000000 ) ) ;
#154 = DIRECTION ( 'NONE',  ( 0.000000000000000000, 0.000000000000000000, -1.000000000000000000 ) ) ;
#155 = ORIENTED_EDGE ( 'NONE', *, *, #299, .T. ) ;
#156 = VERTEX_POINT ( 'NONE', #317 ) ;
#157 =( GEOMETRIC_REPRESENTATION_CONTEXT ( 3 ) GLOBAL_UNCERTAINTY_ASSIGNED_CONTEXT ( ( #91 ) ) GLOBAL_UNIT_ASSIGNED_CONTEXT ( ( #169, #251, #167 ) ) REPRESENTATION_CONTEXT ( 'NONE', 'WORKASPACE' ) );
#158 = EDGE_CURVE ( 'NONE', #270, #290, #99, .T. ) ;
#159 = ORIENTED_EDGE ( 'NONE', *, *, #27, .T. ) ;
#160 = CARTESIAN_POINT ( 'NONE',  ( 7.000000000000000000, 8.572527594031473190E-16, 5.000000000000000000 ) ) ;
#161 = DIRECTION ( 'NONE',  ( -1.000000000000000000, 0.000000000000000000, 0.000000000000000000 ) ) ;
#162 = FACE_OUTER_BOUND ( 'NONE', #316, .T. ) ;
#163 = DIRECTION ( 'NONE',  ( -1.000000000000000000, 0.000000000000000000, 0.000000000000000000 ) ) ;
#164 = AXIS2_PLACEMENT_3D ( 'NONE', #31, #314, #349 ) ;
#165 = CC_DESIGN_PERSON_AND_ORGANIZATION_ASSIGNMENT ( #68, #378, ( #328 ) ) ;
#166 = LOCAL_TIME ( 17, 22, 16.00000000000000000, #296 ) ;
#167 =( NAMED_UNIT ( * ) SI_UNIT ( $, .STERADIAN. ) SOLID_ANGLE_UNIT ( ) );
#168 = PLANE ( 'NONE',  #130 ) ;
#169 =( LENGTH_UNIT ( ) NAMED_UNIT ( * ) SI_UNIT ( .MILLI., .METRE. ) );
#170 = ORIENTED_EDGE ( 'NONE', *, *, #283, .F. ) ;
#171 = CC_DESIGN_APPROVAL ( #88, ( #10 ) ) ;
#172 = PERSON ( 'NEURÈENÝ', 'NEURÈENÝ', 'NEURÈENÝ', ('NEURÈENÝ'), ('NEURÈENÝ'), ('NEURÈENÝ') ) ;
#173 = CARTESIAN_POINT ( 'NONE',  ( 0.000000000000000000, 0.000000000000000000, 0.000000000000000000 ) ) ;
#174 = ORIENTED_EDGE ( 'NONE', *, *, #354, .F. ) ;
#175 = ORIENTED_EDGE ( 'NONE', *, *, #360, .F. ) ;
#176 = PERSON_AND_ORGANIZATION_ROLE ( 'design_supplier' ) ;
#177 = FACE_OUTER_BOUND ( 'NONE', #338, .T. ) ;
#178 = EDGE_LOOP ( 'NONE', ( #214, #258 ) ) ;
#179 = TOROIDAL_SURFACE ( 'NONE', #140, 4.500000000000000888, 0.5000000000000000000 ) ;
#180 = EDGE_CURVE ( 'NONE', #201, #30, #37, .T. ) ;
#181 = CIRCLE ( 'NONE', #23, 7.000000000000000000 ) ;
#182 = CARTESIAN_POINT ( 'NONE',  ( 0.000000000000000000, 0.000000000000000000, 655.0000000000000000 ) ) ;
#183 = ORIENTED_EDGE ( 'NONE', *, *, #195, .F. ) ;
#184 = EDGE_LOOP ( 'NONE', ( #133, #183 ) ) ;
#185 = AXIS2_PLACEMENT_3D ( 'NONE', #182, #326, #298 ) ;
#186 = DIRECTION ( 'NONE',  ( 0.000000000000000000, 0.000000000000000000, -1.000000000000000000 ) ) ;
#187 = VERTEX_POINT ( 'NONE', #320 ) ;
#188 = FACE_OUTER_BOUND ( 'NONE', #288, .T. ) ;
#189 = DIRECTION ( 'NONE',  ( -1.000000000000000000, 0.000000000000000000, 0.000000000000000000 ) ) ;
#190 = FACE_OUTER_BOUND ( 'NONE', #263, .T. ) ;
#191 = CC_DESIGN_SECURITY_CLASSIFICATION ( #267, ( #343 ) ) ;
#192 = DIRECTION ( 'NONE',  ( 1.000000000000000000, 0.000000000000000000, 0.000000000000000000 ) ) ;
#193 = FACE_BOUND ( 'NONE', #206, .T. ) ;
#194 = DIRECTION ( 'NONE',  ( 0.000000000000000000, 0.000000000000000000, 1.000000000000000000 ) ) ;
#195 = EDGE_CURVE ( 'NONE', #70, #268, #221, .T. ) ;
#196 = COORDINATED_UNIVERSAL_TIME_OFFSET ( 1, 0, .AHEAD. ) ;
#197 = AXIS2_PLACEMENT_3D ( 'NONE', #279, #86, #163 ) ;
#198 = DESIGN_CONTEXT ( 'detailed design', #368, 'design' ) ;
#199 = AXIS2_PLACEMENT_3D ( 'NONE', #20, #16, #363 ) ;
#200 = DATE_AND_TIME ( #71, #69 ) ;
#201 = VERTEX_POINT ( 'NONE', #89 ) ;
#202 = APPROVAL_ROLE ( '' ) ;
#203 = APPROVAL_STATUS ( 'not_yet_approved' ) ;
#204 = ADVANCED_FACE ( 'NONE', ( #139, #381 ), #168, .F. ) ;
#205 = DIRECTION ( 'NONE',  ( 0.000000000000000000, 0.000000000000000000, 1.000000000000000000 ) ) ;
#206 = EDGE_LOOP ( 'NONE', ( #301, #78 ) ) ;
#207 = APPLICATION_PROTOCOL_DEFINITION ( 'international standard', 'config_control_design', 1994, #368 ) ;
#208 = AXIS2_PLACEMENT_3D ( 'NONE', #51, #75, #330 ) ;
#209 = ORIENTED_EDGE ( 'NONE', *, *, #92, .T. ) ;
#210 = PERSON_AND_ORGANIZATION ( #172, #273 ) ;
#211 = DIRECTION ( 'NONE',  ( -0.000000000000000000, -0.000000000000000000, -1.000000000000000000 ) ) ;
#212 = DIRECTION ( 'NONE',  ( 1.000000000000000000, 0.000000000000000000, 0.000000000000000000 ) ) ;
#213 = CARTESIAN_POINT ( 'NONE',  ( 0.000000000000000000, 0.000000000000000000, 5.000000000000000000 ) ) ;
#214 = ORIENTED_EDGE ( 'NONE', *, *, #180, .F. ) ;
#215 = AXIS2_PLACEMENT_3D ( 'NONE', #346, #194, #113 ) ;
#216 = DIRECTION ( 'NONE',  ( 0.000000000000000000, 0.000000000000000000, -1.000000000000000000 ) ) ;
#217 = ORIENTED_EDGE ( 'NONE', *, *, #27, .F. ) ;
#218 = CARTESIAN_POINT ( 'NONE',  ( -7.000000000000000000, 0.000000000000000000, 5.000000000000000000 ) ) ;
#219 = ADVANCED_FACE ( 'NONE', ( #177 ), #131, .F. ) ;
#220 = CARTESIAN_POINT ( 'NONE',  ( 0.000000000000000000, 0.000000000000000000, 5.000000000000000000 ) ) ;
#221 = CIRCLE ( 'NONE', #250, 7.000000000000000000 ) ;
#222 = DIRECTION ( 'NONE',  ( 1.000000000000000000, 0.000000000000000000, 0.000000000000000000 ) ) ;
#223 = CARTESIAN_POINT ( 'NONE',  ( 4.500000000000000888, 0.000000000000000000, 4.999999999999975131 ) ) ;
#224 = PERSON_AND_ORGANIZATION ( #172, #273 ) ;
#225 = VECTOR ( 'NONE', #332, 1000.000000000000000 ) ;
#226 = DATE_TIME_ROLE ( 'creation_date' ) ;
#227 = DIRECTION ( 'NONE',  ( -0.000000000000000000, -0.000000000000000000, -1.000000000000000000 ) ) ;
#228 = MANIFOLD_SOLID_BREP ( 'Odebrat vysunutím3', #2 ) ;
#229 = ORIENTED_EDGE ( 'NONE', *, *, #299, .F. ) ;
#230 = EDGE_CURVE ( 'NONE', #30, #201, #111, .T. ) ;
#231 = ORIENTED_EDGE ( 'NONE', *, *, #64, .F. ) ;
#232 = MECHANICAL_CONTEXT ( 'NONE', #247, 'mechanical' ) ;
#233 = AXIS2_PLACEMENT_3D ( 'NONE', #142, #256, #292 ) ;
#234 = AXIS2_PLACEMENT_3D ( 'NONE', #337, #376, #345 ) ;
#235 = CC_DESIGN_DATE_AND_TIME_ASSIGNMENT ( #322, #226, ( #10 ) ) ;
#236 = DIRECTION ( 'NONE',  ( 1.000000000000000000, 0.000000000000000000, 0.000000000000000000 ) ) ;
#237 = VERTEX_POINT ( 'NONE', #47 ) ;
#238 = CARTESIAN_POINT ( 'NONE',  ( 4.000000000000000000, 4.898587196589412829E-16, 655.0000000000000000 ) ) ;
#239 = DIRECTION ( 'NONE',  ( 0.000000000000000000, 0.000000000000000000, -1.000000000000000000 ) ) ;
#240 = CARTESIAN_POINT ( 'NONE',  ( 0.000000000000000000, 0.000000000000000000, 0.000000000000000000 ) ) ;
#241 = CIRCLE ( 'NONE', #147, 4.000000000000000000 ) ;
#242 = PERSON_AND_ORGANIZATION_ROLE ( 'classification_officer' ) ;
#243 = FACE_OUTER_BOUND ( 'NONE', #19, .T. ) ;
#244 = COORDINATED_UNIVERSAL_TIME_OFFSET ( 1, 0, .AHEAD. ) ;
#245 = ORIENTED_EDGE ( 'NONE', *, *, #375, .F. ) ;
#246 = CARTESIAN_POINT ( 'NONE',  ( 2.250000000000000000, 2.755455298081544285E-16, 655.0000000000000000 ) ) ;
#247 = APPLICATION_CONTEXT ( 'configuration controlled 3d designs of mechanical parts and assemblies' ) ;
#248 = DIRECTION ( 'NONE',  ( -0.000000000000000000, -0.000000000000000000, -1.000000000000000000 ) ) ;
#249 = CYLINDRICAL_SURFACE ( 'NONE', #67, 4.000000000000000000 ) ;
#250 = AXIS2_PLACEMENT_3D ( 'NONE', #173, #257, #236 ) ;
#251 =( NAMED_UNIT ( * ) PLANE_ANGLE_UNIT ( ) SI_UNIT ( $, .RADIAN. ) );
#252 = PERSON_AND_ORGANIZATION_ROLE ( 'creator' ) ;
#253 = DIRECTION ( 'NONE',  ( -1.000000000000000000, 1.224646799147351482E-16, 0.000000000000000000 ) ) ;
#254 = CC_DESIGN_APPROVAL ( #312, ( #267 ) ) ;
#255 = ORIENTED_EDGE ( 'NONE', *, *, #36, .F. ) ;
#256 = DIRECTION ( 'NONE',  ( 0.000000000000000000, 0.000000000000000000, 1.000000000000000000 ) ) ;
#257 = DIRECTION ( 'NONE',  ( 0.000000000000000000, 0.000000000000000000, 1.000000000000000000 ) ) ;
#258 = ORIENTED_EDGE ( 'NONE', *, *, #230, .F. ) ;
#259 = AXIS2_PLACEMENT_3D ( 'NONE', #240, #149, #212 ) ;
#260 = CARTESIAN_POINT ( 'NONE',  ( 2.250000000000000000, 2.755455298081544285E-16, 655.0000000000000000 ) ) ;
#261 = DIRECTION ( 'NONE',  ( 1.000000000000000000, 0.000000000000000000, 0.000000000000000000 ) ) ;
#262 = FACE_OUTER_BOUND ( 'NONE', #369, .T. ) ;
#263 = EDGE_LOOP ( 'NONE', ( #175, #303, #293, #39 ) ) ;
#264 = LINE ( 'NONE', #302, #225 ) ;
#265 = ORIENTED_EDGE ( 'NONE', *, *, #375, .T. ) ;
#266 = EDGE_CURVE ( 'NONE', #268, #70, #56, .T. ) ;
#267 = SECURITY_CLASSIFICATION ( '', '', #40 ) ;
#268 = VERTEX_POINT ( 'NONE', #324 ) ;
#269 = DIRECTION ( 'NONE',  ( 0.000000000000000000, 0.000000000000000000, 1.000000000000000000 ) ) ;
#270 = VERTEX_POINT ( 'NONE', #297 ) ;
#271 = EDGE_CURVE ( 'NONE', #187, #305, #321, .T. ) ;
#272 = PLANE ( 'NONE',  #123 ) ;
#273 = ORGANIZATION ( 'NEURÈENÝ', 'NEURÈENÝ', '' ) ;
#274 = DIRECTION ( 'NONE',  ( 1.224646799147353207E-16, 1.000000000000000000, -0.000000000000000000 ) ) ;
#275 = CARTESIAN_POINT ( 'NONE',  ( -4.500000000000000888, 5.510910596163089556E-16, 5.499999999999949374 ) ) ;
#276 = CARTESIAN_POINT ( 'NONE',  ( 0.000000000000000000, 0.000000000000000000, 5.000000000000000000 ) ) ;
#277 = EDGE_CURVE ( 'NONE', #1, #30, #44, .T. ) ;
#278 = FACE_OUTER_BOUND ( 'NONE', #76, .T. ) ;
#279 = CARTESIAN_POINT ( 'NONE',  ( 0.000000000000000000, 0.000000000000000000, 655.0000000000000000 ) ) ;
#280 = AXIS2_PLACEMENT_3D ( 'NONE', #103, #211, #153 ) ;
#281 = DIRECTION ( 'NONE',  ( 0.000000000000000000, 0.000000000000000000, 1.000000000000000000 ) ) ;
#282 = PERSON_AND_ORGANIZATION ( #172, #273 ) ;
#283 = EDGE_CURVE ( 'NONE', #331, #42, #17, .T. ) ;
#284 = CARTESIAN_POINT ( 'NONE',  ( 0.000000000000000000, 0.000000000000000000, 0.000000000000000000 ) ) ;
#285 = COORDINATED_UNIVERSAL_TIME_OFFSET ( 1, 0, .AHEAD. ) ;
#286 = AXIS2_PLACEMENT_3D ( 'NONE', #275, #274, #253 ) ;
#287 = CARTESIAN_POINT ( 'NONE',  ( 0.000000000000000000, 0.000000000000000000, 655.0000000000000000 ) ) ;
#288 = EDGE_LOOP ( 'NONE', ( #231, #155, #372, #101 ) ) ;
#289 = CC_DESIGN_APPROVAL ( #342, ( #343 ) ) ;
#290 = VERTEX_POINT ( 'NONE', #238 ) ;
#291 = ADVANCED_FACE ( 'NONE', ( #262 ), #11, .T. ) ;
#292 = DIRECTION ( 'NONE',  ( 1.000000000000000000, 0.000000000000000000, -0.000000000000000000 ) ) ;
#293 = ORIENTED_EDGE ( 'NONE', *, *, #73, .T. ) ;
#294 = DATE_AND_TIME ( #100, #166 ) ;
#295 = CIRCLE ( 'NONE', #90, 4.500000000000000888 ) ;
#296 = COORDINATED_UNIVERSAL_TIME_OFFSET ( 1, 0, .AHEAD. ) ;
#297 = CARTESIAN_POINT ( 'NONE',  ( -4.000000000000000000, 0.000000000000000000, 655.0000000000000000 ) ) ;
#298 = DIRECTION ( 'NONE',  ( 1.000000000000000000, 0.000000000000000000, 0.000000000000000000 ) ) ;
#299 = EDGE_CURVE ( 'NONE', #290, #331, #264, .T. ) ;
#300 = DIRECTION ( 'NONE',  ( 0.000000000000000000, -1.000000000000000000, 0.000000000000000000 ) ) ;
#301 = ORIENTED_EDGE ( 'NONE', *, *, #98, .T. ) ;
#302 = CARTESIAN_POINT ( 'NONE',  ( 4.000000000000000000, 4.898587196589412829E-16, 655.0000000000000000 ) ) ;
#303 = ORIENTED_EDGE ( 'NONE', *, *, #138, .F. ) ;
#304 = AXIS2_PLACEMENT_3D ( 'NONE', #213, #269, #80 ) ;
#305 = VERTEX_POINT ( 'NONE', #129 ) ;
#306 = ADVANCED_FACE ( 'NONE', ( #243 ), #46, .F. ) ;
#307 = DIRECTION ( 'NONE',  ( -0.000000000000000000, -0.000000000000000000, -1.000000000000000000 ) ) ;
#308 = CYLINDRICAL_SURFACE ( 'NONE', #134, 7.000000000000000000 ) ;
#309 = CARTESIAN_POINT ( 'NONE',  ( 0.000000000000000000, 0.000000000000000000, 5.000000000000000000 ) ) ;
#310 = APPROVAL_PERSON_ORGANIZATION ( #224, #88, #63 ) ;
#311 = DIRECTION ( 'NONE',  ( 0.000000000000000000, 0.000000000000000000, 1.000000000000000000 ) ) ;
#312 = APPROVAL ( #13, 'NEURÈENÝ' ) ;
#313 = FACE_OUTER_BOUND ( 'NONE', #323, .T. ) ;
#314 = DIRECTION ( 'NONE',  ( 0.000000000000000000, 0.000000000000000000, 1.000000000000000000 ) ) ;
#315 = CC_DESIGN_PERSON_AND_ORGANIZATION_ASSIGNMENT ( #319, #144, ( #343 ) ) ;
#316 = EDGE_LOOP ( 'NONE', ( #62, #318 ) ) ;
#317 = CARTESIAN_POINT ( 'NONE',  ( -4.000000000000000000, 0.000000000000000000, 5.499999999999949374 ) ) ;
#318 = ORIENTED_EDGE ( 'NONE', *, *, #271, .T. ) ;
#319 = PERSON_AND_ORGANIZATION ( #172, #273 ) ;
#320 = CARTESIAN_POINT ( 'NONE',  ( 7.000000000000000000, 8.572527594031473190E-16, 5.000000000000000000 ) ) ;
#321 = CIRCLE ( 'NONE', #304, 7.000000000000000000 ) ;
#322 = DATE_AND_TIME ( #114, #82 ) ;
#323 = EDGE_LOOP ( 'NONE', ( #229, #120, #325, #265 ) ) ;
#324 = CARTESIAN_POINT ( 'NONE',  ( -7.000000000000000000, 0.000000000000000000, 0.000000000000000000 ) ) ;
#325 = ORIENTED_EDGE ( 'NONE', *, *, #152, .T. ) ;
#326 = DIRECTION ( 'NONE',  ( 0.000000000000000000, 0.000000000000000000, 1.000000000000000000 ) ) ;
#327 = PRODUCT_RELATED_PRODUCT_CATEGORY ( 'detail', '', ( #328 ) ) ;
#328 = PRODUCT ( '5030', '5030', '', ( #232 ) ) ;
#329 = AXIS2_PLACEMENT_3D ( 'NONE', #366, #300, #154 ) ;
#330 = DIRECTION ( 'NONE',  ( -1.000000000000000000, 0.000000000000000000, 0.000000000000000000 ) ) ;
#331 = VERTEX_POINT ( 'NONE', #58 ) ;
#332 = DIRECTION ( 'NONE',  ( -0.000000000000000000, -0.000000000000000000, -1.000000000000000000 ) ) ;
#333 = ORIENTED_EDGE ( 'NONE', *, *, #360, .T. ) ;
#334 = CC_DESIGN_PERSON_AND_ORGANIZATION_ASSIGNMENT ( #282, #252, ( #10 ) ) ;
#335 = ORIENTED_EDGE ( 'NONE', *, *, #271, .F. ) ;
#336 = APPROVAL_PERSON_ORGANIZATION ( #351, #342, #202 ) ;
#337 = CARTESIAN_POINT ( 'NONE',  ( 0.000000000000000000, 0.000000000000000000, 5.499999999999949374 ) ) ;
#338 = EDGE_LOOP ( 'NONE', ( #104, #72, #159, #74 ) ) ;
#339 = DIRECTION ( 'NONE',  ( -0.000000000000000000, -0.000000000000000000, -1.000000000000000000 ) ) ;
#340 = DIRECTION ( 'NONE',  ( -0.000000000000000000, -0.000000000000000000, -1.000000000000000000 ) ) ;
#341 = ADVANCED_BREP_SHAPE_REPRESENTATION ( '5030', ( #228, #164 ), #157 ) ;
#342 = APPROVAL ( #93, 'NEURÈENÝ' ) ;
#343 = PRODUCT_DEFINITION_FORMATION_WITH_SPECIFIED_SOURCE ( 'LIBOVOLNÝ', '', #328, .NOT_KNOWN. ) ;
#344 = CARTESIAN_POINT ( 'NONE',  ( 0.000000000000000000, 0.000000000000000000, 655.0000000000000000 ) ) ;
#345 = DIRECTION ( 'NONE',  ( 1.000000000000000000, 0.000000000000000000, 0.000000000000000000 ) ) ;
#346 = CARTESIAN_POINT ( 'NONE',  ( 0.000000000000000000, 0.000000000000000000, 655.0000000000000000 ) ) ;
#347 = APPLICATION_PROTOCOL_DEFINITION ( 'international standard', 'config_control_design', 1994, #247 ) ;
#348 = CIRCLE ( 'NONE', #185, 2.250000000000000000 ) ;
#349 = DIRECTION ( 'NONE',  ( 1.000000000000000000, 0.000000000000000000, 0.000000000000000000 ) ) ;
#350 = PLANE ( 'NONE',  #233 ) ;
#351 = PERSON_AND_ORGANIZATION ( #172, #273 ) ;
#352 = DIRECTION ( 'NONE',  ( -0.000000000000000000, -0.000000000000000000, -1.000000000000000000 ) ) ;
#353 = EDGE_LOOP ( 'NONE', ( #245, #209, #132, #170 ) ) ;
#354 = EDGE_CURVE ( 'NONE', #237, #42, #295, .T. ) ;
#355 = VECTOR ( 'NONE', #239, 1000.000000000000000 ) ;
#356 = DIRECTION ( 'NONE',  ( 1.000000000000000000, 0.000000000000000000, 0.000000000000000000 ) ) ;
#357 = EDGE_LOOP ( 'NONE', ( #124, #255 ) ) ;
#358 = DATE_TIME_ROLE ( 'classification_date' ) ;
#359 = ORIENTED_EDGE ( 'NONE', *, *, #73, .F. ) ;
#360 = EDGE_CURVE ( 'NONE', #187, #70, #53, .T. ) ;
#361 = DATE_AND_TIME ( #127, #115 ) ;
#362 = CARTESIAN_POINT ( 'NONE',  ( 2.250000000000000000, 2.755455298081544285E-16, 0.000000000000000000 ) ) ;
#363 = DIRECTION ( 'NONE',  ( 1.000000000000000000, 0.000000000000000000, 0.000000000000000000 ) ) ;
#364 = CIRCLE ( 'NONE', #286, 0.5000000000000004441 ) ;
#365 = LOCAL_TIME ( 17, 22, 16.00000000000000000, #285 ) ;
#366 = CARTESIAN_POINT ( 'NONE',  ( 4.500000000000000888, 0.000000000000000000, 5.499999999999949374 ) ) ;
#367 = ORIENTED_EDGE ( 'NONE', *, *, #26, .F. ) ;
#368 = APPLICATION_CONTEXT ( 'configuration controlled 3d designs of mechanical parts and assemblies' ) ;
#369 = EDGE_LOOP ( 'NONE', ( #335, #333, #97, #359 ) ) ;
#370 = CIRCLE ( 'NONE', #146, 2.250000000000000000 ) ;
#371 = CARTESIAN_POINT ( 'NONE',  ( 0.000000000000000000, 0.000000000000000000, 655.0000000000000000 ) ) ;
#372 = ORIENTED_EDGE ( 'NONE', *, *, #26, .T. ) ;
#373 = VECTOR ( 'NONE', #339, 1000.000000000000000 ) ;
#374 = DIRECTION ( 'NONE',  ( 1.000000000000000000, 0.000000000000000000, -0.000000000000000000 ) ) ;
#375 = EDGE_CURVE ( 'NONE', #156, #331, #6, .T. ) ;
#376 = DIRECTION ( 'NONE',  ( 0.000000000000000000, 0.000000000000000000, 1.000000000000000000 ) ) ;
#377 = ADVANCED_FACE ( 'NONE', ( #193, #162 ), #272, .T. ) ;
#378 = PERSON_AND_ORGANIZATION_ROLE ( 'design_owner' ) ;
#379 = ADVANCED_FACE ( 'NONE', ( #278 ), #109, .F. ) ;
#380 = CYLINDRICAL_SURFACE ( 'NONE', #197, 4.000000000000000000 ) ;
#381 = FACE_OUTER_BOUND ( 'NONE', #184, .T. ) ;
ENDSEC;
END-ISO-10303-21;
